  0
SECTION
  2
HEADER
  9
$ACADVER
  1
AC1015
  9
$ACADMAINTVER
 70
     6
  9
$DWGCODEPAGE
  3
ANSI_1252
  9
$INSBASE
 10
0.0
 20
0.0
 30
0.0
  9
$EXTMIN
 10
0.0
 20
0.0
 30
0.0
  9
$EXTMAX
 10
1262.6646104322
 20
99.4773363843
 30
0.0
  9
$LIMMIN
 10
0.0
 20
0.0
  9
$LIMMAX
 10
1262.6646104322
 20
99.4773363843
  9
$ORTHOMODE
 70
     0
  9
$REGENMODE
 70
     1
  9
$FILLMODE
 70
     1
  9
$QTEXTMODE
 70
     0
  9
$MIRRTEXT
 70
     1
  9
$LTSCALE
 40
1.0
  9
$ATTMODE
 70
     1
  9
$TEXTSIZE
 40
3.5
  9
$TRACEWID
 40
1.0
  9
$TEXTSTYLE
  7
Standard
  9
$CLAYER
  8
0
  9
$CELTYPE
  6
ByLayer
  9
$CECOLOR
 62
   256
  9
$CELTSCALE
 40
1.0
  9
$DISPSILH
 70
     0
  9
$DIMSCALE
 40
1.0
  9
$DIMASZ
 40
3.302
  9
$DIMEXO
 40
1.27
  9
$DIMDLI
 40
3.75
  9
$DIMRND
 40
0.0
  9
$DIMDLE
 40
0.0
  9
$DIMEXE
 40
3.175
  9
$DIMTP
 40
0.0
  9
$DIMTM
 40
0.0
  9
$DIMTXT
 40
3.5
  9
$DIMCEN
 40
2.5
  9
$DIMTSZ
 40
0.0
  9
$DIMTOL
 70
     0
  9
$DIMLIM
 70
     0
  9
$DIMTIH
 70
     1
  9
$DIMTOH
 70
     1
  9
$DIMSE1
 70
     0
  9
$DIMSE2
 70
     0
  9
$DIMTAD
 70
     1
  9
$DIMZIN
 70
     1
  9
$DIMBLK
  1

  9
$DIMASO
 70
     1
  9
$DIMSHO
 70
     1
  9
$DIMPOST
  1

  9
$DIMAPOST
  1

  9
$DIMALT
 70
     0
  9
$DIMALTD
 70
     3
  9
$DIMALTF
 40
0.0393700787
  9
$DIMLFAC
 40
1.0
  9
$DIMTOFL
 70
     1
  9
$DIMTVP
 40
0.0
  9
$DIMTIX
 70
     0
  9
$DIMSOXD
 70
     0
  9
$DIMSAH
 70
     0
  9
$DIMBLK1
  1

  9
$DIMBLK2
  1

  9
$DIMSTYLE
  2
ISO-25
  9
$DIMCLRD
 70
     0
  9
$DIMCLRE
 70
     0
  9
$DIMCLRT
 70
     0
  9
$DIMTFAC
 40
1.0
  9
$DIMGAP
 40
1.524
  9
$DIMJUST
 70
     0
  9
$DIMSD1
 70
     0
  9
$DIMSD2
 70
     0
  9
$DIMTOLJ
 70
     0
  9
$DIMTZIN
 70
     1
  9
$DIMALTZ
 70
     0
  9
$DIMALTTZ
 70
     0
  9
$DIMUPT
 70
     0
  9
$DIMDEC
 70
     2
  9
$DIMTDEC
 70
     2
  9
$DIMALTU
 70
     2
  9
$DIMALTTD
 70
     3
  9
$DIMTXSTY
  7
Standard
  9
$DIMAUNIT
 70
     0
  9
$DIMADEC
 70
     2
  9
$DIMALTRND
 40
0.0
  9
$DIMAZIN
 70
     0
  9
$DIMDSEP
 70
    44
  9
$DIMATFIT
 70
     3
  9
$DIMFRAC
 70
     0
  9
$DIMLDRBLK
  1

  9
$DIMLUNIT
 70
     2
  9
$DIMLWD
 70
    -2
  9
$DIMLWE
 70
    -2
  9
$DIMTMOVE
 70
     0
  9
$LUNITS
 70
     2
  9
$LUPREC
 70
     3
  9
$SKETCHINC
 40
1.0
  9
$FILLETRAD
 40
0.0
  9
$AUNITS
 70
     0
  9
$AUPREC
 70
     1
  9
$MENU
  1
.
  9
$ELEVATION
 40
0.0
  9
$PELEVATION
 40
0.0
  9
$THICKNESS
 40
0.0
  9
$LIMCHECK
 70
     0
  9
$CHAMFERA
 40
0.0
  9
$CHAMFERB
 40
0.0
  9
$CHAMFERC
 40
0.0
  9
$CHAMFERD
 40
0.0
  9
$SKPOLY
 70
     0
  9
$TDCREATE
 40
2460905.633763287
  9
$TDUCREATE
 40
2460905.21709662
  9
$TDUPDATE
 40
2460905.633763519
  9
$TDUUPDATE
 40
2460905.217096852
  9
$TDINDWG
 40
0.0000000116
  9
$TDUSRTIMER
 40
0.0000000116
  9
$USRTIMER
 70
     1
  9
$ANGBASE
 50
0.0
  9
$ANGDIR
 70
     0
  9
$PDMODE
 70
     0
  9
$PDSIZE
 40
-1.0
  9
$PLINEWID
 40
0.0
  9
$SPLFRAME
 70
     0
  9
$SPLINETYPE
 70
     6
  9
$SPLINESEGS
 70
     8
  9
$HANDSEED
  5
B0
  9
$SURFTAB1
 70
     6
  9
$SURFTAB2
 70
     6
  9
$SURFTYPE
 70
     6
  9
$SURFU
 70
     6
  9
$SURFV
 70
     6
  9
$UCSBASE
  2

  9
$UCSNAME
  2

  9
$UCSORG
 10
0.0
 20
0.0
 30
0.0
  9
$UCSXDIR
 10
1.0
 20
0.0
 30
0.0
  9
$UCSYDIR
 10
0.0
 20
1.0
 30
0.0
  9
$UCSORTHOREF
  2

  9
$UCSORTHOVIEW
 70
     0
  9
$UCSORGTOP
 10
0.0
 20
0.0
 30
0.0
  9
$UCSORGBOTTOM
 10
0.0
 20
0.0
 30
0.0
  9
$UCSORGLEFT
 10
0.0
 20
0.0
 30
0.0
  9
$UCSORGRIGHT
 10
0.0
 20
0.0
 30
0.0
  9
$UCSORGFRONT
 10
0.0
 20
0.0
 30
0.0
  9
$UCSORGBACK
 10
0.0
 20
0.0
 30
0.0
  9
$PUCSBASE
  2

  9
$PUCSNAME
  2

  9
$PUCSORG
 10
0.0
 20
0.0
 30
0.0
  9
$PUCSXDIR
 10
1.0
 20
0.0
 30
0.0
  9
$PUCSYDIR
 10
0.0
 20
1.0
 30
0.0
  9
$PUCSORTHOREF
  2

  9
$PUCSORTHOVIEW
 70
     0
  9
$PUCSORGTOP
 10
0.0
 20
0.0
 30
0.0
  9
$PUCSORGBOTTOM
 10
0.0
 20
0.0
 30
0.0
  9
$PUCSORGLEFT
 10
0.0
 20
0.0
 30
0.0
  9
$PUCSORGRIGHT
 10
0.0
 20
0.0
 30
0.0
  9
$PUCSORGFRONT
 10
0.0
 20
0.0
 30
0.0
  9
$PUCSORGBACK
 10
0.0
 20
0.0
 30
0.0
  9
$USERI1
 70
     0
  9
$USERI2
 70
     0
  9
$USERI3
 70
     0
  9
$USERI4
 70
     0
  9
$USERI5
 70
     0
  9
$USERR1
 40
0.0
  9
$USERR2
 40
0.0
  9
$USERR3
 40
0.0
  9
$USERR4
 40
0.0
  9
$USERR5
 40
0.0
  9
$WORLDVIEW
 70
     1
  9
$SHADEDGE
 70
     3
  9
$SHADEDIF
 70
    70
  9
$TILEMODE
 70
     1
  9
$MAXACTVP
 70
    64
  9
$PINSBASE
 10
0.0
 20
0.0
 30
0.0
  9
$PLIMCHECK
 70
     0
  9
$PEXTMIN
 10
1.0000000000E+20
 20
1.0000000000E+20
 30
1.0000000000E+20
  9
$PEXTMAX
 10
-1.0000000000E+20
 20
-1.0000000000E+20
 30
-1.0000000000E+20
  9
$PLIMMIN
 10
0.0
 20
0.0
  9
$PLIMMAX
 10
420.0
 20
297.0
  9
$UNITMODE
 70
     0
  9
$VISRETAIN
 70
     1
  9
$PLINEGEN
 70
     0
  9
$PSLTSCALE
 70
     1
  9
$TREEDEPTH
 70
  3020
  9
$CMLSTYLE
  2
Standard
  9
$CMLJUST
 70
     0
  9
$CMLSCALE
 40
20.0
  9
$PROXYGRAPHICS
 70
     1
  9
$MEASUREMENT
 70
     1
  9
$CELWEIGHT
370
    -1
  9
$ENDCAPS
280
     0
  9
$JOINSTYLE
280
     0
  9
$LWDISPLAY
290
     1
  9
$INSUNITS
 70
     4
  9
$HYPERLINKBASE
  1

  9
$STYLESHEET
  1

  9
$XEDIT
290
     1
  9
$CEPSNTYPE
380
     0
  9
$PSTYLEMODE
290
     1
  9
$FINGERPRINTGUID
  2
{80aa8841-bdf9-403b-a92b-6b1e496dfa13}
  9
$VERSIONGUID
  2
{FAEB1C32-E019-11D5-929B-00C0DF256EC4}
  9
$EXTNAMES
290
     1
  9
$PSVPSCALE
 40
0.0
  9
$OLESTARTUP
290
     0
  0
ENDSEC
  0
SECTION
  2
CLASSES
  0
CLASS
  1
ACDBDICTIONARYWDFLT
  2
AcDbDictionaryWithDefault
  3
ObjectDBX Classes
 90
        0
280
     0
281
     0
  0
CLASS
  1
VISUALSTYLE
  2
AcDbVisualStyle
  3
ObjectDBX Classes
 90
     4095
280
     0
281
     0
  0
CLASS
  1
MATERIAL
  2
AcDbMaterial
  3
ObjectDBX Classes
 90
     1153
280
     0
281
     0
  0
CLASS
  1
SCALE
  2
AcDbScale
  3
ObjectDBX Classes
 90
     1153
280
     0
281
     0
  0
CLASS
  1
TABLESTYLE
  2
AcDbTableStyle
  3
ObjectDBX Classes
 90
     4095
280
     0
281
     0
  0
CLASS
  1
MLEADERSTYLE
  2
AcDbMLeaderStyle
  3
ACDB_MLEADERSTYLE_CLASS
 90
     4095
280
     0
281
     0
  0
CLASS
  1
SUN
  2
AcDbSun
  3
SCENEOE
 90
     1153
280
     0
281
     0
  0
CLASS
  1
ACDBPLACEHOLDER
  2
AcDbPlaceHolder
  3
ObjectDBX Classes
 90
        0
280
     0
281
     0
  0
CLASS
  1
LAYOUT
  2
AcDbLayout
  3
ObjectDBX Classes
 90
        0
280
     0
281
     0
  0
ENDSEC
  0
SECTION
  2
TABLES
  0
TABLE
  2
VPORT
  5
8
330
0
100
AcDbSymbolTable
 70
     1
  0
VPORT
  5
29
330
8
100
AcDbSymbolTableRecord
100
AcDbViewportTableRecord
  2
*Active
 70
     0
 10
0.0
 20
0.0
 11
1.0
 21
1.0
 12
631.3323052161
 22
49.7386681922
 13
0.0
 23
0.0
 14
10.0
 24
10.0
 15
10.0
 25
10.0
 16
0.0
 26
0.0
 36
1.0
 17
0.0
 27
0.0
 37
0.0
 40
99.4773363843
 41
12.6929877329
 42
50.0
 43
0.0
 44
0.0
 50
0.0
 51
0.0
 71
     0
 72
  2000
 73
     1
 74
     3
 75
     0
 76
     0
 77
     0
 78
     0
281
     0
 65
     1
110
0.0
120
0.0
130
0.0
111
1.0
121
0.0
131
0.0
112
0.0
122
1.0
132
0.0
 79
     0
146
0.0
  0
ENDTAB
  0
TABLE
  2
LTYPE
  5
5
330
0
100
AcDbSymbolTable
 70
     6
  0
LTYPE
  5
14
330
5
100
AcDbSymbolTableRecord
100
AcDbLinetypeTableRecord
  2
ByBlock
 70
     0
  3

 72
    65
 73
     0
 40
0.0
  0
LTYPE
  5
15
330
5
100
AcDbSymbolTableRecord
100
AcDbLinetypeTableRecord
  2
ByLayer
 70
     0
  3

 72
    65
 73
     0
 40
0.0
  0
LTYPE
  5
16
330
5
100
AcDbSymbolTableRecord
100
AcDbLinetypeTableRecord
  2
Continuous
 70
     0
  3
Solid line
 72
    65
 73
     0
 40
0.0
  0
LTYPE
  5
5E
330
5
100
AcDbSymbolTableRecord
100
AcDbLinetypeTableRecord
  2
HIDDEN
 70
     0
  3
Hidden __ __ __ __ __ __ __ __ __ __ __ __ __ __
 72
    65
 73
     2
 40
1.905
 49
1.27
 74
     0
 49
-0.635
 74
     0
  0
LTYPE
  5
5F
330
5
100
AcDbSymbolTableRecord
100
AcDbLinetypeTableRecord
  2
PHANTOM
 70
     0
  3
Phantom ______  __  __  ______  __  __  ______
 72
    65
 73
     6
 40
12.7
 49
6.35
 74
     0
 49
-1.27
 74
     0
 49
1.27
 74
     0
 49
-1.27
 74
     0
 49
1.27
 74
     0
 49
-1.27
 74
     0
  0
LTYPE
  5
60
330
5
100
AcDbSymbolTableRecord
100
AcDbLinetypeTableRecord
  2
CENTER
 70
     0
  3
Center ____ _ ____ _ ____ _ ____ _ ____ _ ____
 72
    65
 73
     4
 40
10.16
 49
6.35
 74
     0
 49
-1.27
 74
     0
 49
1.27
 74
     0
 49
-1.27
 74
     0
  0
LTYPE
  5
61
330
5
100
AcDbSymbolTableRecord
100
AcDbLinetypeTableRecord
  2
CENTERX2
 70
     0
  3
Center (2x) ________  __  ________  __  _____
 72
    65
 73
     4
 40
20.32
 49
12.7
 74
     0
 49
-2.54
 74
     0
 49
2.54
 74
     0
 49
-2.54
 74
     0
  0
LTYPE
  5
62
330
5
100
AcDbSymbolTableRecord
100
AcDbLinetypeTableRecord
  2
DOT2
 70
     0
  3
Dot (.5x) ........................................
 72
    65
 73
     2
 40
0.635
 49
0.0
 74
     0
 49
-0.635
 74
     0
  0
ENDTAB
  0
TABLE
  2
LAYER
  5
2
330
0
100
AcDbSymbolTable
 70
     7
  0
LAYER
  5
10
330
2
100
AcDbSymbolTableRecord
100
AcDbLayerTableRecord
  2
0
 70
     0
 62
     7
  6
Continuous
370
    -3
390
F
  0
LAYER
  5
63
330
2
100
AcDbSymbolTableRecord
100
AcDbLayerTableRecord
  2
BENDLINESUP
 70
     0
 62
     7
  6
CENTERX2
370
    -3
390
F
  0
LAYER
  5
64
330
2
100
AcDbSymbolTableRecord
100
AcDbLayerTableRecord
  2
BENDLLINESDOWN
 70
     0
 62
     7
  6
CENTERX2
370
    -3
390
F
  0
LAYER
  5
65
330
2
100
AcDbSymbolTableRecord
100
AcDbLayerTableRecord
  2
ETCHING
 70
     0
 62
     7
  6
Continuous
370
    -3
390
F
  0
LAYER
  5
66
330
2
100
AcDbSymbolTableRecord
100
AcDbLayerTableRecord
  2
CUT
 70
     0
 62
     7
  6
Continuous
370
    25
390
F
  0
LAYER
  5
67
330
2
100
AcDbSymbolTableRecord
100
AcDbLayerTableRecord
  2
DETAILS
 70
     0
 62
     5
  6
Continuous
370
    -3
390
F
  0
LAYER
  5
68
330
2
100
AcDbSymbolTableRecord
100
AcDbLayerTableRecord
  2
NOTES
 70
     0
 62
     1
  6
Continuous
370
    -3
390
F
  0
ENDTAB
  0
TABLE
  2
STYLE
  5
3
330
0
100
AcDbSymbolTable
 70
     2
  0
STYLE
  5
11
330
3
100
AcDbSymbolTableRecord
100
AcDbTextStyleTableRecord
  2
Standard
 70
     0
 40
0.0
 41
1.0
 50
0.0
 71
     0
 42
3.5
  3
txt
  4

  0
STYLE
  5
AD
330
3
100
AcDbSymbolTableRecord
100
AcDbTextStyleTableRecord
  2
SLDTEXTSTYLE0
 70
     0
 40
0.0
 41
0.6458333333
 50
0.0
 71
     0
 42
3.5
  3
TXT
  4

  0
ENDTAB
  0
TABLE
  2
VIEW
  5
6
330
0
100
AcDbSymbolTable
 70
     0
  0
ENDTAB
  0
TABLE
  2
UCS
  5
7
330
0
100
AcDbSymbolTable
 70
     0
  0
ENDTAB
  0
TABLE
  2
APPID
  5
9
330
0
100
AcDbSymbolTable
 70
     1
  0
APPID
  5
12
330
9
100
AcDbSymbolTableRecord
100
AcDbRegAppTableRecord
  2
ACAD
 70
     0
  0
ENDTAB
  0
TABLE
  2
DIMSTYLE
  5
A
330
0
100
AcDbSymbolTable
 70
     1
100
AcDbDimStyleTable
  0
DIMSTYLE
105
27
330
A
100
AcDbSymbolTableRecord
100
AcDbDimStyleTableRecord
  2
ISO-25
 70
     0
 41
2.5
 42
0.625
 43
3.75
 44
1.25
 73
     0
 74
     0
 77
     1
 78
     8
140
2.5
141
2.5
143
0.0393700787
147
0.625
171
     3
172
     1
178
     0
271
     2
272
     2
274
     3
278
    44
283
     0
284
     8
340
11
  0
ENDTAB
  0
TABLE
  2
BLOCK_RECORD
  5
1
330
0
100
AcDbSymbolTable
 70
     1
  0
BLOCK_RECORD
  5
1F
330
1
100
AcDbSymbolTableRecord
100
AcDbBlockTableRecord
  2
*Model_Space
340
22
  0
BLOCK_RECORD
  5
1B
330
1
100
AcDbSymbolTableRecord
100
AcDbBlockTableRecord
  2
*Paper_Space
340
1E
  0
BLOCK_RECORD
  5
23
330
1
100
AcDbSymbolTableRecord
100
AcDbBlockTableRecord
  2
*Paper_Space0
340
26
  0
ENDTAB
  0
ENDSEC
  0
SECTION
  2
BLOCKS
  0
BLOCK
  5
20
330
1F
100
AcDbEntity
  8
0
100
AcDbBlockBegin
  2
*Model_Space
 70
     0
 10
0.0
 20
0.0
 30
0.0
  3
*Model_Space
  1

  0
ENDBLK
  5
21
330
1F
100
AcDbEntity
  8
0
100
AcDbBlockEnd
  0
BLOCK
  5
1C
330
1B
100
AcDbEntity
 67
     1
  8
0
100
AcDbBlockBegin
  2
*Paper_Space
 70
     0
 10
0.0
 20
0.0
 30
0.0
  3
*Paper_Space
  1

  0
ENDBLK
  5
1D
330
1B
100
AcDbEntity
 67
     1
  8
0
100
AcDbBlockEnd
  0
BLOCK
  5
24
330
23
100
AcDbEntity
  8
0
100
AcDbBlockBegin
  2
*Paper_Space0
 70
     0
 10
0.0
 20
0.0
 30
0.0
  3
*Paper_Space0
  1

  0
ENDBLK
  5
25
330
23
100
AcDbEntity
  8
0
100
AcDbBlockEnd
  0
ENDSEC
  0
SECTION
  2
ENTITIES
  0
ARC
  5
69
330
1F
100
AcDbEntity
  8
CUT
 62
     3
100
AcDbCircle
 10
1142.3818519438
 20
11.9895467277
 30
0.0
 40
10.00000000000001
100
AcDbArc
 50
270.0
 51
0.0
  0
LINE
  5
6A
330
1F
100
AcDbEntity
  8
CUT
 62
     3
100
AcDbLine
 10
112.3818519438
 20
1.9895467277
 30
0.0
 11
1142.3818519438
 21
1.9895467277
 31
0.0
  0
ARC
  5
6B
330
1F
100
AcDbEntity
  8
CUT
 62
     3
100
AcDbCircle
 10
112.3818519438
 20
11.9895467277
 30
0.0
 40
9.999999999999787
100
AcDbArc
 50
180.0
 51
270.0
  0
LINE
  5
6C
330
1F
100
AcDbEntity
  8
CUT
 62
     3
100
AcDbLine
 10
102.3818519438
 20
44.0868913002
 30
0.0
 11
102.3818519438
 21
11.9895467277
 31
0.0
  0
LINE
  5
6D
330
1F
100
AcDbEntity
  8
CUT
 62
     3
100
AcDbLine
 10
102.3818519438
 20
44.0868913002
 30
0.0
 11
100.8818519438
 21
44.0868913002
 31
0.0
  0
LINE
  5
6E
330
1F
100
AcDbEntity
  8
CUT
 62
     3
100
AcDbLine
 10
100.8818519438
 20
44.0868913002
 30
0.0
 11
100.8818519438
 21
33.5868913002
 31
0.0
  0
LINE
  5
6F
330
1F
100
AcDbEntity
  8
CUT
 62
     3
100
AcDbLine
 10
100.8818519438
 20
33.5868913002
 30
0.0
 11
76.5762973015
 21
33.5868913002
 31
0.0
  0
LINE
  5
70
330
1F
100
AcDbEntity
  8
CUT
 62
     3
100
AcDbLine
 10
76.5762973015
 20
33.5868913002
 30
0.0
 11
29.2557739429
 21
6.266374401
 31
0.0
  0
ARC
  5
71
330
1F
100
AcDbEntity
  8
CUT
 62
     3
100
AcDbCircle
 10
28.7557739429
 20
7.1323998048
 30
0.0
 40
0.9999999999999776
100
AcDbArc
 50
210.0
 51
300.0
  0
LINE
  5
72
330
1F
100
AcDbEntity
  8
CUT
 62
     3
100
AcDbLine
 10
27.8897485391
 20
6.6323998048
 30
0.0
 11
18.3897485391
 21
23.0868824767
 31
0.0
  0
LINE
  5
73
330
1F
100
AcDbEntity
  8
CUT
 62
     3
100
AcDbLine
 10
18.3897485391
 20
23.0868824767
 30
0.0
 11
20.9878247505
 21
24.5868824767
 31
0.0
  0
LINE
  5
74
330
1F
100
AcDbEntity
  8
CUT
 62
     3
100
AcDbLine
 10
20.9878247505
 20
24.5868824767
 30
0.0
 11
1.9895467277
 21
57.4928652657
 31
0.0
  0
LINE
  5
75
330
1F
100
AcDbEntity
  8
CUT
 62
     3
100
AcDbLine
 10
1.9895467277
 20
57.4928652657
 30
0.0
 11
3.0876229376
 21
61.5909414774
 31
0.0
  0
LINE
  5
76
330
1F
100
AcDbEntity
  8
CUT
 62
     3
100
AcDbLine
 10
3.0876229376
 20
61.5909414774
 30
0.0
 11
25.4207158582
 21
74.4849586974
 31
0.0
  0
LINE
  5
77
330
1F
100
AcDbEntity
  8
CUT
 62
     3
100
AcDbLine
 10
25.4207158582
 20
74.4849586974
 30
0.0
 11
24.4207158576
 21
76.2170095047
 31
0.0
  0
ARC
  5
78
330
1F
100
AcDbEntity
  8
CUT
 62
     3
100
AcDbCircle
 10
25.2867412612
 20
76.717009505
 30
0.0
 40
1.000000000000055
100
AcDbArc
 50
120.0000000201
 51
210.0000000201
  0
LINE
  5
79
330
1F
100
AcDbEntity
  8
CUT
 62
     3
100
AcDbLine
 10
24.7867412609
 20
77.5830349086
 30
0.0
 11
27.3848174717
 21
79.0830349095
 31
0.0
  0
ARC
  5
7A
330
1F
100
AcDbEntity
  8
CUT
 62
     3
100
AcDbCircle
 10
27.884817472
 20
78.2170095059
 30
0.0
 40
0.999999999999938
100
AcDbArc
 50
30.0000000201
 51
120.0000000201
  0
LINE
  5
7B
330
1F
100
AcDbEntity
  8
CUT
 62
     3
100
AcDbLine
 10
45.6857103027
 20
86.1849587046
 30
0.0
 11
29.7508428763
 21
76.984958699
 31
0.0
  0
LINE
  5
7C
330
1F
100
AcDbEntity
  8
CUT
 62
     3
100
AcDbLine
 10
47.1857103036
 20
86.5868825047
 30
0.0
 11
45.6857103027
 21
86.1849587046
 31
0.0
  0
LINE
  5
7D
330
1F
100
AcDbEntity
  8
CUT
 62
     3
100
AcDbLine
 10
47.1857103036
 20
86.5868825047
 30
0.0
 11
65.5857103036
 21
86.5868825047
 31
0.0
  0
LINE
  5
7E
330
1F
100
AcDbEntity
  8
CUT
 62
     3
100
AcDbLine
 10
65.5857103036
 20
86.5868825047
 30
0.0
 11
65.5857103036
 21
88.5868825073
 31
0.0
  0
ARC
  5
7F
330
1F
100
AcDbEntity
  8
CUT
 62
     3
100
AcDbCircle
 10
66.5857103036
 20
88.5868825073
 30
0.0
 40
1.000000000000099
100
AcDbArc
 50
90.0000000402
 51
180.0
  0
LINE
  5
80
330
1F
100
AcDbEntity
  8
CUT
 62
     3
100
AcDbLine
 10
66.5857103029
 20
89.5868825073
 30
0.0
 11
74.5857103029
 21
89.5868825129
 31
0.0
  0
ARC
  5
81
330
1F
100
AcDbEntity
  8
CUT
 62
     3
100
AcDbCircle
 10
74.5857103036
 20
88.5868825129
 30
0.0
 40
1.000000000000114
100
AcDbArc
 50
360.0
 51
90.0000000402
  0
LINE
  5
82
330
1F
100
AcDbEntity
  8
CUT
 62
     3
100
AcDbLine
 10
75.5857103036
 20
88.5868825129
 30
0.0
 11
75.5857103036
 21
86.5868825047
 31
0.0
  0
LINE
  5
83
330
1F
100
AcDbEntity
  8
CUT
 62
     3
100
AcDbLine
 10
75.5857103036
 20
86.5868825047
 30
0.0
 11
325.5857118253
 21
86.5868825047
 31
0.0
  0
LINE
  5
84
330
1F
100
AcDbEntity
  8
CUT
 62
     3
100
AcDbLine
 10
325.5857118253
 20
86.5868825047
 30
0.0
 11
325.5857118267
 21
88.5868831127
 31
0.0
  0
ARC
  5
85
330
1F
100
AcDbEntity
  8
CUT
 62
     3
100
AcDbCircle
 10
326.5857118267
 20
88.586883112
 30
0.0
 40
1.0
100
AcDbArc
 50
89.9999999598
 51
179.9999999598
  0
LINE
  5
86
330
1F
100
AcDbEntity
  8
CUT
 62
     3
100
AcDbLine
 10
326.5857118274
 20
89.586883112
 30
0.0
 11
329.5857118274
 21
89.5868831099
 31
0.0
  0
ARC
  5
87
330
1F
100
AcDbEntity
  8
CUT
 62
     3
100
AcDbCircle
 10
329.5857118267
 20
88.5868831099
 30
0.0
 40
0.9999999999998863
100
AcDbArc
 50
359.9999999598
 51
89.9999999598
  0
LINE
  5
88
330
1F
100
AcDbEntity
  8
CUT
 62
     3
100
AcDbLine
 10
330.5857118267
 20
88.5868831092
 30
0.0
 11
330.5857118253
 21
86.5868831092
 31
0.0
  0
LINE
  5
89
330
1F
100
AcDbEntity
  8
CUT
 62
     3
100
AcDbLine
 10
330.5857118253
 20
86.5868831092
 30
0.0
 11
924.1779935898
 21
86.5868825047
 31
0.0
  0
LINE
  5
8A
330
1F
100
AcDbEntity
  8
CUT
 62
     3
100
AcDbLine
 10
924.1779935898
 20
86.5868825047
 30
0.0
 11
924.1779935912
 21
88.5868826926
 31
0.0
  0
ARC
  5
8B
330
1F
100
AcDbEntity
  8
CUT
 62
     3
100
AcDbCircle
 10
925.1779935912
 20
88.5868826919
 30
0.0
 40
1.0
100
AcDbArc
 50
89.9999999598
 51
179.9999999598
  0
LINE
  5
8C
330
1F
100
AcDbEntity
  8
CUT
 62
     3
100
AcDbLine
 10
925.1779935919
 20
89.5868826919
 30
0.0
 11
928.1779935919
 21
89.5868826898
 31
0.0
  0
ARC
  5
8D
330
1F
100
AcDbEntity
  8
CUT
 62
     3
100
AcDbCircle
 10
928.1779935912
 20
88.5868826898
 30
0.0
 40
1.000000000000114
100
AcDbArc
 50
359.9999999598
 51
89.9999999598
  0
LINE
  5
8E
330
1F
100
AcDbEntity
  8
CUT
 62
     3
100
AcDbLine
 10
929.1779935912
 20
88.5868826891
 30
0.0
 11
929.1779935898
 21
86.5868826891
 31
0.0
  0
LINE
  5
8F
330
1F
100
AcDbEntity
  8
CUT
 62
     3
100
AcDbLine
 10
929.1779935898
 20
86.5868826891
 30
0.0
 11
1179.177993584
 21
86.5868825047
 31
0.0
  0
LINE
  5
90
330
1F
100
AcDbEntity
  8
CUT
 62
     3
100
AcDbLine
 10
1179.177993584
 20
88.586882513
 30
0.0
 11
1179.177993584
 21
86.5868825047
 31
0.0
  0
ARC
  5
91
330
1F
100
AcDbEntity
  8
CUT
 62
     3
100
AcDbCircle
 10
1180.177993584
 20
88.586882513
 30
0.0
 40
0.9999999999998863
100
AcDbArc
 50
89.9999999598
 51
180.0
  0
LINE
  5
92
330
1F
100
AcDbEntity
  8
CUT
 62
     3
100
AcDbLine
 10
1180.1779935847
 20
89.586882513
 30
0.0
 11
1188.1779935847
 21
89.5868825073
 31
0.0
  0
ARC
  5
93
330
1F
100
AcDbEntity
  8
CUT
 62
     3
100
AcDbCircle
 10
1188.177993584
 20
88.5868825073
 30
0.0
 40
1.000000000000227
100
AcDbArc
 50
0.0
 51
89.9999999598
  0
LINE
  5
94
330
1F
100
AcDbEntity
  8
CUT
 62
     3
100
AcDbLine
 10
1189.177993584
 20
88.5868825073
 30
0.0
 11
1189.177993584
 21
86.5868825047
 31
0.0
  0
LINE
  5
95
330
1F
100
AcDbEntity
  8
CUT
 62
     3
100
AcDbLine
 10
1189.177993584
 20
86.5868825047
 30
0.0
 11
1207.577993584
 21
86.5868825047
 31
0.0
  0
LINE
  5
96
330
1F
100
AcDbEntity
  8
CUT
 62
     3
100
AcDbLine
 10
1207.577993584
 20
86.5868825047
 30
0.0
 11
1209.0779935849
 21
86.1849587046
 31
0.0
  0
LINE
  5
97
330
1F
100
AcDbEntity
  8
CUT
 62
     3
100
AcDbLine
 10
1209.0779935849
 20
86.1849587046
 30
0.0
 11
1225.0128610113
 21
76.984958699
 31
0.0
  0
LINE
  5
98
330
1F
100
AcDbEntity
  8
CUT
 62
     3
100
AcDbLine
 10
1226.0128610119
 20
78.7170095062
 30
0.0
 11
1225.0128610113
 21
76.984958699
 31
0.0
  0
ARC
  5
99
330
1F
100
AcDbEntity
  8
CUT
 62
     3
100
AcDbCircle
 10
1226.8788864155
 20
78.2170095059
 30
0.0
 40
1.00000000000009
100
AcDbArc
 50
59.9999999799
 51
149.9999999799
  0
LINE
  5
9A
330
1F
100
AcDbEntity
  8
CUT
 62
     3
100
AcDbLine
 10
1229.9769626267
 20
77.5830349086
 30
0.0
 11
1227.3788864158
 21
79.0830349095
 31
0.0
  0
ARC
  5
9B
330
1F
100
AcDbEntity
  8
CUT
 62
     3
100
AcDbCircle
 10
1229.4769626264
 20
76.717009505
 30
0.0
 40
1.00000000000022
100
AcDbArc
 50
329.9999999799
 51
59.9999999799
  0
LINE
  5
9C
330
1F
100
AcDbEntity
  8
CUT
 62
     3
100
AcDbLine
 10
1230.34298803
 20
76.2170095047
 30
0.0
 11
1229.3429880294
 21
74.4849586974
 31
0.0
  0
LINE
  5
9D
330
1F
100
AcDbEntity
  8
CUT
 62
     3
100
AcDbLine
 10
1229.3429880294
 20
74.4849586974
 30
0.0
 11
1251.67608095
 21
61.5909414774
 31
0.0
  0
LINE
  5
9E
330
1F
100
AcDbEntity
  8
CUT
 62
     3
100
AcDbLine
 10
1251.67608095
 20
61.5909414774
 30
0.0
 11
1252.7741571599
 21
57.4928652657
 31
0.0
  0
LINE
  5
9F
330
1F
100
AcDbEntity
  8
CUT
 62
     3
100
AcDbLine
 10
1252.7741571599
 20
57.4928652657
 30
0.0
 11
1233.7758791371
 21
24.5868824767
 31
0.0
  0
LINE
  5
A0
330
1F
100
AcDbEntity
  8
CUT
 62
     3
100
AcDbLine
 10
1233.7758791371
 20
24.5868824767
 30
0.0
 11
1236.3739553485
 21
23.0868824767
 31
0.0
  0
LINE
  5
A1
330
1F
100
AcDbEntity
  8
CUT
 62
     3
100
AcDbLine
 10
1236.3739553485
 20
23.0868824767
 30
0.0
 11
1226.8739553485
 21
6.6323998048
 31
0.0
  0
ARC
  5
A2
330
1F
100
AcDbEntity
  8
CUT
 62
     3
100
AcDbCircle
 10
1226.0079299447
 20
7.1323998048
 30
0.0
 40
0.9999999999999435
100
AcDbArc
 50
240.0
 51
330.0
  0
LINE
  5
A3
330
1F
100
AcDbEntity
  8
CUT
 62
     3
100
AcDbLine
 10
1225.5079299447
 20
6.266374401
 30
0.0
 11
1178.1874065861
 21
33.5868913002
 31
0.0
  0
LINE
  5
A4
330
1F
100
AcDbEntity
  8
CUT
 62
     3
100
AcDbLine
 10
1178.1874065861
 20
33.5868913002
 30
0.0
 11
1153.8818519438
 21
33.5868913002
 31
0.0
  0
LINE
  5
A5
330
1F
100
AcDbEntity
  8
CUT
 62
     3
100
AcDbLine
 10
1153.8818519438
 20
33.5868913002
 30
0.0
 11
1153.8818519438
 21
44.0868913002
 31
0.0
  0
LINE
  5
A6
330
1F
100
AcDbEntity
  8
CUT
 62
     3
100
AcDbLine
 10
1153.8818519438
 20
44.0868913002
 30
0.0
 11
1152.3818519438
 21
44.0868913002
 31
0.0
  0
LINE
  5
A7
330
1F
100
AcDbEntity
  8
CUT
 62
     3
100
AcDbLine
 10
1152.3818519438
 20
11.9895467277
 30
0.0
 11
1152.3818519438
 21
44.0868913002
 31
0.0
  0
CIRCLE
  5
A8
330
1F
100
AcDbEntity
  8
CUT
 62
     3
100
AcDbCircle
 10
1127.3818519438
 20
20.4895467277
 30
0.0
 40
5.49999999999984
  0
CIRCLE
  5
A9
330
1F
100
AcDbEntity
  8
CUT
 62
     3
100
AcDbCircle
 10
127.3818519438
 20
20.4895467277
 30
0.0
 40
5.499999999999837
  0
CIRCLE
  5
AA
330
1F
100
AcDbEntity
  8
CUT
 62
     3
100
AcDbCircle
 10
827.3818519438
 20
20.4895467277
 30
0.0
 40
5.50000000000006
  0
CIRCLE
  5
AB
330
1F
100
AcDbEntity
  8
CUT
 62
     3
100
AcDbCircle
 10
427.3818519438
 20
20.4895467277
 30
0.0
 40
5.499999999999837
  0
LINE
  5
AC
330
1F
100
AcDbEntity
  8
CUT
 62
     3
100
AcDbLine
 10
29.7508428763
 20
76.984958699
 30
0.0
 11
28.7508428757
 21
78.7170095062
 31
0.0
  0
MTEXT
  5
AE
330
1F
100
AcDbEntity
  8
0
  6
Continuous
 62
     7
370
     0
100
AcDbMText
 10
626.6137961248
 20
43.8153243746
 30
0.0
 40
3.5
 41
0.0
 71
     2
 72
     1
  1
UP  90°  R 3
  7
SLDTEXTSTYLE0
 73
     1
 44
1.0
  0
ENDSEC
  0
SECTION
  2
OBJECTS
  0
DICTIONARY
  5
C
330
0
100
AcDbDictionary
281
     1
  3
ACAD_GROUP
350
D
  3
ACAD_LAYOUT
350
1A
  3
ACAD_MLINESTYLE
350
17
  3
ACAD_PLOTSETTINGS
350
19
  3
ACAD_PLOTSTYLENAME
350
E
  3
ACAD_SCALELIST
350
47
  3
DWGPROPS
350
AF
  0
DICTIONARY
  5
D
102
{ACAD_REACTORS
330
C
102
}
330
C
100
AcDbDictionary
281
     1
  0
DICTIONARY
  5
1A
102
{ACAD_REACTORS
330
C
102
}
330
C
100
AcDbDictionary
281
     1
  3
Layout1
350
1E
  3
Layout2
350
26
  3
Model
350
22
  0
DICTIONARY
  5
17
102
{ACAD_REACTORS
330
C
102
}
330
C
100
AcDbDictionary
281
     1
  3
Standard
350
18
  0
DICTIONARY
  5
19
102
{ACAD_REACTORS
330
C
102
}
330
C
100
AcDbDictionary
281
     1
  0
ACDBDICTIONARYWDFLT
  5
E
102
{ACAD_REACTORS
330
C
102
}
330
C
100
AcDbDictionary
281
     1
  3
Normal
350
F
100
AcDbDictionaryWithDefault
340
F
  0
DICTIONARY
  5
47
102
{ACAD_REACTORS
330
C
102
}
330
C
100
AcDbDictionary
281
     1
  3
A0
350
48
  3
A1
350
49
  3
A2
350
4A
  3
A3
350
4B
  3
A4
350
4C
  3
A5
350
4D
  3
A6
350
4E
  3
A7
350
4F
  3
A8
350
50
  3
A9
350
51
  3
B0
350
52
  3
B1
350
53
  3
B2
350
54
  3
B3
350
55
  3
B4
350
56
  3
B5
350
57
  3
B6
350
58
  0
XRECORD
  5
AF
102
{ACAD_REACTORS
330
C
102
}
330
C
100
AcDbXrecord
280
     1
  1
DWGPROPS COOKIE
  2

  3

  4

  6

  7

  8
fcoqu
  9

300
=
301
=
302
=
303
=
304
=
305
=
306
=
307
=
308
=
309
=
 40
0.0
 41
2460905.21709662
 42
2460905.217096852
  1

 90
        0
  0
LAYOUT
  5
1E
102
{ACAD_REACTORS
330
1A
102
}
330
1A
100
AcDbPlotSettings
  1

  2
none_device
  4

  6

 40
0.0
 41
0.0
 42
0.0
 43
0.0
 44
0.0
 45
0.0
 46
0.0
 47
0.0
 48
0.0
 49
0.0
140
0.0
141
0.0
142
1.0
143
1.0
 70
   688
 72
     1
 73
     0
 74
     5
  7

 75
    16
147
1.0
148
0.0
149
0.0
100
AcDbLayout
  1
Layout1
 70
     1
 71
     1
 10
0.0
 20
0.0
 11
420.0
 21
297.0
 12
0.0
 22
0.0
 32
0.0
 14
1.0000000000E+20
 24
1.0000000000E+20
 34
1.0000000000E+20
 15
-1.0000000000E+20
 25
-1.0000000000E+20
 35
-1.0000000000E+20
146
0.0
 13
0.0
 23
0.0
 33
0.0
 16
1.0
 26
0.0
 36
0.0
 17
0.0
 27
1.0
 37
0.0
 76
     0
330
1B
  0
LAYOUT
  5
26
102
{ACAD_REACTORS
330
1A
102
}
330
1A
100
AcDbPlotSettings
  1

  2
none_device
  4

  6

 40
0.0
 41
0.0
 42
0.0
 43
0.0
 44
0.0
 45
0.0
 46
0.0
 47
0.0
 48
0.0
 49
0.0
140
0.0
141
0.0
142
1.0
143
1.0
 70
   688
 72
     1
 73
     0
 74
     5
  7

 75
    16
147
1.0
148
0.0
149
0.0
100
AcDbLayout
  1
Layout2
 70
     1
 71
     2
 10
0.0
 20
0.0
 11
0.0
 21
0.0
 12
0.0
 22
0.0
 32
0.0
 14
0.0
 24
0.0
 34
0.0
 15
0.0
 25
0.0
 35
0.0
146
0.0
 13
0.0
 23
0.0
 33
0.0
 16
1.0
 26
0.0
 36
0.0
 17
0.0
 27
1.0
 37
0.0
 76
     0
330
23
  0
LAYOUT
  5
22
102
{ACAD_REACTORS
330
1A
102
}
330
1A
100
AcDbPlotSettings
  1

  2
none_device
  4
Letter_(8.50_x_11.00_Inches)
  6

 40
6.35
 41
6.35
 42
6.35000508
 43
6.35000508
 44
215.9
 45
279.4
 46
0.0
 47
0.0
 48
0.0
 49
0.0
140
0.0
141
0.0
142
1.0
143
1.0
 70
  1712
 72
     1
 73
     0
 74
     0
  7

 75
     0
147
1.0
148
0.0
149
0.0
100
AcDbLayout
  1
Model
 70
     1
 71
     0
 10
0.0
 20
0.0
 11
1262.6646104322
 21
99.4773363843
 12
0.0
 22
0.0
 32
0.0
 14
0.0
 24
0.0
 34
0.0
 15
1262.6646104322
 25
99.4773363843
 35
0.0
146
0.0
 13
0.0
 23
0.0
 33
0.0
 16
1.0
 26
0.0
 36
0.0
 17
0.0
 27
1.0
 37
0.0
 76
     0
330
1F
331
29
  0
MLINESTYLE
  5
18
102
{ACAD_REACTORS
330
17
102
}
330
17
100
AcDbMlineStyle
  2
Standard
 70
     0
  3

 62
   256
 51
90.0
 52
90.0
 71
     2
 49
0.5
 62
   256
  6
BYLAYER
 49
-0.5
 62
   256
  6
BYLAYER
  0
ACDBPLACEHOLDER
  5
F
102
{ACAD_REACTORS
330
E
102
}
330
E
  0
SCALE
  5
48
102
{ACAD_REACTORS
330
47
102
}
330
47
100
AcDbScale
 70
     0
300
1:1
140
1.0
141
1.0
290
     1
  0
SCALE
  5
49
102
{ACAD_REACTORS
330
47
102
}
330
47
100
AcDbScale
 70
     0
300
1:2
140
1.0
141
2.0
290
     0
  0
SCALE
  5
4A
102
{ACAD_REACTORS
330
47
102
}
330
47
100
AcDbScale
 70
     0
300
1:4
140
1.0
141
4.0
290
     0
  0
SCALE
  5
4B
102
{ACAD_REACTORS
330
47
102
}
330
47
100
AcDbScale
 70
     0
300
1:5
140
1.0
141
5.0
290
     0
  0
SCALE
  5
4C
102
{ACAD_REACTORS
330
47
102
}
330
47
100
AcDbScale
 70
     0
300
1:8
140
1.0
141
8.0
290
     0
  0
SCALE
  5
4D
102
{ACAD_REACTORS
330
47
102
}
330
47
100
AcDbScale
 70
     0
300
1:10
140
1.0
141
10.0
290
     0
  0
SCALE
  5
4E
102
{ACAD_REACTORS
330
47
102
}
330
47
100
AcDbScale
 70
     0
300
1:16
140
1.0
141
16.0
290
     0
  0
SCALE
  5
4F
102
{ACAD_REACTORS
330
47
102
}
330
47
100
AcDbScale
 70
     0
300
1:20
140
1.0
141
20.0
290
     0
  0
SCALE
  5
50
102
{ACAD_REACTORS
330
47
102
}
330
47
100
AcDbScale
 70
     0
300
1:30
140
1.0
141
30.0
290
     0
  0
SCALE
  5
51
102
{ACAD_REACTORS
330
47
102
}
330
47
100
AcDbScale
 70
     0
300
1:40
140
1.0
141
40.0
290
     0
  0
SCALE
  5
52
102
{ACAD_REACTORS
330
47
102
}
330
47
100
AcDbScale
 70
     0
300
1:50
140
1.0
141
50.0
290
     0
  0
SCALE
  5
53
102
{ACAD_REACTORS
330
47
102
}
330
47
100
AcDbScale
 70
     0
300
1:100
140
1.0
141
100.0
290
     0
  0
SCALE
  5
54
102
{ACAD_REACTORS
330
47
102
}
330
47
100
AcDbScale
 70
     0
300
2:1
140
2.0
141
1.0
290
     0
  0
SCALE
  5
55
102
{ACAD_REACTORS
330
47
102
}
330
47
100
AcDbScale
 70
     0
300
4:1
140
4.0
141
1.0
290
     0
  0
SCALE
  5
56
102
{ACAD_REACTORS
330
47
102
}
330
47
100
AcDbScale
 70
     0
300
8:1
140
8.0
141
1.0
290
     0
  0
SCALE
  5
57
102
{ACAD_REACTORS
330
47
102
}
330
47
100
AcDbScale
 70
     0
300
10:1
140
10.0
141
1.0
290
     0
  0
SCALE
  5
58
102
{ACAD_REACTORS
330
47
102
}
330
47
100
AcDbScale
 70
     0
300
100:1
140
100.0
141
1.0
290
     0
  0
ENDSEC
  0
EOF
