  0
SECTION
  2
HEADER
  9
$ACADVER
  1
AC1015
  9
$ACADMAINTVER
 70
     6
  9
$DWGCODEPAGE
  3
ANSI_1252
  9
$INSBASE
 10
0.0
 20
0.0
 30
0.0
  9
$EXTMIN
 10
0.0
 20
0.0
 30
0.0
  9
$EXTMAX
 10
2514.88
 20
96.061377914
 30
0.0
  9
$LIMMIN
 10
0.0
 20
0.0
  9
$LIMMAX
 10
2514.88
 20
96.061377914
  9
$ORTHOMODE
 70
     0
  9
$REGENMODE
 70
     1
  9
$FILLMODE
 70
     1
  9
$QTEXTMODE
 70
     0
  9
$MIRRTEXT
 70
     1
  9
$LTSCALE
 40
1.0
  9
$ATTMODE
 70
     1
  9
$TEXTSIZE
 40
3.5
  9
$TRACEWID
 40
1.0
  9
$TEXTSTYLE
  7
Standard
  9
$CLAYER
  8
0
  9
$CELTYPE
  6
ByLayer
  9
$CECOLOR
 62
   256
  9
$CELTSCALE
 40
1.0
  9
$DISPSILH
 70
     0
  9
$DIMSCALE
 40
1.0
  9
$DIMASZ
 40
3.302
  9
$DIMEXO
 40
1.27
  9
$DIMDLI
 40
3.75
  9
$DIMRND
 40
0.0
  9
$DIMDLE
 40
0.0
  9
$DIMEXE
 40
3.175
  9
$DIMTP
 40
0.0
  9
$DIMTM
 40
0.0
  9
$DIMTXT
 40
3.5
  9
$DIMCEN
 40
2.5
  9
$DIMTSZ
 40
0.0
  9
$DIMTOL
 70
     0
  9
$DIMLIM
 70
     0
  9
$DIMTIH
 70
     1
  9
$DIMTOH
 70
     1
  9
$DIMSE1
 70
     0
  9
$DIMSE2
 70
     0
  9
$DIMTAD
 70
     1
  9
$DIMZIN
 70
     1
  9
$DIMBLK
  1

  9
$DIMASO
 70
     1
  9
$DIMSHO
 70
     1
  9
$DIMPOST
  1

  9
$DIMAPOST
  1

  9
$DIMALT
 70
     0
  9
$DIMALTD
 70
     3
  9
$DIMALTF
 40
0.0393700787
  9
$DIMLFAC
 40
1.0
  9
$DIMTOFL
 70
     1
  9
$DIMTVP
 40
0.0
  9
$DIMTIX
 70
     0
  9
$DIMSOXD
 70
     0
  9
$DIMSAH
 70
     0
  9
$DIMBLK1
  1

  9
$DIMBLK2
  1

  9
$DIMSTYLE
  2
ISO-25
  9
$DIMCLRD
 70
     0
  9
$DIMCLRE
 70
     0
  9
$DIMCLRT
 70
     0
  9
$DIMTFAC
 40
1.0
  9
$DIMGAP
 40
1.524
  9
$DIMJUST
 70
     0
  9
$DIMSD1
 70
     0
  9
$DIMSD2
 70
     0
  9
$DIMTOLJ
 70
     0
  9
$DIMTZIN
 70
     1
  9
$DIMALTZ
 70
     0
  9
$DIMALTTZ
 70
     0
  9
$DIMUPT
 70
     0
  9
$DIMDEC
 70
     2
  9
$DIMTDEC
 70
     2
  9
$DIMALTU
 70
     2
  9
$DIMALTTD
 70
     3
  9
$DIMTXSTY
  7
Standard
  9
$DIMAUNIT
 70
     0
  9
$DIMADEC
 70
     2
  9
$DIMALTRND
 40
0.0
  9
$DIMAZIN
 70
     0
  9
$DIMDSEP
 70
    44
  9
$DIMATFIT
 70
     3
  9
$DIMFRAC
 70
     0
  9
$DIMLDRBLK
  1

  9
$DIMLUNIT
 70
     2
  9
$DIMLWD
 70
    -2
  9
$DIMLWE
 70
    -2
  9
$DIMTMOVE
 70
     0
  9
$LUNITS
 70
     2
  9
$LUPREC
 70
     3
  9
$SKETCHINC
 40
1.0
  9
$FILLETRAD
 40
0.0
  9
$AUNITS
 70
     0
  9
$AUPREC
 70
     1
  9
$MENU
  1
.
  9
$ELEVATION
 40
0.0
  9
$PELEVATION
 40
0.0
  9
$THICKNESS
 40
0.0
  9
$LIMCHECK
 70
     0
  9
$CHAMFERA
 40
0.0
  9
$CHAMFERB
 40
0.0
  9
$CHAMFERC
 40
0.0
  9
$CHAMFERD
 40
0.0
  9
$SKPOLY
 70
     0
  9
$TDCREATE
 40
2460905.635874074
  9
$TDUCREATE
 40
2460905.219207408
  9
$TDUPDATE
 40
2460905.635874213
  9
$TDUUPDATE
 40
2460905.219207546
  9
$TDINDWG
 40
0.0000000116
  9
$TDUSRTIMER
 40
0.0000000116
  9
$USRTIMER
 70
     1
  9
$ANGBASE
 50
0.0
  9
$ANGDIR
 70
     0
  9
$PDMODE
 70
     0
  9
$PDSIZE
 40
-1.0
  9
$PLINEWID
 40
0.0
  9
$SPLFRAME
 70
     0
  9
$SPLINETYPE
 70
     6
  9
$SPLINESEGS
 70
     8
  9
$HANDSEED
  5
A2
  9
$SURFTAB1
 70
     6
  9
$SURFTAB2
 70
     6
  9
$SURFTYPE
 70
     6
  9
$SURFU
 70
     6
  9
$SURFV
 70
     6
  9
$UCSBASE
  2

  9
$UCSNAME
  2

  9
$UCSORG
 10
0.0
 20
0.0
 30
0.0
  9
$UCSXDIR
 10
1.0
 20
0.0
 30
0.0
  9
$UCSYDIR
 10
0.0
 20
1.0
 30
0.0
  9
$UCSORTHOREF
  2

  9
$UCSORTHOVIEW
 70
     0
  9
$UCSORGTOP
 10
0.0
 20
0.0
 30
0.0
  9
$UCSORGBOTTOM
 10
0.0
 20
0.0
 30
0.0
  9
$UCSORGLEFT
 10
0.0
 20
0.0
 30
0.0
  9
$UCSORGRIGHT
 10
0.0
 20
0.0
 30
0.0
  9
$UCSORGFRONT
 10
0.0
 20
0.0
 30
0.0
  9
$UCSORGBACK
 10
0.0
 20
0.0
 30
0.0
  9
$PUCSBASE
  2

  9
$PUCSNAME
  2

  9
$PUCSORG
 10
0.0
 20
0.0
 30
0.0
  9
$PUCSXDIR
 10
1.0
 20
0.0
 30
0.0
  9
$PUCSYDIR
 10
0.0
 20
1.0
 30
0.0
  9
$PUCSORTHOREF
  2

  9
$PUCSORTHOVIEW
 70
     0
  9
$PUCSORGTOP
 10
0.0
 20
0.0
 30
0.0
  9
$PUCSORGBOTTOM
 10
0.0
 20
0.0
 30
0.0
  9
$PUCSORGLEFT
 10
0.0
 20
0.0
 30
0.0
  9
$PUCSORGRIGHT
 10
0.0
 20
0.0
 30
0.0
  9
$PUCSORGFRONT
 10
0.0
 20
0.0
 30
0.0
  9
$PUCSORGBACK
 10
0.0
 20
0.0
 30
0.0
  9
$USERI1
 70
     0
  9
$USERI2
 70
     0
  9
$USERI3
 70
     0
  9
$USERI4
 70
     0
  9
$USERI5
 70
     0
  9
$USERR1
 40
0.0
  9
$USERR2
 40
0.0
  9
$USERR3
 40
0.0
  9
$USERR4
 40
0.0
  9
$USERR5
 40
0.0
  9
$WORLDVIEW
 70
     1
  9
$SHADEDGE
 70
     3
  9
$SHADEDIF
 70
    70
  9
$TILEMODE
 70
     1
  9
$MAXACTVP
 70
    64
  9
$PINSBASE
 10
0.0
 20
0.0
 30
0.0
  9
$PLIMCHECK
 70
     0
  9
$PEXTMIN
 10
1.0000000000E+20
 20
1.0000000000E+20
 30
1.0000000000E+20
  9
$PEXTMAX
 10
-1.0000000000E+20
 20
-1.0000000000E+20
 30
-1.0000000000E+20
  9
$PLIMMIN
 10
0.0
 20
0.0
  9
$PLIMMAX
 10
420.0
 20
297.0
  9
$UNITMODE
 70
     0
  9
$VISRETAIN
 70
     1
  9
$PLINEGEN
 70
     0
  9
$PSLTSCALE
 70
     1
  9
$TREEDEPTH
 70
  3020
  9
$CMLSTYLE
  2
Standard
  9
$CMLJUST
 70
     0
  9
$CMLSCALE
 40
20.0
  9
$PROXYGRAPHICS
 70
     1
  9
$MEASUREMENT
 70
     1
  9
$CELWEIGHT
370
    -1
  9
$ENDCAPS
280
     0
  9
$JOINSTYLE
280
     0
  9
$LWDISPLAY
290
     1
  9
$INSUNITS
 70
     4
  9
$HYPERLINKBASE
  1

  9
$STYLESHEET
  1

  9
$XEDIT
290
     1
  9
$CEPSNTYPE
380
     0
  9
$PSTYLEMODE
290
     1
  9
$FINGERPRINTGUID
  2
{d4592236-bf54-4c45-93cc-d0de35c2b9e7}
  9
$VERSIONGUID
  2
{FAEB1C32-E019-11D5-929B-00C0DF256EC4}
  9
$EXTNAMES
290
     1
  9
$PSVPSCALE
 40
0.0
  9
$OLESTARTUP
290
     0
  0
ENDSEC
  0
SECTION
  2
CLASSES
  0
CLASS
  1
ACDBDICTIONARYWDFLT
  2
AcDbDictionaryWithDefault
  3
ObjectDBX Classes
 90
        0
280
     0
281
     0
  0
CLASS
  1
VISUALSTYLE
  2
AcDbVisualStyle
  3
ObjectDBX Classes
 90
     4095
280
     0
281
     0
  0
CLASS
  1
MATERIAL
  2
AcDbMaterial
  3
ObjectDBX Classes
 90
     1153
280
     0
281
     0
  0
CLASS
  1
SCALE
  2
AcDbScale
  3
ObjectDBX Classes
 90
     1153
280
     0
281
     0
  0
CLASS
  1
TABLESTYLE
  2
AcDbTableStyle
  3
ObjectDBX Classes
 90
     4095
280
     0
281
     0
  0
CLASS
  1
MLEADERSTYLE
  2
AcDbMLeaderStyle
  3
ACDB_MLEADERSTYLE_CLASS
 90
     4095
280
     0
281
     0
  0
CLASS
  1
SUN
  2
AcDbSun
  3
SCENEOE
 90
     1153
280
     0
281
     0
  0
CLASS
  1
ACDBPLACEHOLDER
  2
AcDbPlaceHolder
  3
ObjectDBX Classes
 90
        0
280
     0
281
     0
  0
CLASS
  1
LAYOUT
  2
AcDbLayout
  3
ObjectDBX Classes
 90
        0
280
     0
281
     0
  0
ENDSEC
  0
SECTION
  2
TABLES
  0
TABLE
  2
VPORT
  5
8
330
0
100
AcDbSymbolTable
 70
     1
  0
VPORT
  5
29
330
8
100
AcDbSymbolTableRecord
100
AcDbViewportTableRecord
  2
*Active
 70
     0
 10
0.0
 20
0.0
 11
1.0
 21
1.0
 12
1257.44
 22
48.030688957
 13
0.0
 23
0.0
 14
10.0
 24
10.0
 15
10.0
 25
10.0
 16
0.0
 26
0.0
 36
1.0
 17
0.0
 27
0.0
 37
0.0
 40
96.061377914
 41
26.1799284438
 42
50.0
 43
0.0
 44
0.0
 50
0.0
 51
0.0
 71
     0
 72
  2000
 73
     1
 74
     3
 75
     0
 76
     0
 77
     0
 78
     0
281
     0
 65
     1
110
0.0
120
0.0
130
0.0
111
1.0
121
0.0
131
0.0
112
0.0
122
1.0
132
0.0
 79
     0
146
0.0
  0
ENDTAB
  0
TABLE
  2
LTYPE
  5
5
330
0
100
AcDbSymbolTable
 70
     6
  0
LTYPE
  5
14
330
5
100
AcDbSymbolTableRecord
100
AcDbLinetypeTableRecord
  2
ByBlock
 70
     0
  3

 72
    65
 73
     0
 40
0.0
  0
LTYPE
  5
15
330
5
100
AcDbSymbolTableRecord
100
AcDbLinetypeTableRecord
  2
ByLayer
 70
     0
  3

 72
    65
 73
     0
 40
0.0
  0
LTYPE
  5
16
330
5
100
AcDbSymbolTableRecord
100
AcDbLinetypeTableRecord
  2
Continuous
 70
     0
  3
Solid line
 72
    65
 73
     0
 40
0.0
  0
LTYPE
  5
5E
330
5
100
AcDbSymbolTableRecord
100
AcDbLinetypeTableRecord
  2
HIDDEN
 70
     0
  3
Hidden __ __ __ __ __ __ __ __ __ __ __ __ __ __
 72
    65
 73
     2
 40
1.905
 49
1.27
 74
     0
 49
-0.635
 74
     0
  0
LTYPE
  5
5F
330
5
100
AcDbSymbolTableRecord
100
AcDbLinetypeTableRecord
  2
PHANTOM
 70
     0
  3
Phantom ______  __  __  ______  __  __  ______
 72
    65
 73
     6
 40
12.7
 49
6.35
 74
     0
 49
-1.27
 74
     0
 49
1.27
 74
     0
 49
-1.27
 74
     0
 49
1.27
 74
     0
 49
-1.27
 74
     0
  0
LTYPE
  5
60
330
5
100
AcDbSymbolTableRecord
100
AcDbLinetypeTableRecord
  2
CENTER
 70
     0
  3
Center ____ _ ____ _ ____ _ ____ _ ____ _ ____
 72
    65
 73
     4
 40
10.16
 49
6.35
 74
     0
 49
-1.27
 74
     0
 49
1.27
 74
     0
 49
-1.27
 74
     0
  0
LTYPE
  5
61
330
5
100
AcDbSymbolTableRecord
100
AcDbLinetypeTableRecord
  2
CENTERX2
 70
     0
  3
Center (2x) ________  __  ________  __  _____
 72
    65
 73
     4
 40
20.32
 49
12.7
 74
     0
 49
-2.54
 74
     0
 49
2.54
 74
     0
 49
-2.54
 74
     0
  0
LTYPE
  5
62
330
5
100
AcDbSymbolTableRecord
100
AcDbLinetypeTableRecord
  2
DOT2
 70
     0
  3
Dot (.5x) ........................................
 72
    65
 73
     2
 40
0.635
 49
0.0
 74
     0
 49
-0.635
 74
     0
  0
ENDTAB
  0
TABLE
  2
LAYER
  5
2
330
0
100
AcDbSymbolTable
 70
     7
  0
LAYER
  5
10
330
2
100
AcDbSymbolTableRecord
100
AcDbLayerTableRecord
  2
0
 70
     0
 62
     7
  6
Continuous
370
    -3
390
F
  0
LAYER
  5
63
330
2
100
AcDbSymbolTableRecord
100
AcDbLayerTableRecord
  2
BENDLINESUP
 70
     0
 62
     7
  6
CENTERX2
370
    -3
390
F
  0
LAYER
  5
64
330
2
100
AcDbSymbolTableRecord
100
AcDbLayerTableRecord
  2
BENDLLINESDOWN
 70
     0
 62
     7
  6
CENTERX2
370
    -3
390
F
  0
LAYER
  5
65
330
2
100
AcDbSymbolTableRecord
100
AcDbLayerTableRecord
  2
ETCHING
 70
     0
 62
     7
  6
Continuous
370
    -3
390
F
  0
LAYER
  5
66
330
2
100
AcDbSymbolTableRecord
100
AcDbLayerTableRecord
  2
CUT
 70
     0
 62
     7
  6
Continuous
370
    25
390
F
  0
LAYER
  5
67
330
2
100
AcDbSymbolTableRecord
100
AcDbLayerTableRecord
  2
DETAILS
 70
     0
 62
     5
  6
Continuous
370
    -3
390
F
  0
LAYER
  5
68
330
2
100
AcDbSymbolTableRecord
100
AcDbLayerTableRecord
  2
NOTES
 70
     0
 62
     1
  6
Continuous
370
    -3
390
F
  0
ENDTAB
  0
TABLE
  2
STYLE
  5
3
330
0
100
AcDbSymbolTable
 70
     2
  0
STYLE
  5
11
330
3
100
AcDbSymbolTableRecord
100
AcDbTextStyleTableRecord
  2
Standard
 70
     0
 40
0.0
 41
1.0
 50
0.0
 71
     0
 42
3.5
  3
txt
  4

  0
STYLE
  5
9F
330
3
100
AcDbSymbolTableRecord
100
AcDbTextStyleTableRecord
  2
SLDTEXTSTYLE0
 70
     0
 40
0.0
 41
0.6458333333
 50
0.0
 71
     0
 42
3.5
  3
TXT
  4

  0
ENDTAB
  0
TABLE
  2
VIEW
  5
6
330
0
100
AcDbSymbolTable
 70
     0
  0
ENDTAB
  0
TABLE
  2
UCS
  5
7
330
0
100
AcDbSymbolTable
 70
     0
  0
ENDTAB
  0
TABLE
  2
APPID
  5
9
330
0
100
AcDbSymbolTable
 70
     1
  0
APPID
  5
12
330
9
100
AcDbSymbolTableRecord
100
AcDbRegAppTableRecord
  2
ACAD
 70
     0
  0
ENDTAB
  0
TABLE
  2
DIMSTYLE
  5
A
330
0
100
AcDbSymbolTable
 70
     1
100
AcDbDimStyleTable
  0
DIMSTYLE
105
27
330
A
100
AcDbSymbolTableRecord
100
AcDbDimStyleTableRecord
  2
ISO-25
 70
     0
 41
2.5
 42
0.625
 43
3.75
 44
1.25
 73
     0
 74
     0
 77
     1
 78
     8
140
2.5
141
2.5
143
0.0393700787
147
0.625
171
     3
172
     1
178
     0
271
     2
272
     2
274
     3
278
    44
283
     0
284
     8
340
11
  0
ENDTAB
  0
TABLE
  2
BLOCK_RECORD
  5
1
330
0
100
AcDbSymbolTable
 70
     1
  0
BLOCK_RECORD
  5
1F
330
1
100
AcDbSymbolTableRecord
100
AcDbBlockTableRecord
  2
*Model_Space
340
22
  0
BLOCK_RECORD
  5
1B
330
1
100
AcDbSymbolTableRecord
100
AcDbBlockTableRecord
  2
*Paper_Space
340
1E
  0
BLOCK_RECORD
  5
23
330
1
100
AcDbSymbolTableRecord
100
AcDbBlockTableRecord
  2
*Paper_Space0
340
26
  0
ENDTAB
  0
ENDSEC
  0
SECTION
  2
BLOCKS
  0
BLOCK
  5
20
330
1F
100
AcDbEntity
  8
0
100
AcDbBlockBegin
  2
*Model_Space
 70
     0
 10
0.0
 20
0.0
 30
0.0
  3
*Model_Space
  1

  0
ENDBLK
  5
21
330
1F
100
AcDbEntity
  8
0
100
AcDbBlockEnd
  0
BLOCK
  5
1C
330
1B
100
AcDbEntity
 67
     1
  8
0
100
AcDbBlockBegin
  2
*Paper_Space
 70
     0
 10
0.0
 20
0.0
 30
0.0
  3
*Paper_Space
  1

  0
ENDBLK
  5
1D
330
1B
100
AcDbEntity
 67
     1
  8
0
100
AcDbBlockEnd
  0
BLOCK
  5
24
330
23
100
AcDbEntity
  8
0
100
AcDbBlockBegin
  2
*Paper_Space0
 70
     0
 10
0.0
 20
0.0
 30
0.0
  3
*Paper_Space0
  1

  0
ENDBLK
  5
25
330
23
100
AcDbEntity
  8
0
100
AcDbBlockEnd
  0
ENDSEC
  0
SECTION
  2
ENTITIES
  0
LINE
  5
69
330
1F
100
AcDbEntity
  8
CUT
 62
     3
100
AcDbLine
 10
49.3212275583
 20
38.7035673825
 30
0.0
 11
49.3212275583
 21
43.9035673825
 31
0.0
  0
LINE
  5
6A
330
1F
100
AcDbEntity
  8
CUT
 62
     3
100
AcDbLine
 10
52.5212275583
 20
38.7035673825
 30
0.0
 11
49.3212275583
 21
38.7035673825
 31
0.0
  0
LINE
  5
6B
330
1F
100
AcDbEntity
  8
CUT
 62
     3
100
AcDbLine
 10
52.5212275583
 20
43.9035673825
 30
0.0
 11
52.5212275583
 21
38.7035673825
 31
0.0
  0
LINE
  5
6C
330
1F
100
AcDbEntity
  8
CUT
 62
     3
100
AcDbLine
 10
49.3212275583
 20
43.9035673825
 30
0.0
 11
52.5212275583
 21
43.9035673825
 31
0.0
  0
LINE
  5
6D
330
1F
100
AcDbEntity
  8
CUT
 62
     3
100
AcDbLine
 10
2457.5212275583
 20
38.7035673825
 30
0.0
 11
2457.5212275583
 21
43.9035673825
 31
0.0
  0
LINE
  5
6E
330
1F
100
AcDbEntity
  8
CUT
 62
     3
100
AcDbLine
 10
2457.5212275583
 20
43.9035673825
 30
0.0
 11
2454.3212275583
 21
43.9035673825
 31
0.0
  0
LINE
  5
6F
330
1F
100
AcDbEntity
  8
CUT
 62
     3
100
AcDbLine
 10
2454.3212275583
 20
43.9035673825
 30
0.0
 11
2454.3212275583
 21
38.7035673825
 31
0.0
  0
LINE
  5
70
330
1F
100
AcDbEntity
  8
CUT
 62
     3
100
AcDbLine
 10
2454.3212275583
 20
38.7035673825
 30
0.0
 11
2457.5212275583
 21
38.7035673825
 31
0.0
  0
CIRCLE
  5
71
330
1F
100
AcDbEntity
  8
CUT
 62
     3
100
AcDbCircle
 10
1253.4212275583
 20
69.8035673671
 30
0.0
 40
4.49999999999595
  0
CIRCLE
  5
72
330
1F
100
AcDbEntity
  8
CUT
 62
     3
100
AcDbCircle
 10
1853.4212275583
 20
69.8035673671
 30
0.0
 40
4.499999999999943
  0
CIRCLE
  5
73
330
1F
100
AcDbEntity
  8
CUT
 62
     3
100
AcDbCircle
 10
653.4212275583
 20
69.8035673671
 30
0.0
 40
4.49999999999595
  0
CIRCLE
  5
74
330
1F
100
AcDbEntity
  8
CUT
 62
     3
100
AcDbCircle
 10
2407.4212275583
 20
69.8035678008
 30
0.0
 40
5.200000000000202
  0
CIRCLE
  5
75
330
1F
100
AcDbEntity
  8
CUT
 62
     3
100
AcDbCircle
 10
2473.4212275583
 20
69.8035678008
 30
0.0
 40
5.200000000000216
  0
CIRCLE
  5
76
330
1F
100
AcDbEntity
  8
CUT
 62
     3
100
AcDbCircle
 10
33.4212275583
 20
69.8035678008
 30
0.0
 40
5.200000000000216
  0
CIRCLE
  5
77
330
1F
100
AcDbEntity
  8
CUT
 62
     3
100
AcDbCircle
 10
99.4212275583
 20
69.8035678008
 30
0.0
 40
5.200000000000202
  0
LINE
  5
78
330
1F
100
AcDbEntity
  8
CUT
 62
     3
100
AcDbLine
 10
49.3212275583
 20
3.2202656634
 30
0.0
 11
49.3212275583
 21
8.3125705136
 31
0.0
  0
LINE
  5
79
330
1F
100
AcDbEntity
  8
CUT
 62
     3
100
AcDbLine
 10
19.4212275583
 20
3.2202656634
 30
0.0
 11
49.3212275583
 21
3.2202656634
 31
0.0
  0
LINE
  5
7A
330
1F
100
AcDbEntity
  8
CUT
 62
     3
100
AcDbLine
 10
19.4212275583
 20
9.2202656634
 30
0.0
 11
19.4212275583
 21
3.2202656634
 31
0.0
  0
ARC
  5
7B
330
1F
100
AcDbEntity
  8
CUT
 62
     3
100
AcDbCircle
 10
13.4212275583
 20
9.2202656634
 30
0.0
 40
5.99999999999992
100
AcDbArc
 50
0.0
 51
67.786507814
  0
LINE
  5
7C
330
1F
100
AcDbEntity
  8
CUT
 62
     3
100
AcDbLine
 10
5.0309335423
 20
19.1275965849
 30
0.0
 11
15.6895803774
 21
14.7749551676
 31
0.0
  0
ARC
  5
7D
330
1F
100
AcDbEntity
  8
CUT
 62
     3
100
AcDbCircle
 10
6.9212275583
 20
23.7565045051
 30
0.0
 40
4.999999999999893
100
AcDbArc
 50
180.0
 51
247.786507814
  0
LINE
  5
7E
330
1F
100
AcDbEntity
  8
CUT
 62
     3
100
AcDbLine
 10
1.9212275583
 20
23.7565045051
 30
0.0
 11
1.9212275583
 21
51.7035673825
 31
0.0
  0
LINE
  5
7F
330
1F
100
AcDbEntity
  8
CUT
 62
     3
100
AcDbLine
 10
7.0212275583
 20
51.7035673825
 30
0.0
 11
1.9212275583
 21
51.7035673825
 31
0.0
  0
LINE
  5
80
330
1F
100
AcDbEntity
  8
CUT
 62
     3
100
AcDbLine
 10
7.0212275583
 20
54.9035673825
 30
0.0
 11
7.0212275583
 21
51.7035673825
 31
0.0
  0
LINE
  5
81
330
1F
100
AcDbEntity
  8
CUT
 62
     3
100
AcDbLine
 10
1.9212275583
 20
54.9035673825
 30
0.0
 11
7.0212275583
 21
54.9035673825
 31
0.0
  0
LINE
  5
82
330
1F
100
AcDbEntity
  8
CUT
 62
     3
100
AcDbLine
 10
1.9212275583
 20
54.9035673825
 30
0.0
 11
1.9212275583
 21
79.8035673671
 31
0.0
  0
ARC
  5
83
330
1F
100
AcDbEntity
  8
CUT
 62
     3
100
AcDbCircle
 10
6.9212275583
 20
79.8035673671
 30
0.0
 40
4.999999999999893
100
AcDbArc
 50
90.0
 51
180.0
  0
LINE
  5
84
330
1F
100
AcDbEntity
  8
CUT
 62
     3
100
AcDbLine
 10
6.9212275583
 20
84.8035673671
 30
0.0
 11
2499.9212275583
 21
84.8035673671
 31
0.0
  0
ARC
  5
85
330
1F
100
AcDbEntity
  8
CUT
 62
     3
100
AcDbCircle
 10
2499.9212275583
 20
79.8035673671
 30
0.0
 40
5.0
100
AcDbArc
 50
0.0
 51
90.0
  0
LINE
  5
86
330
1F
100
AcDbEntity
  8
CUT
 62
     3
100
AcDbLine
 10
2504.9212275583
 20
54.9035673825
 30
0.0
 11
2504.9212275583
 21
79.8035673671
 31
0.0
  0
LINE
  5
87
330
1F
100
AcDbEntity
  8
CUT
 62
     3
100
AcDbLine
 10
2504.9212275583
 20
54.9035673825
 30
0.0
 11
2499.8212275583
 21
54.9035673825
 31
0.0
  0
LINE
  5
88
330
1F
100
AcDbEntity
  8
CUT
 62
     3
100
AcDbLine
 10
2499.8212275583
 20
54.9035673825
 30
0.0
 11
2499.8212275583
 21
51.7035673825
 31
0.0
  0
LINE
  5
89
330
1F
100
AcDbEntity
  8
CUT
 62
     3
100
AcDbLine
 10
2499.8212275583
 20
51.7035673825
 30
0.0
 11
2504.9212275583
 21
51.7035673825
 31
0.0
  0
LINE
  5
8A
330
1F
100
AcDbEntity
  8
CUT
 62
     3
100
AcDbLine
 10
2504.9212275583
 20
23.7565045051
 30
0.0
 11
2504.9212275583
 21
51.7035673825
 31
0.0
  0
ARC
  5
8B
330
1F
100
AcDbEntity
  8
CUT
 62
     3
100
AcDbCircle
 10
2499.9212275583
 20
23.7565045051
 30
0.0
 40
5.0
100
AcDbArc
 50
292.213492186
 51
360.0
  0
LINE
  5
8C
330
1F
100
AcDbEntity
  8
CUT
 62
     3
100
AcDbLine
 10
2501.8115215742
 20
19.1275965849
 30
0.0
 11
2491.1528747392
 21
14.7749551676
 31
0.0
  0
ARC
  5
8D
330
1F
100
AcDbEntity
  8
CUT
 62
     3
100
AcDbCircle
 10
2493.4212275583
 20
9.2202656634
 30
0.0
 40
6.0
100
AcDbArc
 50
112.213492186
 51
180.0
  0
LINE
  5
8E
330
1F
100
AcDbEntity
  8
CUT
 62
     3
100
AcDbLine
 10
2487.4212275583
 20
9.2202656634
 30
0.0
 11
2487.4212275583
 21
3.2202656634
 31
0.0
  0
LINE
  5
8F
330
1F
100
AcDbEntity
  8
CUT
 62
     3
100
AcDbLine
 10
2457.5212275583
 20
3.2202656634
 30
0.0
 11
2487.4212275583
 21
3.2202656634
 31
0.0
  0
LINE
  5
90
330
1F
100
AcDbEntity
  8
CUT
 62
     3
100
AcDbLine
 10
2457.5212275583
 20
3.2202656634
 30
0.0
 11
2457.5212275583
 21
8.3125705136
 31
0.0
  0
LINE
  5
91
330
1F
100
AcDbEntity
  8
CUT
 62
     3
100
AcDbLine
 10
2457.5212275583
 20
8.3125705136
 30
0.0
 11
2454.3212275583
 21
8.3125705136
 31
0.0
  0
LINE
  5
92
330
1F
100
AcDbEntity
  8
CUT
 62
     3
100
AcDbLine
 10
2454.3212275583
 20
8.3125705136
 30
0.0
 11
2454.3212275583
 21
3.2202656634
 31
0.0
  0
LINE
  5
93
330
1F
100
AcDbEntity
  8
CUT
 62
     3
100
AcDbLine
 10
52.5212275583
 20
3.2202656634
 30
0.0
 11
2454.3212275583
 21
3.2202656634
 31
0.0
  0
LINE
  5
94
330
1F
100
AcDbEntity
  8
CUT
 62
     3
100
AcDbLine
 10
52.5212275583
 20
8.3125705136
 30
0.0
 11
52.5212275583
 21
3.2202656634
 31
0.0
  0
LINE
  5
95
330
1F
100
AcDbEntity
  8
CUT
 62
     3
100
AcDbLine
 10
49.3212275583
 20
8.3125705136
 30
0.0
 11
52.5212275583
 21
8.3125705136
 31
0.0
  0
CIRCLE
  5
96
330
1F
100
AcDbEntity
  8
CUT
 62
     3
100
AcDbCircle
 10
1253.4212275583
 20
9.4171178091
 30
0.0
 40
1.600000000000136
  0
CIRCLE
  5
97
330
1F
100
AcDbEntity
  8
CUT
 62
     3
100
AcDbCircle
 10
173.4212275583
 20
9.4171178091
 30
0.0
 40
1.600000000000051
  0
CIRCLE
  5
98
330
1F
100
AcDbEntity
  8
CUT
 62
     3
100
AcDbCircle
 10
443.4212275583
 20
9.4171178091
 30
0.0
 40
1.600000000000023
  0
CIRCLE
  5
99
330
1F
100
AcDbEntity
  8
CUT
 62
     3
100
AcDbCircle
 10
713.4212275583
 20
9.4171178091
 30
0.0
 40
1.600000000000023
  0
CIRCLE
  5
9A
330
1F
100
AcDbEntity
  8
CUT
 62
     3
100
AcDbCircle
 10
983.4212275583
 20
9.4171178091
 30
0.0
 40
1.600000000000023
  0
CIRCLE
  5
9B
330
1F
100
AcDbEntity
  8
CUT
 62
     3
100
AcDbCircle
 10
1523.4212275583
 20
9.4171178091
 30
0.0
 40
1.599999999999909
  0
CIRCLE
  5
9C
330
1F
100
AcDbEntity
  8
CUT
 62
     3
100
AcDbCircle
 10
1793.4212275583
 20
9.4171178091
 30
0.0
 40
1.599999999999909
  0
CIRCLE
  5
9D
330
1F
100
AcDbEntity
  8
CUT
 62
     3
100
AcDbCircle
 10
2063.4212275583
 20
9.4171178091
 30
0.0
 40
1.600000000000364
  0
CIRCLE
  5
9E
330
1F
100
AcDbEntity
  8
CUT
 62
     3
100
AcDbCircle
 10
2333.4212275583
 20
9.4171178091
 30
0.0
 40
1.600000000000364
  0
MTEXT
  5
A0
330
1F
100
AcDbEntity
  8
0
  6
Continuous
 62
     7
370
     0
100
AcDbMText
 10
1250.3692605511
 20
30.9186610586
 30
0.0
 40
3.5
 41
0.0
 71
     2
 72
     1
  1
UP  30°  R 3
  7
SLDTEXTSTYLE0
 73
     1
 44
1.0
  0
ENDSEC
  0
SECTION
  2
OBJECTS
  0
DICTIONARY
  5
C
330
0
100
AcDbDictionary
281
     1
  3
ACAD_GROUP
350
D
  3
ACAD_LAYOUT
350
1A
  3
ACAD_MLINESTYLE
350
17
  3
ACAD_PLOTSETTINGS
350
19
  3
ACAD_PLOTSTYLENAME
350
E
  3
ACAD_SCALELIST
350
47
  3
DWGPROPS
350
A1
  0
DICTIONARY
  5
D
102
{ACAD_REACTORS
330
C
102
}
330
C
100
AcDbDictionary
281
     1
  0
DICTIONARY
  5
1A
102
{ACAD_REACTORS
330
C
102
}
330
C
100
AcDbDictionary
281
     1
  3
Layout1
350
1E
  3
Layout2
350
26
  3
Model
350
22
  0
DICTIONARY
  5
17
102
{ACAD_REACTORS
330
C
102
}
330
C
100
AcDbDictionary
281
     1
  3
Standard
350
18
  0
DICTIONARY
  5
19
102
{ACAD_REACTORS
330
C
102
}
330
C
100
AcDbDictionary
281
     1
  0
ACDBDICTIONARYWDFLT
  5
E
102
{ACAD_REACTORS
330
C
102
}
330
C
100
AcDbDictionary
281
     1
  3
Normal
350
F
100
AcDbDictionaryWithDefault
340
F
  0
DICTIONARY
  5
47
102
{ACAD_REACTORS
330
C
102
}
330
C
100
AcDbDictionary
281
     1
  3
A0
350
48
  3
A1
350
49
  3
A2
350
4A
  3
A3
350
4B
  3
A4
350
4C
  3
A5
350
4D
  3
A6
350
4E
  3
A7
350
4F
  3
A8
350
50
  3
A9
350
51
  3
B0
350
52
  3
B1
350
53
  3
B2
350
54
  3
B3
350
55
  3
B4
350
56
  3
B5
350
57
  3
B6
350
58
  0
XRECORD
  5
A1
102
{ACAD_REACTORS
330
C
102
}
330
C
100
AcDbXrecord
280
     1
  1
DWGPROPS COOKIE
  2

  3

  4

  6

  7

  8
fcoqu
  9

300
=
301
=
302
=
303
=
304
=
305
=
306
=
307
=
308
=
309
=
 40
0.0
 41
2460905.219207408
 42
2460905.219207546
  1

 90
        0
  0
LAYOUT
  5
1E
102
{ACAD_REACTORS
330
1A
102
}
330
1A
100
AcDbPlotSettings
  1

  2
none_device
  4

  6

 40
0.0
 41
0.0
 42
0.0
 43
0.0
 44
0.0
 45
0.0
 46
0.0
 47
0.0
 48
0.0
 49
0.0
140
0.0
141
0.0
142
1.0
143
1.0
 70
   688
 72
     1
 73
     0
 74
     5
  7

 75
    16
147
1.0
148
0.0
149
0.0
100
AcDbLayout
  1
Layout1
 70
     1
 71
     1
 10
0.0
 20
0.0
 11
420.0
 21
297.0
 12
0.0
 22
0.0
 32
0.0
 14
1.0000000000E+20
 24
1.0000000000E+20
 34
1.0000000000E+20
 15
-1.0000000000E+20
 25
-1.0000000000E+20
 35
-1.0000000000E+20
146
0.0
 13
0.0
 23
0.0
 33
0.0
 16
1.0
 26
0.0
 36
0.0
 17
0.0
 27
1.0
 37
0.0
 76
     0
330
1B
  0
LAYOUT
  5
26
102
{ACAD_REACTORS
330
1A
102
}
330
1A
100
AcDbPlotSettings
  1

  2
none_device
  4

  6

 40
0.0
 41
0.0
 42
0.0
 43
0.0
 44
0.0
 45
0.0
 46
0.0
 47
0.0
 48
0.0
 49
0.0
140
0.0
141
0.0
142
1.0
143
1.0
 70
   688
 72
     1
 73
     0
 74
     5
  7

 75
    16
147
1.0
148
0.0
149
0.0
100
AcDbLayout
  1
Layout2
 70
     1
 71
     2
 10
0.0
 20
0.0
 11
0.0
 21
0.0
 12
0.0
 22
0.0
 32
0.0
 14
0.0
 24
0.0
 34
0.0
 15
0.0
 25
0.0
 35
0.0
146
0.0
 13
0.0
 23
0.0
 33
0.0
 16
1.0
 26
0.0
 36
0.0
 17
0.0
 27
1.0
 37
0.0
 76
     0
330
23
  0
LAYOUT
  5
22
102
{ACAD_REACTORS
330
1A
102
}
330
1A
100
AcDbPlotSettings
  1

  2
none_device
  4
Letter_(8.50_x_11.00_Inches)
  6

 40
6.35
 41
6.35
 42
6.35000508
 43
6.35000508
 44
215.9
 45
279.4
 46
0.0
 47
0.0
 48
0.0
 49
0.0
140
0.0
141
0.0
142
1.0
143
1.0
 70
  1712
 72
     1
 73
     0
 74
     0
  7

 75
     0
147
1.0
148
0.0
149
0.0
100
AcDbLayout
  1
Model
 70
     1
 71
     0
 10
0.0
 20
0.0
 11
2514.88
 21
96.061377914
 12
0.0
 22
0.0
 32
0.0
 14
0.0
 24
0.0
 34
0.0
 15
2514.88
 25
96.061377914
 35
0.0
146
0.0
 13
0.0
 23
0.0
 33
0.0
 16
1.0
 26
0.0
 36
0.0
 17
0.0
 27
1.0
 37
0.0
 76
     0
330
1F
331
29
  0
MLINESTYLE
  5
18
102
{ACAD_REACTORS
330
17
102
}
330
17
100
AcDbMlineStyle
  2
Standard
 70
     0
  3

 62
   256
 51
90.0
 52
90.0
 71
     2
 49
0.5
 62
   256
  6
BYLAYER
 49
-0.5
 62
   256
  6
BYLAYER
  0
ACDBPLACEHOLDER
  5
F
102
{ACAD_REACTORS
330
E
102
}
330
E
  0
SCALE
  5
48
102
{ACAD_REACTORS
330
47
102
}
330
47
100
AcDbScale
 70
     0
300
1:1
140
1.0
141
1.0
290
     1
  0
SCALE
  5
49
102
{ACAD_REACTORS
330
47
102
}
330
47
100
AcDbScale
 70
     0
300
1:2
140
1.0
141
2.0
290
     0
  0
SCALE
  5
4A
102
{ACAD_REACTORS
330
47
102
}
330
47
100
AcDbScale
 70
     0
300
1:4
140
1.0
141
4.0
290
     0
  0
SCALE
  5
4B
102
{ACAD_REACTORS
330
47
102
}
330
47
100
AcDbScale
 70
     0
300
1:5
140
1.0
141
5.0
290
     0
  0
SCALE
  5
4C
102
{ACAD_REACTORS
330
47
102
}
330
47
100
AcDbScale
 70
     0
300
1:8
140
1.0
141
8.0
290
     0
  0
SCALE
  5
4D
102
{ACAD_REACTORS
330
47
102
}
330
47
100
AcDbScale
 70
     0
300
1:10
140
1.0
141
10.0
290
     0
  0
SCALE
  5
4E
102
{ACAD_REACTORS
330
47
102
}
330
47
100
AcDbScale
 70
     0
300
1:16
140
1.0
141
16.0
290
     0
  0
SCALE
  5
4F
102
{ACAD_REACTORS
330
47
102
}
330
47
100
AcDbScale
 70
     0
300
1:20
140
1.0
141
20.0
290
     0
  0
SCALE
  5
50
102
{ACAD_REACTORS
330
47
102
}
330
47
100
AcDbScale
 70
     0
300
1:30
140
1.0
141
30.0
290
     0
  0
SCALE
  5
51
102
{ACAD_REACTORS
330
47
102
}
330
47
100
AcDbScale
 70
     0
300
1:40
140
1.0
141
40.0
290
     0
  0
SCALE
  5
52
102
{ACAD_REACTORS
330
47
102
}
330
47
100
AcDbScale
 70
     0
300
1:50
140
1.0
141
50.0
290
     0
  0
SCALE
  5
53
102
{ACAD_REACTORS
330
47
102
}
330
47
100
AcDbScale
 70
     0
300
1:100
140
1.0
141
100.0
290
     0
  0
SCALE
  5
54
102
{ACAD_REACTORS
330
47
102
}
330
47
100
AcDbScale
 70
     0
300
2:1
140
2.0
141
1.0
290
     0
  0
SCALE
  5
55
102
{ACAD_REACTORS
330
47
102
}
330
47
100
AcDbScale
 70
     0
300
4:1
140
4.0
141
1.0
290
     0
  0
SCALE
  5
56
102
{ACAD_REACTORS
330
47
102
}
330
47
100
AcDbScale
 70
     0
300
8:1
140
8.0
141
1.0
290
     0
  0
SCALE
  5
57
102
{ACAD_REACTORS
330
47
102
}
330
47
100
AcDbScale
 70
     0
300
10:1
140
10.0
141
1.0
290
     0
  0
SCALE
  5
58
102
{ACAD_REACTORS
330
47
102
}
330
47
100
AcDbScale
 70
     0
300
100:1
140
100.0
141
1.0
290
     0
  0
ENDSEC
  0
EOF
