  0
SECTION
  2
HEADER
  9
$ACADVER
  1
AC1015
  9
$ACADMAINTVER
 70
     6
  9
$DWGCODEPAGE
  3
ANSI_1252
  9
$INSBASE
 10
0.0
 20
0.0
 30
0.0
  9
$EXTMIN
 10
0.0
 20
0.0
 30
0.0
  9
$EXTMAX
 10
1302.2780784323
 20
84.0985452683
 30
0.0
  9
$LIMMIN
 10
0.0
 20
0.0
  9
$LIMMAX
 10
1302.2780784323
 20
84.0985452683
  9
$ORTHOMODE
 70
     0
  9
$REGENMODE
 70
     1
  9
$FILLMODE
 70
     1
  9
$QTEXTMODE
 70
     0
  9
$MIRRTEXT
 70
     1
  9
$LTSCALE
 40
1.0
  9
$ATTMODE
 70
     1
  9
$TEXTSIZE
 40
3.5
  9
$TRACEWID
 40
1.0
  9
$TEXTSTYLE
  7
Standard
  9
$CLAYER
  8
0
  9
$CELTYPE
  6
ByLayer
  9
$CECOLOR
 62
   256
  9
$CELTSCALE
 40
1.0
  9
$DISPSILH
 70
     0
  9
$DIMSCALE
 40
1.0
  9
$DIMASZ
 40
3.302
  9
$DIMEXO
 40
1.27
  9
$DIMDLI
 40
3.75
  9
$DIMRND
 40
0.0
  9
$DIMDLE
 40
0.0
  9
$DIMEXE
 40
3.175
  9
$DIMTP
 40
0.0
  9
$DIMTM
 40
0.0
  9
$DIMTXT
 40
3.5
  9
$DIMCEN
 40
2.5
  9
$DIMTSZ
 40
0.0
  9
$DIMTOL
 70
     0
  9
$DIMLIM
 70
     0
  9
$DIMTIH
 70
     1
  9
$DIMTOH
 70
     1
  9
$DIMSE1
 70
     0
  9
$DIMSE2
 70
     0
  9
$DIMTAD
 70
     1
  9
$DIMZIN
 70
     1
  9
$DIMBLK
  1

  9
$DIMASO
 70
     1
  9
$DIMSHO
 70
     1
  9
$DIMPOST
  1

  9
$DIMAPOST
  1

  9
$DIMALT
 70
     0
  9
$DIMALTD
 70
     3
  9
$DIMALTF
 40
0.0393700787
  9
$DIMLFAC
 40
1.0
  9
$DIMTOFL
 70
     1
  9
$DIMTVP
 40
0.0
  9
$DIMTIX
 70
     0
  9
$DIMSOXD
 70
     0
  9
$DIMSAH
 70
     0
  9
$DIMBLK1
  1

  9
$DIMBLK2
  1

  9
$DIMSTYLE
  2
ISO-25
  9
$DIMCLRD
 70
     0
  9
$DIMCLRE
 70
     0
  9
$DIMCLRT
 70
     0
  9
$DIMTFAC
 40
1.0
  9
$DIMGAP
 40
1.524
  9
$DIMJUST
 70
     0
  9
$DIMSD1
 70
     0
  9
$DIMSD2
 70
     0
  9
$DIMTOLJ
 70
     0
  9
$DIMTZIN
 70
     1
  9
$DIMALTZ
 70
     0
  9
$DIMALTTZ
 70
     0
  9
$DIMUPT
 70
     0
  9
$DIMDEC
 70
     2
  9
$DIMTDEC
 70
     2
  9
$DIMALTU
 70
     2
  9
$DIMALTTD
 70
     3
  9
$DIMTXSTY
  7
Standard
  9
$DIMAUNIT
 70
     0
  9
$DIMADEC
 70
     2
  9
$DIMALTRND
 40
0.0
  9
$DIMAZIN
 70
     0
  9
$DIMDSEP
 70
    44
  9
$DIMATFIT
 70
     3
  9
$DIMFRAC
 70
     0
  9
$DIMLDRBLK
  1

  9
$DIMLUNIT
 70
     2
  9
$DIMLWD
 70
    -2
  9
$DIMLWE
 70
    -2
  9
$DIMTMOVE
 70
     0
  9
$LUNITS
 70
     2
  9
$LUPREC
 70
     3
  9
$SKETCHINC
 40
1.0
  9
$FILLETRAD
 40
0.0
  9
$AUNITS
 70
     0
  9
$AUPREC
 70
     1
  9
$MENU
  1
.
  9
$ELEVATION
 40
0.0
  9
$PELEVATION
 40
0.0
  9
$THICKNESS
 40
0.0
  9
$LIMCHECK
 70
     0
  9
$CHAMFERA
 40
0.0
  9
$CHAMFERB
 40
0.0
  9
$CHAMFERC
 40
0.0
  9
$CHAMFERD
 40
0.0
  9
$SKPOLY
 70
     0
  9
$TDCREATE
 40
2460905.632110324
  9
$TDUCREATE
 40
2460905.215443657
  9
$TDUPDATE
 40
2460905.632110475
  9
$TDUUPDATE
 40
2460905.215443808
  9
$TDINDWG
 40
0.0000000116
  9
$TDUSRTIMER
 40
0.0000000116
  9
$USRTIMER
 70
     1
  9
$ANGBASE
 50
0.0
  9
$ANGDIR
 70
     0
  9
$PDMODE
 70
     0
  9
$PDSIZE
 40
-1.0
  9
$PLINEWID
 40
0.0
  9
$SPLFRAME
 70
     0
  9
$SPLINETYPE
 70
     6
  9
$SPLINESEGS
 70
     8
  9
$HANDSEED
  5
B7
  9
$SURFTAB1
 70
     6
  9
$SURFTAB2
 70
     6
  9
$SURFTYPE
 70
     6
  9
$SURFU
 70
     6
  9
$SURFV
 70
     6
  9
$UCSBASE
  2

  9
$UCSNAME
  2

  9
$UCSORG
 10
0.0
 20
0.0
 30
0.0
  9
$UCSXDIR
 10
1.0
 20
0.0
 30
0.0
  9
$UCSYDIR
 10
0.0
 20
1.0
 30
0.0
  9
$UCSORTHOREF
  2

  9
$UCSORTHOVIEW
 70
     0
  9
$UCSORGTOP
 10
0.0
 20
0.0
 30
0.0
  9
$UCSORGBOTTOM
 10
0.0
 20
0.0
 30
0.0
  9
$UCSORGLEFT
 10
0.0
 20
0.0
 30
0.0
  9
$UCSORGRIGHT
 10
0.0
 20
0.0
 30
0.0
  9
$UCSORGFRONT
 10
0.0
 20
0.0
 30
0.0
  9
$UCSORGBACK
 10
0.0
 20
0.0
 30
0.0
  9
$PUCSBASE
  2

  9
$PUCSNAME
  2

  9
$PUCSORG
 10
0.0
 20
0.0
 30
0.0
  9
$PUCSXDIR
 10
1.0
 20
0.0
 30
0.0
  9
$PUCSYDIR
 10
0.0
 20
1.0
 30
0.0
  9
$PUCSORTHOREF
  2

  9
$PUCSORTHOVIEW
 70
     0
  9
$PUCSORGTOP
 10
0.0
 20
0.0
 30
0.0
  9
$PUCSORGBOTTOM
 10
0.0
 20
0.0
 30
0.0
  9
$PUCSORGLEFT
 10
0.0
 20
0.0
 30
0.0
  9
$PUCSORGRIGHT
 10
0.0
 20
0.0
 30
0.0
  9
$PUCSORGFRONT
 10
0.0
 20
0.0
 30
0.0
  9
$PUCSORGBACK
 10
0.0
 20
0.0
 30
0.0
  9
$USERI1
 70
     0
  9
$USERI2
 70
     0
  9
$USERI3
 70
     0
  9
$USERI4
 70
     0
  9
$USERI5
 70
     0
  9
$USERR1
 40
0.0
  9
$USERR2
 40
0.0
  9
$USERR3
 40
0.0
  9
$USERR4
 40
0.0
  9
$USERR5
 40
0.0
  9
$WORLDVIEW
 70
     1
  9
$SHADEDGE
 70
     3
  9
$SHADEDIF
 70
    70
  9
$TILEMODE
 70
     1
  9
$MAXACTVP
 70
    64
  9
$PINSBASE
 10
0.0
 20
0.0
 30
0.0
  9
$PLIMCHECK
 70
     0
  9
$PEXTMIN
 10
1.0000000000E+20
 20
1.0000000000E+20
 30
1.0000000000E+20
  9
$PEXTMAX
 10
-1.0000000000E+20
 20
-1.0000000000E+20
 30
-1.0000000000E+20
  9
$PLIMMIN
 10
0.0
 20
0.0
  9
$PLIMMAX
 10
420.0
 20
297.0
  9
$UNITMODE
 70
     0
  9
$VISRETAIN
 70
     1
  9
$PLINEGEN
 70
     0
  9
$PSLTSCALE
 70
     1
  9
$TREEDEPTH
 70
  3020
  9
$CMLSTYLE
  2
Standard
  9
$CMLJUST
 70
     0
  9
$CMLSCALE
 40
20.0
  9
$PROXYGRAPHICS
 70
     1
  9
$MEASUREMENT
 70
     1
  9
$CELWEIGHT
370
    -1
  9
$ENDCAPS
280
     0
  9
$JOINSTYLE
280
     0
  9
$LWDISPLAY
290
     1
  9
$INSUNITS
 70
     4
  9
$HYPERLINKBASE
  1

  9
$STYLESHEET
  1

  9
$XEDIT
290
     1
  9
$CEPSNTYPE
380
     0
  9
$PSTYLEMODE
290
     1
  9
$FINGERPRINTGUID
  2
{66c665d6-8f29-4e8a-80c3-00c635ca9f77}
  9
$VERSIONGUID
  2
{FAEB1C32-E019-11D5-929B-00C0DF256EC4}
  9
$EXTNAMES
290
     1
  9
$PSVPSCALE
 40
0.0
  9
$OLESTARTUP
290
     0
  0
ENDSEC
  0
SECTION
  2
CLASSES
  0
CLASS
  1
ACDBDICTIONARYWDFLT
  2
AcDbDictionaryWithDefault
  3
ObjectDBX Classes
 90
        0
280
     0
281
     0
  0
CLASS
  1
VISUALSTYLE
  2
AcDbVisualStyle
  3
ObjectDBX Classes
 90
     4095
280
     0
281
     0
  0
CLASS
  1
MATERIAL
  2
AcDbMaterial
  3
ObjectDBX Classes
 90
     1153
280
     0
281
     0
  0
CLASS
  1
SCALE
  2
AcDbScale
  3
ObjectDBX Classes
 90
     1153
280
     0
281
     0
  0
CLASS
  1
TABLESTYLE
  2
AcDbTableStyle
  3
ObjectDBX Classes
 90
     4095
280
     0
281
     0
  0
CLASS
  1
MLEADERSTYLE
  2
AcDbMLeaderStyle
  3
ACDB_MLEADERSTYLE_CLASS
 90
     4095
280
     0
281
     0
  0
CLASS
  1
SUN
  2
AcDbSun
  3
SCENEOE
 90
     1153
280
     0
281
     0
  0
CLASS
  1
ACDBPLACEHOLDER
  2
AcDbPlaceHolder
  3
ObjectDBX Classes
 90
        0
280
     0
281
     0
  0
CLASS
  1
LAYOUT
  2
AcDbLayout
  3
ObjectDBX Classes
 90
        0
280
     0
281
     0
  0
ENDSEC
  0
SECTION
  2
TABLES
  0
TABLE
  2
VPORT
  5
8
330
0
100
AcDbSymbolTable
 70
     1
  0
VPORT
  5
29
330
8
100
AcDbSymbolTableRecord
100
AcDbViewportTableRecord
  2
*Active
 70
     0
 10
0.0
 20
0.0
 11
1.0
 21
1.0
 12
651.1390392161
 22
42.0492726341
 13
0.0
 23
0.0
 14
10.0
 24
10.0
 15
10.0
 25
10.0
 16
0.0
 26
0.0
 36
1.0
 17
0.0
 27
0.0
 37
0.0
 40
84.0985452683
 41
15.4851439377
 42
50.0
 43
0.0
 44
0.0
 50
0.0
 51
0.0
 71
     0
 72
  2000
 73
     1
 74
     3
 75
     0
 76
     0
 77
     0
 78
     0
281
     0
 65
     1
110
0.0
120
0.0
130
0.0
111
1.0
121
0.0
131
0.0
112
0.0
122
1.0
132
0.0
 79
     0
146
0.0
  0
ENDTAB
  0
TABLE
  2
LTYPE
  5
5
330
0
100
AcDbSymbolTable
 70
     6
  0
LTYPE
  5
14
330
5
100
AcDbSymbolTableRecord
100
AcDbLinetypeTableRecord
  2
ByBlock
 70
     0
  3

 72
    65
 73
     0
 40
0.0
  0
LTYPE
  5
15
330
5
100
AcDbSymbolTableRecord
100
AcDbLinetypeTableRecord
  2
ByLayer
 70
     0
  3

 72
    65
 73
     0
 40
0.0
  0
LTYPE
  5
16
330
5
100
AcDbSymbolTableRecord
100
AcDbLinetypeTableRecord
  2
Continuous
 70
     0
  3
Solid line
 72
    65
 73
     0
 40
0.0
  0
LTYPE
  5
5E
330
5
100
AcDbSymbolTableRecord
100
AcDbLinetypeTableRecord
  2
HIDDEN
 70
     0
  3
Hidden __ __ __ __ __ __ __ __ __ __ __ __ __ __
 72
    65
 73
     2
 40
1.905
 49
1.27
 74
     0
 49
-0.635
 74
     0
  0
LTYPE
  5
5F
330
5
100
AcDbSymbolTableRecord
100
AcDbLinetypeTableRecord
  2
PHANTOM
 70
     0
  3
Phantom ______  __  __  ______  __  __  ______
 72
    65
 73
     6
 40
12.7
 49
6.35
 74
     0
 49
-1.27
 74
     0
 49
1.27
 74
     0
 49
-1.27
 74
     0
 49
1.27
 74
     0
 49
-1.27
 74
     0
  0
LTYPE
  5
60
330
5
100
AcDbSymbolTableRecord
100
AcDbLinetypeTableRecord
  2
CENTER
 70
     0
  3
Center ____ _ ____ _ ____ _ ____ _ ____ _ ____
 72
    65
 73
     4
 40
10.16
 49
6.35
 74
     0
 49
-1.27
 74
     0
 49
1.27
 74
     0
 49
-1.27
 74
     0
  0
LTYPE
  5
61
330
5
100
AcDbSymbolTableRecord
100
AcDbLinetypeTableRecord
  2
CENTERX2
 70
     0
  3
Center (2x) ________  __  ________  __  _____
 72
    65
 73
     4
 40
20.32
 49
12.7
 74
     0
 49
-2.54
 74
     0
 49
2.54
 74
     0
 49
-2.54
 74
     0
  0
LTYPE
  5
62
330
5
100
AcDbSymbolTableRecord
100
AcDbLinetypeTableRecord
  2
DOT2
 70
     0
  3
Dot (.5x) ........................................
 72
    65
 73
     2
 40
0.635
 49
0.0
 74
     0
 49
-0.635
 74
     0
  0
ENDTAB
  0
TABLE
  2
LAYER
  5
2
330
0
100
AcDbSymbolTable
 70
     7
  0
LAYER
  5
10
330
2
100
AcDbSymbolTableRecord
100
AcDbLayerTableRecord
  2
0
 70
     0
 62
     7
  6
Continuous
370
    -3
390
F
  0
LAYER
  5
63
330
2
100
AcDbSymbolTableRecord
100
AcDbLayerTableRecord
  2
BENDLINESUP
 70
     0
 62
     7
  6
CENTERX2
370
    -3
390
F
  0
LAYER
  5
64
330
2
100
AcDbSymbolTableRecord
100
AcDbLayerTableRecord
  2
BENDLLINESDOWN
 70
     0
 62
     7
  6
CENTERX2
370
    -3
390
F
  0
LAYER
  5
65
330
2
100
AcDbSymbolTableRecord
100
AcDbLayerTableRecord
  2
ETCHING
 70
     0
 62
     7
  6
Continuous
370
    -3
390
F
  0
LAYER
  5
66
330
2
100
AcDbSymbolTableRecord
100
AcDbLayerTableRecord
  2
CUT
 70
     0
 62
     7
  6
Continuous
370
    25
390
F
  0
LAYER
  5
67
330
2
100
AcDbSymbolTableRecord
100
AcDbLayerTableRecord
  2
DETAILS
 70
     0
 62
     5
  6
Continuous
370
    -3
390
F
  0
LAYER
  5
68
330
2
100
AcDbSymbolTableRecord
100
AcDbLayerTableRecord
  2
NOTES
 70
     0
 62
     1
  6
Continuous
370
    -3
390
F
  0
ENDTAB
  0
TABLE
  2
STYLE
  5
3
330
0
100
AcDbSymbolTable
 70
     2
  0
STYLE
  5
11
330
3
100
AcDbSymbolTableRecord
100
AcDbTextStyleTableRecord
  2
Standard
 70
     0
 40
0.0
 41
1.0
 50
0.0
 71
     0
 42
3.5
  3
txt
  4

  0
STYLE
  5
AF
330
3
100
AcDbSymbolTableRecord
100
AcDbTextStyleTableRecord
  2
SLDTEXTSTYLE0
 70
     0
 40
0.0
 41
0.6458333333
 50
0.0
 71
     0
 42
3.5
  3
TXT
  4

  0
ENDTAB
  0
TABLE
  2
VIEW
  5
6
330
0
100
AcDbSymbolTable
 70
     0
  0
ENDTAB
  0
TABLE
  2
UCS
  5
7
330
0
100
AcDbSymbolTable
 70
     0
  0
ENDTAB
  0
TABLE
  2
APPID
  5
9
330
0
100
AcDbSymbolTable
 70
     1
  0
APPID
  5
12
330
9
100
AcDbSymbolTableRecord
100
AcDbRegAppTableRecord
  2
ACAD
 70
     0
  0
ENDTAB
  0
TABLE
  2
DIMSTYLE
  5
A
330
0
100
AcDbSymbolTable
 70
     1
100
AcDbDimStyleTable
  0
DIMSTYLE
105
27
330
A
100
AcDbSymbolTableRecord
100
AcDbDimStyleTableRecord
  2
ISO-25
 70
     0
 41
2.5
 42
0.625
 43
3.75
 44
1.25
 73
     0
 74
     0
 77
     1
 78
     8
140
2.5
141
2.5
143
0.0393700787
147
0.625
171
     3
172
     1
178
     0
271
     2
272
     2
274
     3
278
    44
283
     0
284
     8
340
11
  0
ENDTAB
  0
TABLE
  2
BLOCK_RECORD
  5
1
330
0
100
AcDbSymbolTable
 70
     1
  0
BLOCK_RECORD
  5
1F
330
1
100
AcDbSymbolTableRecord
100
AcDbBlockTableRecord
  2
*Model_Space
340
22
  0
BLOCK_RECORD
  5
1B
330
1
100
AcDbSymbolTableRecord
100
AcDbBlockTableRecord
  2
*Paper_Space
340
1E
  0
BLOCK_RECORD
  5
23
330
1
100
AcDbSymbolTableRecord
100
AcDbBlockTableRecord
  2
*Paper_Space0
340
26
  0
ENDTAB
  0
ENDSEC
  0
SECTION
  2
BLOCKS
  0
BLOCK
  5
20
330
1F
100
AcDbEntity
  8
0
100
AcDbBlockBegin
  2
*Model_Space
 70
     0
 10
0.0
 20
0.0
 30
0.0
  3
*Model_Space
  1

  0
ENDBLK
  5
21
330
1F
100
AcDbEntity
  8
0
100
AcDbBlockEnd
  0
BLOCK
  5
1C
330
1B
100
AcDbEntity
 67
     1
  8
0
100
AcDbBlockBegin
  2
*Paper_Space
 70
     0
 10
0.0
 20
0.0
 30
0.0
  3
*Paper_Space
  1

  0
ENDBLK
  5
1D
330
1B
100
AcDbEntity
 67
     1
  8
0
100
AcDbBlockEnd
  0
BLOCK
  5
24
330
23
100
AcDbEntity
  8
0
100
AcDbBlockBegin
  2
*Paper_Space0
 70
     0
 10
0.0
 20
0.0
 30
0.0
  3
*Paper_Space0
  1

  0
ENDBLK
  5
25
330
23
100
AcDbEntity
  8
0
100
AcDbBlockEnd
  0
ENDSEC
  0
SECTION
  2
ENTITIES
  0
CIRCLE
  5
69
330
1F
100
AcDbEntity
  8
CUT
 62
     3
100
AcDbCircle
 10
38.5318459154
 20
25.0922249432
 30
0.0
 40
5.200000000074027
  0
LINE
  5
6A
330
1F
100
AcDbEntity
  8
CUT
 62
     3
100
AcDbLine
 10
1223.3971601489
 20
26.1505161727
 30
0.0
 11
1222.6471601489
 21
24.851478067
 31
0.0
  0
LINE
  5
6B
330
1F
100
AcDbEntity
  8
CUT
 62
     3
100
AcDbLine
 10
1222.6471601489
 20
24.851478067
 30
0.0
 11
1229.1423506773
 21
21.101478067
 31
0.0
  0
LINE
  5
6C
330
1F
100
AcDbEntity
  8
CUT
 62
     3
100
AcDbLine
 10
1220.3923506778
 20
5.9460335017
 30
0.0
 11
1229.1423506773
 21
21.101478067
 31
0.0
  0
ARC
  5
6D
330
1F
100
AcDbEntity
  8
CUT
 62
     3
100
AcDbCircle
 10
1219.5263252741
 20
6.4460335017
 30
0.0
 40
1.000000000000004
100
AcDbArc
 50
240.0
 51
330.0
  0
LINE
  5
6E
330
1F
100
AcDbEntity
  8
CUT
 62
     3
100
AcDbLine
 10
1201.1673268774
 20
15.8909056297
 30
0.0
 11
1219.0263252741
 21
5.5800080979
 31
0.0
  0
ARC
  5
6F
330
1F
100
AcDbEntity
  8
CUT
 62
     3
100
AcDbCircle
 10
1193.6673268774
 20
2.9005245729
 30
0.0
 40
15.00000000000005
100
AcDbArc
 50
60.0
 51
90.0
  0
LINE
  5
70
330
1F
100
AcDbEntity
  8
CUT
 62
     3
100
AcDbLine
 10
100.0946933656
 20
17.9005245729
 30
0.0
 11
1193.6673268774
 21
17.9005245729
 31
0.0
  0
ARC
  5
71
330
1F
100
AcDbEntity
  8
CUT
 62
     3
100
AcDbCircle
 10
100.0946933656
 20
2.9005245729
 30
0.0
 40
15.00000000000009
100
AcDbArc
 50
90.0
 51
120.0
  0
LINE
  5
72
330
1F
100
AcDbEntity
  8
CUT
 62
     3
100
AcDbLine
 10
92.5946933656
 20
15.8909056297
 30
0.0
 11
74.7356949689
 21
5.5800080979
 31
0.0
  0
ARC
  5
73
330
1F
100
AcDbEntity
  8
CUT
 62
     3
100
AcDbCircle
 10
74.2356949689
 20
6.4460335017
 30
0.0
 40
0.9999999999999751
100
AcDbArc
 50
210.0
 51
300.0
  0
LINE
  5
74
330
1F
100
AcDbEntity
  8
CUT
 62
     3
100
AcDbLine
 10
73.3696695652
 20
5.9460335017
 30
0.0
 11
64.6196695657
 21
21.101478067
 31
0.0
  0
LINE
  5
75
330
1F
100
AcDbEntity
  8
CUT
 62
     3
100
AcDbLine
 10
71.1148600941
 20
24.851478067
 30
0.0
 11
64.6196695657
 21
21.101478067
 31
0.0
  0
LINE
  5
76
330
1F
100
AcDbEntity
  8
CUT
 62
     3
100
AcDbLine
 10
70.3648600941
 20
26.1505161727
 30
0.0
 11
71.1148600941
 21
24.851478067
 31
0.0
  0
LINE
  5
77
330
1F
100
AcDbEntity
  8
CUT
 62
     3
100
AcDbLine
 10
29.1443505416
 20
2.3518438864
 30
0.0
 11
70.3648600941
 21
26.1505161727
 31
0.0
  0
ARC
  5
78
330
1F
100
AcDbEntity
  8
CUT
 62
     3
100
AcDbCircle
 10
26.6443505416
 20
6.6819709054
 30
0.0
 40
4.999999999999829
100
AcDbArc
 50
210.0
 51
300.0
  0
LINE
  5
79
330
1F
100
AcDbEntity
  8
CUT
 62
     3
100
AcDbLine
 10
1.8159455016
 20
39.6860299055
 30
0.0
 11
22.3142235227
 21
4.1819709054
 31
0.0
  0
ARC
  5
7A
330
1F
100
AcDbEntity
  8
CUT
 62
     3
100
AcDbCircle
 10
2.6819709054
 20
40.1860299055
 30
0.0
 40
1.000000000000089
100
AcDbArc
 50
120.0
 51
210.0
  0
LINE
  5
7B
330
1F
100
AcDbEntity
  8
CUT
 62
     3
100
AcDbLine
 10
2.1819709054
 20
41.0520553093
 30
0.0
 11
4.7800471167
 21
42.5520553093
 31
0.0
  0
ARC
  5
7C
330
1F
100
AcDbEntity
  8
CUT
 62
     3
100
AcDbCircle
 10
5.2800471167
 20
41.6860299055
 30
0.0
 40
0.9999999999999807
100
AcDbArc
 50
30.0
 51
120.0
  0
LINE
  5
7D
330
1F
100
AcDbEntity
  8
CUT
 62
     3
100
AcDbLine
 10
6.1460725205
 20
42.1860299055
 30
0.0
 11
7.1460725183
 21
40.4539791019
 31
0.0
  0
LINE
  5
7E
330
1F
100
AcDbEntity
  8
CUT
 62
     3
100
AcDbLine
 10
7.1460725183
 20
40.4539791019
 30
0.0
 11
51.3976709859
 21
66.0026513849
 31
0.0
  0
LINE
  5
7F
330
1F
100
AcDbEntity
  8
CUT
 62
     3
100
AcDbLine
 10
50.3976709885
 20
67.73470219
 30
0.0
 11
51.3976709859
 21
66.0026513849
 31
0.0
  0
ARC
  5
80
330
1F
100
AcDbEntity
  8
CUT
 62
     3
100
AcDbCircle
 10
51.2636963925
 20
68.2347021896
 30
0.0
 40
0.9999999999999392
100
AcDbArc
 50
119.9999999799
 51
209.99999997
  0
LINE
  5
81
330
1F
100
AcDbEntity
  8
CUT
 62
     3
100
AcDbLine
 10
50.7636963928
 20
69.1007275935
 30
0.0
 11
53.3617726047
 21
70.6007275926
 31
0.0
  0
ARC
  5
82
330
1F
100
AcDbEntity
  8
CUT
 62
     3
100
AcDbCircle
 10
53.8617726044
 20
69.7347021887
 30
0.0
 40
1.000000000000006
100
AcDbArc
 50
29.99999997
 51
119.9999999799
  0
LINE
  5
83
330
1F
100
AcDbEntity
  8
CUT
 62
     3
100
AcDbLine
 10
54.7277980084
 20
70.2347021882
 30
0.0
 11
55.7277980071
 21
68.5026513809
 31
0.0
  0
LINE
  5
84
330
1F
100
AcDbEntity
  8
CUT
 62
     3
100
AcDbLine
 10
55.7277980071
 20
68.5026513809
 30
0.0
 11
59.1848692402
 21
70.4985923855
 31
0.0
  0
LINE
  5
85
330
1F
100
AcDbEntity
  8
CUT
 62
     3
100
AcDbLine
 10
59.1848692402
 20
70.4985923855
 30
0.0
 11
60.6848692393
 21
70.9005161736
 31
0.0
  0
LINE
  5
86
330
1F
100
AcDbEntity
  8
CUT
 62
     3
100
AcDbLine
 10
85.0848692393
 20
70.9005161736
 30
0.0
 11
60.6848692393
 21
70.9005161736
 31
0.0
  0
LINE
  5
87
330
1F
100
AcDbEntity
  8
CUT
 62
     3
100
AcDbLine
 10
85.0848692393
 20
72.9005161736
 30
0.0
 11
85.0848692393
 21
70.9005161736
 31
0.0
  0
ARC
  5
88
330
1F
100
AcDbEntity
  8
CUT
 62
     3
100
AcDbCircle
 10
86.0848692393
 20
72.9005161736
 30
0.0
 40
1.000000000000114
100
AcDbArc
 50
90.0
 51
180.0
  0
LINE
  5
89
330
1F
100
AcDbEntity
  8
CUT
 62
     3
100
AcDbLine
 10
86.0848692393
 20
73.9005161736
 30
0.0
 11
94.0848692393
 21
73.9005161736
 31
0.0
  0
ARC
  5
8A
330
1F
100
AcDbEntity
  8
CUT
 62
     3
100
AcDbCircle
 10
94.0848692393
 20
72.9005161736
 30
0.0
 40
1.000000000000099
100
AcDbArc
 50
0.0
 51
90.0
  0
LINE
  5
8B
330
1F
100
AcDbEntity
  8
CUT
 62
     3
100
AcDbLine
 10
95.0848692393
 20
72.9005161736
 30
0.0
 11
95.0848692393
 21
70.9005161736
 31
0.0
  0
LINE
  5
8C
330
1F
100
AcDbEntity
  8
CUT
 62
     3
100
AcDbLine
 10
345.0848692393
 20
70.9005161736
 30
0.0
 11
95.0848692393
 21
70.9005161736
 31
0.0
  0
LINE
  5
8D
330
1F
100
AcDbEntity
  8
CUT
 62
     3
100
AcDbLine
 10
345.0848692393
 20
72.9005161736
 30
0.0
 11
345.0848692393
 21
70.9005161736
 31
0.0
  0
ARC
  5
8E
330
1F
100
AcDbEntity
  8
CUT
 62
     3
100
AcDbCircle
 10
346.0848692393
 20
72.9005161736
 30
0.0
 40
1.0
100
AcDbArc
 50
90.0
 51
180.0
  0
LINE
  5
8F
330
1F
100
AcDbEntity
  8
CUT
 62
     3
100
AcDbLine
 10
349.0848692393
 20
73.9005161736
 30
0.0
 11
346.0848692393
 21
73.9005161736
 31
0.0
  0
ARC
  5
90
330
1F
100
AcDbEntity
  8
CUT
 62
     3
100
AcDbCircle
 10
349.0848692393
 20
72.9005161736
 30
0.0
 40
1.0
100
AcDbArc
 50
0.0
 51
90.0
  0
LINE
  5
91
330
1F
100
AcDbEntity
  8
CUT
 62
     3
100
AcDbLine
 10
350.0848692393
 20
72.9005161736
 30
0.0
 11
350.0848692393
 21
70.9005161736
 31
0.0
  0
LINE
  5
92
330
1F
100
AcDbEntity
  8
CUT
 62
     3
100
AcDbLine
 10
943.6771510037
 20
70.9005161736
 30
0.0
 11
350.0848692393
 21
70.9005161736
 31
0.0
  0
LINE
  5
93
330
1F
100
AcDbEntity
  8
CUT
 62
     3
100
AcDbLine
 10
943.6771510037
 20
72.9005161736
 30
0.0
 11
943.6771510037
 21
70.9005161736
 31
0.0
  0
ARC
  5
94
330
1F
100
AcDbEntity
  8
CUT
 62
     3
100
AcDbCircle
 10
944.6771510037
 20
72.9005161736
 30
0.0
 40
1.0
100
AcDbArc
 50
90.0
 51
180.0
  0
LINE
  5
95
330
1F
100
AcDbEntity
  8
CUT
 62
     3
100
AcDbLine
 10
944.6771510037
 20
73.9005161736
 30
0.0
 11
947.6771510037
 21
73.9005161736
 31
0.0
  0
ARC
  5
96
330
1F
100
AcDbEntity
  8
CUT
 62
     3
100
AcDbCircle
 10
947.6771510037
 20
72.9005161736
 30
0.0
 40
1.0
100
AcDbArc
 50
0.0
 51
90.0
  0
LINE
  5
97
330
1F
100
AcDbEntity
  8
CUT
 62
     3
100
AcDbLine
 10
948.6771510037
 20
72.9005161736
 30
0.0
 11
948.6771510037
 21
70.9005161736
 31
0.0
  0
LINE
  5
98
330
1F
100
AcDbEntity
  8
CUT
 62
     3
100
AcDbLine
 10
1198.6771510037
 20
70.9005161736
 30
0.0
 11
948.6771510037
 21
70.9005161736
 31
0.0
  0
LINE
  5
99
330
1F
100
AcDbEntity
  8
CUT
 62
     3
100
AcDbLine
 10
1198.6771510037
 20
72.9005161736
 30
0.0
 11
1198.6771510037
 21
70.9005161736
 31
0.0
  0
ARC
  5
9A
330
1F
100
AcDbEntity
  8
CUT
 62
     3
100
AcDbCircle
 10
1199.6771510037
 20
72.9005161736
 30
0.0
 40
1.0
100
AcDbArc
 50
90.0
 51
180.0
  0
LINE
  5
9B
330
1F
100
AcDbEntity
  8
CUT
 62
     3
100
AcDbLine
 10
1207.6771510037
 20
73.9005161736
 30
0.0
 11
1199.6771510037
 21
73.9005161736
 31
0.0
  0
ARC
  5
9C
330
1F
100
AcDbEntity
  8
CUT
 62
     3
100
AcDbCircle
 10
1207.6771510037
 20
72.9005161736
 30
0.0
 40
0.9999999999998863
100
AcDbArc
 50
0.0
 51
90.0
  0
LINE
  5
9D
330
1F
100
AcDbEntity
  8
CUT
 62
     3
100
AcDbLine
 10
1208.6771510037
 20
72.9005161736
 30
0.0
 11
1208.6771510037
 21
70.9005161736
 31
0.0
  0
LINE
  5
9E
330
1F
100
AcDbEntity
  8
CUT
 62
     3
100
AcDbLine
 10
1233.0771510037
 20
70.9005161736
 30
0.0
 11
1208.6771510037
 21
70.9005161736
 31
0.0
  0
LINE
  5
9F
330
1F
100
AcDbEntity
  8
CUT
 62
     3
100
AcDbLine
 10
1234.5771510028
 20
70.4985923855
 30
0.0
 11
1233.0771510037
 21
70.9005161736
 31
0.0
  0
LINE
  5
A0
330
1F
100
AcDbEntity
  8
CUT
 62
     3
100
AcDbLine
 10
1238.0342222363
 20
68.5026513817
 30
0.0
 11
1234.5771510028
 21
70.4985923855
 31
0.0
  0
LINE
  5
A1
330
1F
100
AcDbEntity
  8
CUT
 62
     3
100
AcDbLine
 10
1239.0342222346
 20
70.2347021882
 30
0.0
 11
1238.0342222363
 21
68.5026513817
 31
0.0
  0
ARC
  5
A2
330
1F
100
AcDbEntity
  8
CUT
 62
     3
100
AcDbCircle
 10
1239.9002476386
 20
69.7347021887
 30
0.0
 40
1.000000000000123
100
AcDbArc
 50
60.0000000201
 51
150.00000003
  0
LINE
  5
A3
330
1F
100
AcDbEntity
  8
CUT
 62
     3
100
AcDbLine
 10
1242.9983238502
 20
69.1007275935
 30
0.0
 11
1240.4002476383
 21
70.6007275926
 31
0.0
  0
ARC
  5
A4
330
1F
100
AcDbEntity
  8
CUT
 62
     3
100
AcDbCircle
 10
1242.4983238505
 20
68.2347021896
 30
0.0
 40
1.000000000000327
100
AcDbArc
 50
330.00000003
 51
60.0000000201
  0
LINE
  5
A5
330
1F
100
AcDbEntity
  8
CUT
 62
     3
100
AcDbLine
 10
1243.3643492545
 20
67.73470219
 30
0.0
 11
1242.3643492561
 21
66.0026513831
 31
0.0
  0
LINE
  5
A6
330
1F
100
AcDbEntity
  8
CUT
 62
     3
100
AcDbLine
 10
1286.6159477247
 20
40.4539791019
 30
0.0
 11
1242.3643492561
 21
66.0026513831
 31
0.0
  0
LINE
  5
A7
330
1F
100
AcDbEntity
  8
CUT
 62
     3
100
AcDbLine
 10
1287.6159477225
 20
42.1860299055
 30
0.0
 11
1286.6159477247
 21
40.4539791019
 31
0.0
  0
ARC
  5
A8
330
1F
100
AcDbEntity
  8
CUT
 62
     3
100
AcDbCircle
 10
1288.4819731263
 20
41.6860299055
 30
0.0
 40
1.000000000000002
100
AcDbArc
 50
60.0
 51
150.0
  0
LINE
  5
A9
330
1F
100
AcDbEntity
  8
CUT
 62
     3
100
AcDbLine
 10
1291.5800493376
 20
41.0520553093
 30
0.0
 11
1288.9819731263
 21
42.5520553093
 31
0.0
  0
ARC
  5
AA
330
1F
100
AcDbEntity
  8
CUT
 62
     3
100
AcDbCircle
 10
1291.0800493376
 20
40.1860299055
 30
0.0
 40
1.000000000000164
100
AcDbArc
 50
330.0
 51
60.0
  0
LINE
  5
AB
330
1F
100
AcDbEntity
  8
CUT
 62
     3
100
AcDbLine
 10
1291.9460747414
 20
39.6860299055
 30
0.0
 11
1271.4477967204
 21
4.1819709054
 31
0.0
  0
ARC
  5
AC
330
1F
100
AcDbEntity
  8
CUT
 62
     3
100
AcDbCircle
 10
1267.1176697014
 20
6.6819709054
 30
0.0
 40
5.000000000000053
100
AcDbArc
 50
240.0
 51
330.0
  0
LINE
  5
AD
330
1F
100
AcDbEntity
  8
CUT
 62
     3
100
AcDbLine
 10
1264.6176697014
 20
2.3518438864
 30
0.0
 11
1223.3971601489
 21
26.1505161727
 31
0.0
  0
CIRCLE
  5
AE
330
1F
100
AcDbEntity
  8
CUT
 62
     3
100
AcDbCircle
 10
1255.2301743276
 20
25.0922249432
 30
0.0
 40
5.200000000074002
  0
MTEXT
  5
B0
330
1F
100
AcDbEntity
  8
0
  6
Continuous
 62
     7
370
     0
100
AcDbMText
 10
58.7465093165
 20
45.7309561684
 30
0.0
 40
3.5
 41
0.0
 71
     2
 72
     1
  1
UP  90°  R 3
  7
SLDTEXTSTYLE0
 11
0.5000000000000047
 21
-0.8660254037844359
 31
0.0
 73
     1
 44
1.0
  0
MTEXT
  5
B1
330
1F
100
AcDbEntity
  8
0
  6
Continuous
 62
     7
370
     0
100
AcDbMText
 10
1234.2474551075
 20
44.4006444669
 30
0.0
 40
3.5
 41
0.0
 71
     2
 72
     1
  1
UP  90°  R 3
  7
SLDTEXTSTYLE0
 11
0.4999999999999964
 21
0.8660254037844407
 31
0.0
 73
     1
 44
1.0
  0
LINE
  5
B2
330
1F
100
AcDbEntity
  8
0
  6
CENTERX2
 62
     7
100
AcDbLine
 10
1.6822444438
 20
1.6820997936
 30
0.0
 11
1292.0797757992
 21
1.6820997936
 31
0.0
  0
LINE
  5
B3
330
1F
100
AcDbEntity
  8
0
  6
CENTERX2
 62
     7
100
AcDbLine
 10
1.6822444438
 20
73.9005161736
 30
0.0
 11
1292.0797757992
 21
73.9005161736
 31
0.0
  0
LINE
  5
B4
330
1F
100
AcDbEntity
  8
0
  6
CENTERX2
 62
     7
100
AcDbLine
 10
1.6822444438
 20
1.6820997936
 30
0.0
 11
1.6822444438
 21
73.9005161736
 31
0.0
  0
LINE
  5
B5
330
1F
100
AcDbEntity
  8
0
  6
CENTERX2
 62
     7
100
AcDbLine
 10
1292.0797757992
 20
1.6820997936
 30
0.0
 11
1292.0797757992
 21
73.9005161736
 31
0.0
  0
ENDSEC
  0
SECTION
  2
OBJECTS
  0
DICTIONARY
  5
C
330
0
100
AcDbDictionary
281
     1
  3
ACAD_GROUP
350
D
  3
ACAD_LAYOUT
350
1A
  3
ACAD_MLINESTYLE
350
17
  3
ACAD_PLOTSETTINGS
350
19
  3
ACAD_PLOTSTYLENAME
350
E
  3
ACAD_SCALELIST
350
47
  3
DWGPROPS
350
B6
  0
DICTIONARY
  5
D
102
{ACAD_REACTORS
330
C
102
}
330
C
100
AcDbDictionary
281
     1
  0
DICTIONARY
  5
1A
102
{ACAD_REACTORS
330
C
102
}
330
C
100
AcDbDictionary
281
     1
  3
Layout1
350
1E
  3
Layout2
350
26
  3
Model
350
22
  0
DICTIONARY
  5
17
102
{ACAD_REACTORS
330
C
102
}
330
C
100
AcDbDictionary
281
     1
  3
Standard
350
18
  0
DICTIONARY
  5
19
102
{ACAD_REACTORS
330
C
102
}
330
C
100
AcDbDictionary
281
     1
  0
ACDBDICTIONARYWDFLT
  5
E
102
{ACAD_REACTORS
330
C
102
}
330
C
100
AcDbDictionary
281
     1
  3
Normal
350
F
100
AcDbDictionaryWithDefault
340
F
  0
DICTIONARY
  5
47
102
{ACAD_REACTORS
330
C
102
}
330
C
100
AcDbDictionary
281
     1
  3
A0
350
48
  3
A1
350
49
  3
A2
350
4A
  3
A3
350
4B
  3
A4
350
4C
  3
A5
350
4D
  3
A6
350
4E
  3
A7
350
4F
  3
A8
350
50
  3
A9
350
51
  3
B0
350
52
  3
B1
350
53
  3
B2
350
54
  3
B3
350
55
  3
B4
350
56
  3
B5
350
57
  3
B6
350
58
  0
XRECORD
  5
B6
102
{ACAD_REACTORS
330
C
102
}
330
C
100
AcDbXrecord
280
     1
  1
DWGPROPS COOKIE
  2

  3

  4

  6

  7

  8
fcoqu
  9

300
=
301
=
302
=
303
=
304
=
305
=
306
=
307
=
308
=
309
=
 40
0.0
 41
2460905.215443657
 42
2460905.215443808
  1

 90
        0
  0
LAYOUT
  5
1E
102
{ACAD_REACTORS
330
1A
102
}
330
1A
100
AcDbPlotSettings
  1

  2
none_device
  4

  6

 40
0.0
 41
0.0
 42
0.0
 43
0.0
 44
0.0
 45
0.0
 46
0.0
 47
0.0
 48
0.0
 49
0.0
140
0.0
141
0.0
142
1.0
143
1.0
 70
   688
 72
     1
 73
     0
 74
     5
  7

 75
    16
147
1.0
148
0.0
149
0.0
100
AcDbLayout
  1
Layout1
 70
     1
 71
     1
 10
0.0
 20
0.0
 11
420.0
 21
297.0
 12
0.0
 22
0.0
 32
0.0
 14
1.0000000000E+20
 24
1.0000000000E+20
 34
1.0000000000E+20
 15
-1.0000000000E+20
 25
-1.0000000000E+20
 35
-1.0000000000E+20
146
0.0
 13
0.0
 23
0.0
 33
0.0
 16
1.0
 26
0.0
 36
0.0
 17
0.0
 27
1.0
 37
0.0
 76
     0
330
1B
  0
LAYOUT
  5
26
102
{ACAD_REACTORS
330
1A
102
}
330
1A
100
AcDbPlotSettings
  1

  2
none_device
  4

  6

 40
0.0
 41
0.0
 42
0.0
 43
0.0
 44
0.0
 45
0.0
 46
0.0
 47
0.0
 48
0.0
 49
0.0
140
0.0
141
0.0
142
1.0
143
1.0
 70
   688
 72
     1
 73
     0
 74
     5
  7

 75
    16
147
1.0
148
0.0
149
0.0
100
AcDbLayout
  1
Layout2
 70
     1
 71
     2
 10
0.0
 20
0.0
 11
0.0
 21
0.0
 12
0.0
 22
0.0
 32
0.0
 14
0.0
 24
0.0
 34
0.0
 15
0.0
 25
0.0
 35
0.0
146
0.0
 13
0.0
 23
0.0
 33
0.0
 16
1.0
 26
0.0
 36
0.0
 17
0.0
 27
1.0
 37
0.0
 76
     0
330
23
  0
LAYOUT
  5
22
102
{ACAD_REACTORS
330
1A
102
}
330
1A
100
AcDbPlotSettings
  1

  2
none_device
  4
Letter_(8.50_x_11.00_Inches)
  6

 40
6.35
 41
6.35
 42
6.35000508
 43
6.35000508
 44
215.9
 45
279.4
 46
0.0
 47
0.0
 48
0.0
 49
0.0
140
0.0
141
0.0
142
1.0
143
1.0
 70
  1712
 72
     1
 73
     0
 74
     0
  7

 75
     0
147
1.0
148
0.0
149
0.0
100
AcDbLayout
  1
Model
 70
     1
 71
     0
 10
0.0
 20
0.0
 11
1302.2780784323
 21
84.0985452683
 12
0.0
 22
0.0
 32
0.0
 14
0.0
 24
0.0
 34
0.0
 15
1302.2780784323
 25
84.0985452683
 35
0.0
146
0.0
 13
0.0
 23
0.0
 33
0.0
 16
1.0
 26
0.0
 36
0.0
 17
0.0
 27
1.0
 37
0.0
 76
     0
330
1F
331
29
  0
MLINESTYLE
  5
18
102
{ACAD_REACTORS
330
17
102
}
330
17
100
AcDbMlineStyle
  2
Standard
 70
     0
  3

 62
   256
 51
90.0
 52
90.0
 71
     2
 49
0.5
 62
   256
  6
BYLAYER
 49
-0.5
 62
   256
  6
BYLAYER
  0
ACDBPLACEHOLDER
  5
F
102
{ACAD_REACTORS
330
E
102
}
330
E
  0
SCALE
  5
48
102
{ACAD_REACTORS
330
47
102
}
330
47
100
AcDbScale
 70
     0
300
1:1
140
1.0
141
1.0
290
     1
  0
SCALE
  5
49
102
{ACAD_REACTORS
330
47
102
}
330
47
100
AcDbScale
 70
     0
300
1:2
140
1.0
141
2.0
290
     0
  0
SCALE
  5
4A
102
{ACAD_REACTORS
330
47
102
}
330
47
100
AcDbScale
 70
     0
300
1:4
140
1.0
141
4.0
290
     0
  0
SCALE
  5
4B
102
{ACAD_REACTORS
330
47
102
}
330
47
100
AcDbScale
 70
     0
300
1:5
140
1.0
141
5.0
290
     0
  0
SCALE
  5
4C
102
{ACAD_REACTORS
330
47
102
}
330
47
100
AcDbScale
 70
     0
300
1:8
140
1.0
141
8.0
290
     0
  0
SCALE
  5
4D
102
{ACAD_REACTORS
330
47
102
}
330
47
100
AcDbScale
 70
     0
300
1:10
140
1.0
141
10.0
290
     0
  0
SCALE
  5
4E
102
{ACAD_REACTORS
330
47
102
}
330
47
100
AcDbScale
 70
     0
300
1:16
140
1.0
141
16.0
290
     0
  0
SCALE
  5
4F
102
{ACAD_REACTORS
330
47
102
}
330
47
100
AcDbScale
 70
     0
300
1:20
140
1.0
141
20.0
290
     0
  0
SCALE
  5
50
102
{ACAD_REACTORS
330
47
102
}
330
47
100
AcDbScale
 70
     0
300
1:30
140
1.0
141
30.0
290
     0
  0
SCALE
  5
51
102
{ACAD_REACTORS
330
47
102
}
330
47
100
AcDbScale
 70
     0
300
1:40
140
1.0
141
40.0
290
     0
  0
SCALE
  5
52
102
{ACAD_REACTORS
330
47
102
}
330
47
100
AcDbScale
 70
     0
300
1:50
140
1.0
141
50.0
290
     0
  0
SCALE
  5
53
102
{ACAD_REACTORS
330
47
102
}
330
47
100
AcDbScale
 70
     0
300
1:100
140
1.0
141
100.0
290
     0
  0
SCALE
  5
54
102
{ACAD_REACTORS
330
47
102
}
330
47
100
AcDbScale
 70
     0
300
2:1
140
2.0
141
1.0
290
     0
  0
SCALE
  5
55
102
{ACAD_REACTORS
330
47
102
}
330
47
100
AcDbScale
 70
     0
300
4:1
140
4.0
141
1.0
290
     0
  0
SCALE
  5
56
102
{ACAD_REACTORS
330
47
102
}
330
47
100
AcDbScale
 70
     0
300
8:1
140
8.0
141
1.0
290
     0
  0
SCALE
  5
57
102
{ACAD_REACTORS
330
47
102
}
330
47
100
AcDbScale
 70
     0
300
10:1
140
10.0
141
1.0
290
     0
  0
SCALE
  5
58
102
{ACAD_REACTORS
330
47
102
}
330
47
100
AcDbScale
 70
     0
300
100:1
140
100.0
141
1.0
290
     0
  0
ENDSEC
  0
EOF
