  0
SECTION
  2
HEADER
  9
$ACADVER
  1
AC1015
  9
$ACADMAINTVER
 70
     6
  9
$DWGCODEPAGE
  3
ANSI_1252
  9
$INSBASE
 10
0.0
 20
0.0
 30
0.0
  9
$EXTMIN
 10
0.0
 20
0.0
 30
0.0
  9
$EXTMAX
 10
1995.1165149747
 20
192.4729188601
 30
0.0
  9
$LIMMIN
 10
0.0
 20
0.0
  9
$LIMMAX
 10
1995.1165149747
 20
192.4729188601
  9
$ORTHOMODE
 70
     0
  9
$REGENMODE
 70
     1
  9
$FILLMODE
 70
     1
  9
$QTEXTMODE
 70
     0
  9
$MIRRTEXT
 70
     1
  9
$LTSCALE
 40
1.0
  9
$ATTMODE
 70
     1
  9
$TEXTSIZE
 40
3.5
  9
$TRACEWID
 40
1.0
  9
$TEXTSTYLE
  7
Standard
  9
$CLAYER
  8
0
  9
$CELTYPE
  6
ByLayer
  9
$CECOLOR
 62
   256
  9
$CELTSCALE
 40
1.0
  9
$DISPSILH
 70
     0
  9
$DIMSCALE
 40
1.0
  9
$DIMASZ
 40
3.302
  9
$DIMEXO
 40
1.27
  9
$DIMDLI
 40
3.75
  9
$DIMRND
 40
0.0
  9
$DIMDLE
 40
0.0
  9
$DIMEXE
 40
3.175
  9
$DIMTP
 40
0.0
  9
$DIMTM
 40
0.0
  9
$DIMTXT
 40
3.5
  9
$DIMCEN
 40
2.5
  9
$DIMTSZ
 40
0.0
  9
$DIMTOL
 70
     0
  9
$DIMLIM
 70
     0
  9
$DIMTIH
 70
     1
  9
$DIMTOH
 70
     1
  9
$DIMSE1
 70
     0
  9
$DIMSE2
 70
     0
  9
$DIMTAD
 70
     1
  9
$DIMZIN
 70
     1
  9
$DIMBLK
  1

  9
$DIMASO
 70
     1
  9
$DIMSHO
 70
     1
  9
$DIMPOST
  1

  9
$DIMAPOST
  1

  9
$DIMALT
 70
     0
  9
$DIMALTD
 70
     3
  9
$DIMALTF
 40
0.0393700787
  9
$DIMLFAC
 40
1.0
  9
$DIMTOFL
 70
     1
  9
$DIMTVP
 40
0.0
  9
$DIMTIX
 70
     0
  9
$DIMSOXD
 70
     0
  9
$DIMSAH
 70
     0
  9
$DIMBLK1
  1

  9
$DIMBLK2
  1

  9
$DIMSTYLE
  2
ISO-25
  9
$DIMCLRD
 70
     0
  9
$DIMCLRE
 70
     0
  9
$DIMCLRT
 70
     0
  9
$DIMTFAC
 40
1.0
  9
$DIMGAP
 40
1.524
  9
$DIMJUST
 70
     0
  9
$DIMSD1
 70
     0
  9
$DIMSD2
 70
     0
  9
$DIMTOLJ
 70
     0
  9
$DIMTZIN
 70
     1
  9
$DIMALTZ
 70
     0
  9
$DIMALTTZ
 70
     0
  9
$DIMUPT
 70
     0
  9
$DIMDEC
 70
     2
  9
$DIMTDEC
 70
     2
  9
$DIMALTU
 70
     2
  9
$DIMALTTD
 70
     3
  9
$DIMTXSTY
  7
Standard
  9
$DIMAUNIT
 70
     0
  9
$DIMADEC
 70
     2
  9
$DIMALTRND
 40
0.0
  9
$DIMAZIN
 70
     0
  9
$DIMDSEP
 70
    44
  9
$DIMATFIT
 70
     3
  9
$DIMFRAC
 70
     0
  9
$DIMLDRBLK
  1

  9
$DIMLUNIT
 70
     2
  9
$DIMLWD
 70
    -2
  9
$DIMLWE
 70
    -2
  9
$DIMTMOVE
 70
     0
  9
$LUNITS
 70
     2
  9
$LUPREC
 70
     3
  9
$SKETCHINC
 40
1.0
  9
$FILLETRAD
 40
0.0
  9
$AUNITS
 70
     0
  9
$AUPREC
 70
     1
  9
$MENU
  1
.
  9
$ELEVATION
 40
0.0
  9
$PELEVATION
 40
0.0
  9
$THICKNESS
 40
0.0
  9
$LIMCHECK
 70
     0
  9
$CHAMFERA
 40
0.0
  9
$CHAMFERB
 40
0.0
  9
$CHAMFERC
 40
0.0
  9
$CHAMFERD
 40
0.0
  9
$SKPOLY
 70
     0
  9
$TDCREATE
 40
2460925.550282442
  9
$TDUCREATE
 40
2460925.133615776
  9
$TDUPDATE
 40
2460925.550282628
  9
$TDUUPDATE
 40
2460925.133615961
  9
$TDINDWG
 40
0.0000000116
  9
$TDUSRTIMER
 40
0.0000000116
  9
$USRTIMER
 70
     1
  9
$ANGBASE
 50
0.0
  9
$ANGDIR
 70
     0
  9
$PDMODE
 70
     0
  9
$PDSIZE
 40
-1.0
  9
$PLINEWID
 40
0.0
  9
$SPLFRAME
 70
     0
  9
$SPLINETYPE
 70
     6
  9
$SPLINESEGS
 70
     8
  9
$HANDSEED
  5
C1
  9
$SURFTAB1
 70
     6
  9
$SURFTAB2
 70
     6
  9
$SURFTYPE
 70
     6
  9
$SURFU
 70
     6
  9
$SURFV
 70
     6
  9
$UCSBASE
  2

  9
$UCSNAME
  2

  9
$UCSORG
 10
0.0
 20
0.0
 30
0.0
  9
$UCSXDIR
 10
1.0
 20
0.0
 30
0.0
  9
$UCSYDIR
 10
0.0
 20
1.0
 30
0.0
  9
$UCSORTHOREF
  2

  9
$UCSORTHOVIEW
 70
     0
  9
$UCSORGTOP
 10
0.0
 20
0.0
 30
0.0
  9
$UCSORGBOTTOM
 10
0.0
 20
0.0
 30
0.0
  9
$UCSORGLEFT
 10
0.0
 20
0.0
 30
0.0
  9
$UCSORGRIGHT
 10
0.0
 20
0.0
 30
0.0
  9
$UCSORGFRONT
 10
0.0
 20
0.0
 30
0.0
  9
$UCSORGBACK
 10
0.0
 20
0.0
 30
0.0
  9
$PUCSBASE
  2

  9
$PUCSNAME
  2

  9
$PUCSORG
 10
0.0
 20
0.0
 30
0.0
  9
$PUCSXDIR
 10
1.0
 20
0.0
 30
0.0
  9
$PUCSYDIR
 10
0.0
 20
1.0
 30
0.0
  9
$PUCSORTHOREF
  2

  9
$PUCSORTHOVIEW
 70
     0
  9
$PUCSORGTOP
 10
0.0
 20
0.0
 30
0.0
  9
$PUCSORGBOTTOM
 10
0.0
 20
0.0
 30
0.0
  9
$PUCSORGLEFT
 10
0.0
 20
0.0
 30
0.0
  9
$PUCSORGRIGHT
 10
0.0
 20
0.0
 30
0.0
  9
$PUCSORGFRONT
 10
0.0
 20
0.0
 30
0.0
  9
$PUCSORGBACK
 10
0.0
 20
0.0
 30
0.0
  9
$USERI1
 70
     0
  9
$USERI2
 70
     0
  9
$USERI3
 70
     0
  9
$USERI4
 70
     0
  9
$USERI5
 70
     0
  9
$USERR1
 40
0.0
  9
$USERR2
 40
0.0
  9
$USERR3
 40
0.0
  9
$USERR4
 40
0.0
  9
$USERR5
 40
0.0
  9
$WORLDVIEW
 70
     1
  9
$SHADEDGE
 70
     3
  9
$SHADEDIF
 70
    70
  9
$TILEMODE
 70
     1
  9
$MAXACTVP
 70
    64
  9
$PINSBASE
 10
0.0
 20
0.0
 30
0.0
  9
$PLIMCHECK
 70
     0
  9
$PEXTMIN
 10
1.0000000000E+20
 20
1.0000000000E+20
 30
1.0000000000E+20
  9
$PEXTMAX
 10
-1.0000000000E+20
 20
-1.0000000000E+20
 30
-1.0000000000E+20
  9
$PLIMMIN
 10
0.0
 20
0.0
  9
$PLIMMAX
 10
420.0
 20
297.0
  9
$UNITMODE
 70
     0
  9
$VISRETAIN
 70
     1
  9
$PLINEGEN
 70
     0
  9
$PSLTSCALE
 70
     1
  9
$TREEDEPTH
 70
  3020
  9
$CMLSTYLE
  2
Standard
  9
$CMLJUST
 70
     0
  9
$CMLSCALE
 40
20.0
  9
$PROXYGRAPHICS
 70
     1
  9
$MEASUREMENT
 70
     1
  9
$CELWEIGHT
370
    -1
  9
$ENDCAPS
280
     0
  9
$JOINSTYLE
280
     0
  9
$LWDISPLAY
290
     1
  9
$INSUNITS
 70
     4
  9
$HYPERLINKBASE
  1

  9
$STYLESHEET
  1

  9
$XEDIT
290
     1
  9
$CEPSNTYPE
380
     0
  9
$PSTYLEMODE
290
     1
  9
$FINGERPRINTGUID
  2
{333a12b0-b05a-44a8-8b05-f0a42d555582}
  9
$VERSIONGUID
  2
{FAEB1C32-E019-11D5-929B-00C0DF256EC4}
  9
$EXTNAMES
290
     1
  9
$PSVPSCALE
 40
0.0
  9
$OLESTARTUP
290
     0
  0
ENDSEC
  0
SECTION
  2
CLASSES
  0
CLASS
  1
ACDBDICTIONARYWDFLT
  2
AcDbDictionaryWithDefault
  3
ObjectDBX Classes
 90
        0
280
     0
281
     0
  0
CLASS
  1
VISUALSTYLE
  2
AcDbVisualStyle
  3
ObjectDBX Classes
 90
     4095
280
     0
281
     0
  0
CLASS
  1
MATERIAL
  2
AcDbMaterial
  3
ObjectDBX Classes
 90
     1153
280
     0
281
     0
  0
CLASS
  1
SCALE
  2
AcDbScale
  3
ObjectDBX Classes
 90
     1153
280
     0
281
     0
  0
CLASS
  1
TABLESTYLE
  2
AcDbTableStyle
  3
ObjectDBX Classes
 90
     4095
280
     0
281
     0
  0
CLASS
  1
MLEADERSTYLE
  2
AcDbMLeaderStyle
  3
ACDB_MLEADERSTYLE_CLASS
 90
     4095
280
     0
281
     0
  0
CLASS
  1
SUN
  2
AcDbSun
  3
SCENEOE
 90
     1153
280
     0
281
     0
  0
CLASS
  1
ACDBPLACEHOLDER
  2
AcDbPlaceHolder
  3
ObjectDBX Classes
 90
        0
280
     0
281
     0
  0
CLASS
  1
LAYOUT
  2
AcDbLayout
  3
ObjectDBX Classes
 90
        0
280
     0
281
     0
  0
ENDSEC
  0
SECTION
  2
TABLES
  0
TABLE
  2
VPORT
  5
8
330
0
100
AcDbSymbolTable
 70
     1
  0
VPORT
  5
29
330
8
100
AcDbSymbolTableRecord
100
AcDbViewportTableRecord
  2
*Active
 70
     0
 10
0.0
 20
0.0
 11
1.0
 21
1.0
 12
997.5582574873
 22
96.2364594301
 13
0.0
 23
0.0
 14
10.0
 24
10.0
 15
10.0
 25
10.0
 16
0.0
 26
0.0
 36
1.0
 17
0.0
 27
0.0
 37
0.0
 40
192.4729188601
 41
10.3656998958
 42
50.0
 43
0.0
 44
0.0
 50
0.0
 51
0.0
 71
     0
 72
  2000
 73
     1
 74
     3
 75
     0
 76
     0
 77
     0
 78
     0
281
     0
 65
     1
110
0.0
120
0.0
130
0.0
111
1.0
121
0.0
131
0.0
112
0.0
122
1.0
132
0.0
 79
     0
146
0.0
  0
ENDTAB
  0
TABLE
  2
LTYPE
  5
5
330
0
100
AcDbSymbolTable
 70
     6
  0
LTYPE
  5
14
330
5
100
AcDbSymbolTableRecord
100
AcDbLinetypeTableRecord
  2
ByBlock
 70
     0
  3

 72
    65
 73
     0
 40
0.0
  0
LTYPE
  5
15
330
5
100
AcDbSymbolTableRecord
100
AcDbLinetypeTableRecord
  2
ByLayer
 70
     0
  3

 72
    65
 73
     0
 40
0.0
  0
LTYPE
  5
16
330
5
100
AcDbSymbolTableRecord
100
AcDbLinetypeTableRecord
  2
Continuous
 70
     0
  3
Solid line
 72
    65
 73
     0
 40
0.0
  0
LTYPE
  5
5E
330
5
100
AcDbSymbolTableRecord
100
AcDbLinetypeTableRecord
  2
HIDDEN
 70
     0
  3
Hidden __ __ __ __ __ __ __ __ __ __ __ __ __ __
 72
    65
 73
     2
 40
1.905
 49
1.27
 74
     0
 49
-0.635
 74
     0
  0
LTYPE
  5
5F
330
5
100
AcDbSymbolTableRecord
100
AcDbLinetypeTableRecord
  2
PHANTOM
 70
     0
  3
Phantom ______  __  __  ______  __  __  ______
 72
    65
 73
     6
 40
12.7
 49
6.35
 74
     0
 49
-1.27
 74
     0
 49
1.27
 74
     0
 49
-1.27
 74
     0
 49
1.27
 74
     0
 49
-1.27
 74
     0
  0
LTYPE
  5
60
330
5
100
AcDbSymbolTableRecord
100
AcDbLinetypeTableRecord
  2
CENTER
 70
     0
  3
Center ____ _ ____ _ ____ _ ____ _ ____ _ ____
 72
    65
 73
     4
 40
10.16
 49
6.35
 74
     0
 49
-1.27
 74
     0
 49
1.27
 74
     0
 49
-1.27
 74
     0
  0
LTYPE
  5
61
330
5
100
AcDbSymbolTableRecord
100
AcDbLinetypeTableRecord
  2
CENTERX2
 70
     0
  3
Center (2x) ________  __  ________  __  _____
 72
    65
 73
     4
 40
20.32
 49
12.7
 74
     0
 49
-2.54
 74
     0
 49
2.54
 74
     0
 49
-2.54
 74
     0
  0
LTYPE
  5
62
330
5
100
AcDbSymbolTableRecord
100
AcDbLinetypeTableRecord
  2
DOT2
 70
     0
  3
Dot (.5x) ........................................
 72
    65
 73
     2
 40
0.635
 49
0.0
 74
     0
 49
-0.635
 74
     0
  0
ENDTAB
  0
TABLE
  2
LAYER
  5
2
330
0
100
AcDbSymbolTable
 70
     7
  0
LAYER
  5
10
330
2
100
AcDbSymbolTableRecord
100
AcDbLayerTableRecord
  2
0
 70
     0
 62
     7
  6
Continuous
370
    -3
390
F
  0
LAYER
  5
63
330
2
100
AcDbSymbolTableRecord
100
AcDbLayerTableRecord
  2
BENDLINESUP
 70
     0
 62
     7
  6
CENTERX2
370
    -3
390
F
  0
LAYER
  5
64
330
2
100
AcDbSymbolTableRecord
100
AcDbLayerTableRecord
  2
BENDLLINESDOWN
 70
     0
 62
     7
  6
CENTERX2
370
    -3
390
F
  0
LAYER
  5
65
330
2
100
AcDbSymbolTableRecord
100
AcDbLayerTableRecord
  2
ETCHING
 70
     0
 62
     7
  6
Continuous
370
    -3
390
F
  0
LAYER
  5
66
330
2
100
AcDbSymbolTableRecord
100
AcDbLayerTableRecord
  2
CUT
 70
     0
 62
     7
  6
Continuous
370
    25
390
F
  0
LAYER
  5
67
330
2
100
AcDbSymbolTableRecord
100
AcDbLayerTableRecord
  2
DETAILS
 70
     0
 62
     5
  6
Continuous
370
    -3
390
F
  0
LAYER
  5
68
330
2
100
AcDbSymbolTableRecord
100
AcDbLayerTableRecord
  2
NOTES
 70
     0
 62
     1
  6
Continuous
370
    -3
390
F
  0
ENDTAB
  0
TABLE
  2
STYLE
  5
3
330
0
100
AcDbSymbolTable
 70
     2
  0
STYLE
  5
11
330
3
100
AcDbSymbolTableRecord
100
AcDbTextStyleTableRecord
  2
Standard
 70
     0
 40
0.0
 41
1.0
 50
0.0
 71
     0
 42
3.5
  3
txt
  4

  0
STYLE
  5
BD
330
3
100
AcDbSymbolTableRecord
100
AcDbTextStyleTableRecord
  2
SLDTEXTSTYLE0
 70
     0
 40
0.0
 41
0.6458333333
 50
0.0
 71
     0
 42
3.5
  3
TXT
  4

  0
ENDTAB
  0
TABLE
  2
VIEW
  5
6
330
0
100
AcDbSymbolTable
 70
     0
  0
ENDTAB
  0
TABLE
  2
UCS
  5
7
330
0
100
AcDbSymbolTable
 70
     0
  0
ENDTAB
  0
TABLE
  2
APPID
  5
9
330
0
100
AcDbSymbolTable
 70
     1
  0
APPID
  5
12
330
9
100
AcDbSymbolTableRecord
100
AcDbRegAppTableRecord
  2
ACAD
 70
     0
  0
ENDTAB
  0
TABLE
  2
DIMSTYLE
  5
A
330
0
100
AcDbSymbolTable
 70
     1
100
AcDbDimStyleTable
  0
DIMSTYLE
105
27
330
A
100
AcDbSymbolTableRecord
100
AcDbDimStyleTableRecord
  2
ISO-25
 70
     0
 41
2.5
 42
0.625
 43
3.75
 44
1.25
 73
     0
 74
     0
 77
     1
 78
     8
140
2.5
141
2.5
143
0.0393700787
147
0.625
171
     3
172
     1
178
     0
271
     2
272
     2
274
     3
278
    44
283
     0
284
     8
340
11
  0
ENDTAB
  0
TABLE
  2
BLOCK_RECORD
  5
1
330
0
100
AcDbSymbolTable
 70
     1
  0
BLOCK_RECORD
  5
1F
330
1
100
AcDbSymbolTableRecord
100
AcDbBlockTableRecord
  2
*Model_Space
340
22
  0
BLOCK_RECORD
  5
1B
330
1
100
AcDbSymbolTableRecord
100
AcDbBlockTableRecord
  2
*Paper_Space
340
1E
  0
BLOCK_RECORD
  5
23
330
1
100
AcDbSymbolTableRecord
100
AcDbBlockTableRecord
  2
*Paper_Space0
340
26
  0
ENDTAB
  0
ENDSEC
  0
SECTION
  2
BLOCKS
  0
BLOCK
  5
20
330
1F
100
AcDbEntity
  8
0
100
AcDbBlockBegin
  2
*Model_Space
 70
     0
 10
0.0
 20
0.0
 30
0.0
  3
*Model_Space
  1

  0
ENDBLK
  5
21
330
1F
100
AcDbEntity
  8
0
100
AcDbBlockEnd
  0
BLOCK
  5
1C
330
1B
100
AcDbEntity
 67
     1
  8
0
100
AcDbBlockBegin
  2
*Paper_Space
 70
     0
 10
0.0
 20
0.0
 30
0.0
  3
*Paper_Space
  1

  0
ENDBLK
  5
1D
330
1B
100
AcDbEntity
 67
     1
  8
0
100
AcDbBlockEnd
  0
BLOCK
  5
24
330
23
100
AcDbEntity
  8
0
100
AcDbBlockBegin
  2
*Paper_Space0
 70
     0
 10
0.0
 20
0.0
 30
0.0
  3
*Paper_Space0
  1

  0
ENDBLK
  5
25
330
23
100
AcDbEntity
  8
0
100
AcDbBlockEnd
  0
ENDSEC
  0
SECTION
  2
ENTITIES
  0
LINE
  5
69
330
1F
100
AcDbEntity
  8
CUT
 62
     3
100
AcDbLine
 10
6.8494583772
 20
99.1459178073
 30
0.0
 11
8.8494583772
 21
99.1459178073
 31
0.0
  0
LINE
  5
6A
330
1F
100
AcDbEntity
  8
CUT
 62
     3
100
AcDbLine
 10
6.8494583772
 20
107.1459178073
 30
0.0
 11
6.8494583772
 21
99.1459178073
 31
0.0
  0
LINE
  5
6B
330
1F
100
AcDbEntity
  8
CUT
 62
     3
100
AcDbLine
 10
6.9494583772
 20
107.1459178073
 30
0.0
 11
6.8494583772
 21
107.1459178073
 31
0.0
  0
LINE
  5
6C
330
1F
100
AcDbEntity
  8
CUT
 62
     3
100
AcDbLine
 10
6.9494583772
 20
113.1459178073
 30
0.0
 11
6.9494583772
 21
107.1459178073
 31
0.0
  0
LINE
  5
6D
330
1F
100
AcDbEntity
  8
CUT
 62
     3
100
AcDbLine
 10
3.8494583772
 20
113.1459178073
 30
0.0
 11
6.9494583772
 21
113.1459178073
 31
0.0
  0
LINE
  5
6E
330
1F
100
AcDbEntity
  8
CUT
 62
     3
100
AcDbLine
 10
3.8494583772
 20
179.4423772373
 30
0.0
 11
3.8494583772
 21
113.1459178073
 31
0.0
  0
ARC
  5
6F
330
1F
100
AcDbEntity
  8
CUT
 62
     3
100
AcDbCircle
 10
8.8494583772
 20
179.4423772373
 30
0.0
 40
4.999999999999886
100
AcDbArc
 50
90.0
 51
180.0
  0
LINE
  5
70
330
1F
100
AcDbEntity
  8
CUT
 62
     3
100
AcDbLine
 10
8.8494583772
 20
184.4423772373
 30
0.0
 11
769.8494583772
 21
184.4423772373
 31
0.0
  0
ARC
  5
71
330
1F
100
AcDbEntity
  8
CUT
 62
     3
100
AcDbCircle
 10
769.8494583772
 20
179.4423772373
 30
0.0
 40
5.000000000000023
100
AcDbArc
 50
53.1301023542
 51
90.0
  0
ARC
  5
72
330
1F
100
AcDbEntity
  8
CUT
 62
     3
100
AcDbCircle
 10
775.8494583772
 20
179.4423772373
 30
0.0
 40
5.000000000000023
100
AcDbArc
 50
90.0
 51
126.8698976458
  0
LINE
  5
73
330
1F
100
AcDbEntity
  8
CUT
 62
     3
100
AcDbLine
 10
775.8494583772
 20
184.4423772373
 30
0.0
 11
899.8494583772
 21
184.4423772373
 31
0.0
  0
ARC
  5
74
330
1F
100
AcDbEntity
  8
CUT
 62
     3
100
AcDbCircle
 10
899.8494583772
 20
179.4423772373
 30
0.0
 40
5.000000000000068
100
AcDbArc
 50
53.1301023542
 51
90.0
  0
ARC
  5
75
330
1F
100
AcDbEntity
  8
CUT
 62
     3
100
AcDbCircle
 10
905.8494583772
 20
179.4423772373
 30
0.0
 40
5.0
100
AcDbArc
 50
90.0
 51
126.8698976458
  0
LINE
  5
76
330
1F
100
AcDbEntity
  8
CUT
 62
     3
100
AcDbLine
 10
905.8494583772
 20
184.4423772373
 30
0.0
 11
1520.8494583772
 21
184.4423772373
 31
0.0
  0
ARC
  5
77
330
1F
100
AcDbEntity
  8
CUT
 62
     3
100
AcDbCircle
 10
1520.8494583772
 20
179.4423772373
 30
0.0
 40
5.0
100
AcDbArc
 50
53.1301023542
 51
90.0
  0
ARC
  5
78
330
1F
100
AcDbEntity
  8
CUT
 62
     3
100
AcDbCircle
 10
1526.8494583772
 20
179.4423772373
 30
0.0
 40
4.999999999999886
100
AcDbArc
 50
90.0
 51
126.8698976458
  0
LINE
  5
79
330
1F
100
AcDbEntity
  8
CUT
 62
     3
100
AcDbLine
 10
1526.8494583772
 20
184.4423772373
 30
0.0
 11
1559.8494583772
 21
184.4423772373
 31
0.0
  0
ARC
  5
7A
330
1F
100
AcDbEntity
  8
CUT
 62
     3
100
AcDbCircle
 10
1559.8494583772
 20
179.4423772373
 30
0.0
 40
5.000000000000137
100
AcDbArc
 50
53.1301023542
 51
90.0
  0
ARC
  5
7B
330
1F
100
AcDbEntity
  8
CUT
 62
     3
100
AcDbCircle
 10
1565.8494583772
 20
179.4423772373
 30
0.0
 40
4.999999999999886
100
AcDbArc
 50
90.0
 51
126.8698976458
  0
LINE
  5
7C
330
1F
100
AcDbEntity
  8
CUT
 62
     3
100
AcDbLine
 10
1565.8494583772
 20
184.4423772373
 30
0.0
 11
1979.4519987556
 21
184.4423772373
 31
0.0
  0
ARC
  5
7D
330
1F
100
AcDbEntity
  8
CUT
 62
     3
100
AcDbCircle
 10
1979.4519987556
 20
179.4423772373
 30
0.0
 40
5.000000000000455
100
AcDbArc
 50
360.0
 51
90.0
  0
LINE
  5
7E
330
1F
100
AcDbEntity
  8
CUT
 62
     3
100
AcDbLine
 10
1986.9519987556
 20
175.1122502184
 30
0.0
 11
1984.4519987556
 21
179.4423772373
 31
0.0
  0
ARC
  5
7F
330
1F
100
AcDbEntity
  8
CUT
 62
     3
100
AcDbCircle
 10
1986.0859733519
 20
174.6122502184
 30
0.0
 40
1.00000000000025
100
AcDbArc
 50
300.0
 51
30.0
  0
LINE
  5
80
330
1F
100
AcDbEntity
  8
CUT
 62
     3
100
AcDbLine
 10
1986.5859733519
 20
173.7462248146
 30
0.0
 11
1983.9878971405
 21
172.2462248146
 31
0.0
  0
ARC
  5
81
330
1F
100
AcDbEntity
  8
CUT
 62
     3
100
AcDbCircle
 10
1983.4878971405
 20
173.1122502184
 30
0.0
 40
1.000000000000167
100
AcDbArc
 50
210.0
 51
300.0
  0
LINE
  5
82
330
1F
100
AcDbEntity
  8
CUT
 62
     3
100
AcDbLine
 10
1982.6218717367
 20
172.6122502184
 30
0.0
 11
1980.1218717367
 21
176.9423772373
 31
0.0
  0
LINE
  5
83
330
1F
100
AcDbEntity
  8
CUT
 62
     3
100
AcDbLine
 10
1980.1218717367
 20
176.9423772373
 30
0.0
 11
1921.2321442794
 21
142.9423772373
 31
0.0
  0
LINE
  5
84
330
1F
100
AcDbEntity
  8
CUT
 62
     3
100
AcDbLine
 10
1923.7321442794
 20
138.6122502184
 30
0.0
 11
1921.2321442794
 21
142.9423772373
 31
0.0
  0
ARC
  5
85
330
1F
100
AcDbEntity
  8
CUT
 62
     3
100
AcDbCircle
 10
1922.8661188756
 20
138.1122502184
 30
0.0
 40
0.9999999999998945
100
AcDbArc
 50
300.0
 51
30.0
  0
LINE
  5
86
330
1F
100
AcDbEntity
  8
CUT
 62
     3
100
AcDbLine
 10
1923.3661188756
 20
137.2462248146
 30
0.0
 11
1920.7680426642
 21
135.7462248146
 31
0.0
  0
ARC
  5
87
330
1F
100
AcDbEntity
  8
CUT
 62
     3
100
AcDbCircle
 10
1920.2680426642
 20
136.6122502184
 30
0.0
 40
1.000000000000122
100
AcDbArc
 50
210.0
 51
300.0
  0
LINE
  5
88
330
1F
100
AcDbEntity
  8
CUT
 62
     3
100
AcDbLine
 10
1919.4020172605
 20
136.1122502184
 30
0.0
 11
1916.9020172605
 21
140.4423772373
 31
0.0
  0
LINE
  5
89
330
1F
100
AcDbEntity
  8
CUT
 62
     3
100
AcDbLine
 10
1895.8494583772
 20
140.4423772373
 30
0.0
 11
1916.9020172605
 21
140.4423772373
 31
0.0
  0
ARC
  5
8A
330
1F
100
AcDbEntity
  8
CUT
 62
     3
100
AcDbCircle
 10
1895.8494583772
 20
135.4423772373
 30
0.0
 40
5.000000000000126
100
AcDbArc
 50
90.0
 51
156.4218215218
  0
SPLINE
  5
8B
330
1F
100
AcDbEntity
  8
CUT
 62
     3
100
AcDbSpline
210
0.0
220
0.0
230
1.0
 70
     8
 71
     3
 72
    24
 73
    20
 74
     0
 42
0.00000001
 43
0.00000001
 40
0.0
 40
0.0
 40
0.0
 40
0.0
 40
0.125
 40
0.125
 40
0.1875
 40
0.1875
 40
0.21875
 40
0.21875
 40
0.25
 40
0.25
 40
0.375
 40
0.375
 40
0.4375
 40
0.4375
 40
0.46875
 40
0.46875
 40
0.5
 40
0.5
 40
1.0
 40
1.0
 40
1.0
 40
1.0
 10
1890.849458377201
 20
135.4423772373054
 30
0.0
 10
1890.853381681942
 20
135.5604111380008
 30
0.0
 10
1890.857580275553
 20
135.6621791985794
 30
0.0
 10
1890.864291099276
 20
135.790432529272
 30
0.0
 10
1890.866596862734
 20
135.8291171794738
 30
0.0
 10
1890.870158741249
 20
135.8810444647324
 30
0.0
 10
1890.871363239641
 20
135.8973369448115
 30
0.0
 10
1890.873806647535
 20
135.9278886749546
 30
0.0
 10
1890.874342267704
 20
135.9347334736642
 30
0.0
 10
1890.884139289649
 20
136.0380189057232
 30
0.0
 10
1890.895148184559
 20
136.1215234169812
 30
0.0
 10
1890.916418442956
 20
136.2480944322845
 30
0.0
 10
1890.924301348427
 20
136.2905038121218
 30
0.0
 10
1890.937314935641
 20
136.3544464439816
 30
0.0
 10
1890.94185100288
 20
136.3758154149521
 30
0.0
 10
1890.951319547028
 20
136.4186628775945
 30
0.0
 10
1890.958205243811
 20
136.4483389496082
 30
0.0
 10
1891.012222095593
 20
136.675045368185
 30
0.0
 10
1891.114055421114
 20
137.0019462401905
 30
0.0
 10
1891.266882682246
 20
137.4423772373052
 30
0.0
  0
LINE
  5
8C
330
1F
100
AcDbEntity
  8
CUT
 62
     3
100
AcDbLine
 10
1887.7494583772
 20
115.1459178073
 30
0.0
 11
1890.8494583772
 21
115.1459178073
 31
0.0
  0
LINE
  5
8D
330
1F
100
AcDbEntity
  8
CUT
 62
     3
100
AcDbLine
 10
1887.7494583772
 20
109.1459178073
 30
0.0
 11
1887.7494583772
 21
115.1459178073
 31
0.0
  0
LINE
  5
8E
330
1F
100
AcDbEntity
  8
CUT
 62
     3
100
AcDbLine
 10
1890.8494583772
 20
109.1459178073
 30
0.0
 11
1887.7494583772
 21
109.1459178073
 31
0.0
  0
LINE
  5
8F
330
1F
100
AcDbEntity
  8
CUT
 62
     3
100
AcDbLine
 10
1890.8494583772
 20
109.1459178073
 30
0.0
 11
1890.8494583772
 21
79.1459178073
 31
0.0
  0
LINE
  5
90
330
1F
100
AcDbEntity
  8
CUT
 62
     3
100
AcDbLine
 10
1887.7494583772
 20
79.1459178073
 30
0.0
 11
1890.8494583772
 21
79.1459178073
 31
0.0
  0
LINE
  5
91
330
1F
100
AcDbEntity
  8
CUT
 62
     3
100
AcDbLine
 10
1887.7494583772
 20
73.1459178073
 30
0.0
 11
1887.7494583772
 21
79.1459178073
 31
0.0
  0
LINE
  5
92
330
1F
100
AcDbEntity
  8
CUT
 62
     3
100
AcDbLine
 10
1890.8494583772
 20
73.1459178073
 30
0.0
 11
1887.7494583772
 21
73.1459178073
 31
0.0
  0
LINE
  5
93
330
1F
100
AcDbEntity
  8
CUT
 62
     3
100
AcDbLine
 10
1890.8494583772
 20
73.1459178073
 30
0.0
 11
1890.8494583772
 21
52.8494583772
 31
0.0
  0
SPLINE
  5
94
330
1F
100
AcDbEntity
  8
CUT
 62
     3
100
AcDbSpline
210
0.0
220
0.0
230
1.0
 70
     8
 71
     3
 72
    24
 73
    20
 74
     0
 42
0.00000001
 43
0.00000001
 40
0.0
 40
0.0
 40
0.0
 40
0.0
 40
0.125
 40
0.125
 40
0.1875
 40
0.1875
 40
0.21875
 40
0.21875
 40
0.25
 40
0.25
 40
0.375
 40
0.375
 40
0.4375
 40
0.4375
 40
0.46875
 40
0.46875
 40
0.5
 40
0.5
 40
1.0
 40
1.0
 40
1.0
 40
1.0
 10
1891.266882682246
 20
50.84945837720295
 30
0.0
 10
1891.224536173522
 20
50.95659683985948
 30
0.0
 10
1891.18836122639
 20
51.05026930431572
 30
0.0
 10
1891.143356148076
 20
51.17057900369976
 30
0.0
 10
1891.129897345702
 20
51.2073157372776
 30
0.0
 10
1891.112023477737
 20
51.25737108831946
 30
0.0
 10
1891.106451244349
 20
51.2732145804457
 30
0.0
 10
1891.09607822277
 20
51.30321831492351
 30
0.0
 10
1891.093530639276
 20
51.31058147333495
 30
0.0
 10
1891.060189287841
 20
51.41115998035433
 30
0.0
 10
1891.036225352921
 20
51.49284176613239
 30
0.0
 10
1891.004343169882
 20
51.61719291504324
 30
0.0
 10
1890.994393062093
 20
51.65894804305421
 30
0.0
 10
1890.980483830245
 20
51.72203785263147
 30
0.0
 10
1890.976016741268
 20
51.74314397541762
 30
0.0
 10
1890.967421206593
 20
51.78550859350989
 30
0.0
 10
1890.961826087866
 20
51.8146706052453
 30
0.0
 10
1890.919454420364
 20
52.0430004125762
 30
0.0
 10
1890.882829333819
 20
52.38345261484961
 30
0.0
 10
1890.849458377201
 20
52.84945837720273
 30
0.0
  0
LINE
  5
95
330
1F
100
AcDbEntity
  8
CUT
 62
     3
100
AcDbLine
 10
1895.8494583772
 20
47.8494583772
 30
0.0
 11
1916.9020172605
 21
47.8494583772
 31
0.0
  0
LINE
  5
96
330
1F
100
AcDbEntity
  8
CUT
 62
     3
100
AcDbLine
 10
1919.4020172605
 20
52.1795853961
 30
0.0
 11
1916.9020172605
 21
47.8494583772
 31
0.0
  0
ARC
  5
97
330
1F
100
AcDbEntity
  8
CUT
 62
     3
100
AcDbCircle
 10
1920.2680426642
 20
51.6795853961
 30
0.0
 40
1.000000000000079
100
AcDbArc
 50
60.0
 51
150.0
  0
LINE
  5
98
330
1F
100
AcDbEntity
  8
CUT
 62
     3
100
AcDbLine
 10
1923.3661188756
 20
51.0456107999
 30
0.0
 11
1920.7680426642
 21
52.5456107999
 31
0.0
  0
ARC
  5
99
330
1F
100
AcDbEntity
  8
CUT
 62
     3
100
AcDbCircle
 10
1922.8661188756
 20
50.1795853961
 30
0.0
 40
1.000000000000079
100
AcDbArc
 50
330.0
 51
60.0
  0
LINE
  5
9A
330
1F
100
AcDbEntity
  8
CUT
 62
     3
100
AcDbLine
 10
1923.7321442794
 20
49.6795853961
 30
0.0
 11
1921.2321442794
 21
45.3494583772
 31
0.0
  0
LINE
  5
9B
330
1F
100
AcDbEntity
  8
CUT
 62
     3
100
AcDbLine
 10
1980.1218717367
 20
11.3494583772
 30
0.0
 11
1921.2321442794
 21
45.3494583772
 31
0.0
  0
LINE
  5
9C
330
1F
100
AcDbEntity
  8
CUT
 62
     3
100
AcDbLine
 10
1982.6218717367
 20
15.6795853961
 30
0.0
 11
1980.1218717367
 21
11.3494583772
 31
0.0
  0
ARC
  5
9D
330
1F
100
AcDbEntity
  8
CUT
 62
     3
100
AcDbCircle
 10
1983.4878971405
 20
15.1795853961
 30
0.0
 40
1.000000000000054
100
AcDbArc
 50
60.0
 51
150.0
  0
LINE
  5
9E
330
1F
100
AcDbEntity
  8
CUT
 62
     3
100
AcDbLine
 10
1986.5859733519
 20
14.5456107999
 30
0.0
 11
1983.9878971405
 21
16.0456107999
 31
0.0
  0
ARC
  5
9F
330
1F
100
AcDbEntity
  8
CUT
 62
     3
100
AcDbCircle
 10
1986.0859733519
 20
13.6795853961
 30
0.0
 40
1.000000000000251
100
AcDbArc
 50
330.0
 51
60.0
  0
LINE
  5
A0
330
1F
100
AcDbEntity
  8
CUT
 62
     3
100
AcDbLine
 10
1986.9519987556
 20
13.1795853961
 30
0.0
 11
1984.4519987556
 21
8.8494583772
 31
0.0
  0
ARC
  5
A1
330
1F
100
AcDbEntity
  8
CUT
 62
     3
100
AcDbCircle
 10
1979.4519987556
 20
8.8494583772
 30
0.0
 40
5.00000000000056
100
AcDbArc
 50
270.0
 51
360.0
  0
LINE
  5
A2
330
1F
100
AcDbEntity
  8
CUT
 62
     3
100
AcDbLine
 10
8.8494583772
 20
3.8494583772
 30
0.0
 11
1979.4519987556
 21
3.8494583772
 31
0.0
  0
ARC
  5
A3
330
1F
100
AcDbEntity
  8
CUT
 62
     3
100
AcDbCircle
 10
8.8494583772
 20
8.8494583772
 30
0.0
 40
4.999999999999893
100
AcDbArc
 50
180.0
 51
270.0
  0
LINE
  5
A4
330
1F
100
AcDbEntity
  8
CUT
 62
     3
100
AcDbLine
 10
3.8494583772
 20
70.1459178073
 30
0.0
 11
3.8494583772
 21
8.8494583772
 31
0.0
  0
LINE
  5
A5
330
1F
100
AcDbEntity
  8
CUT
 62
     3
100
AcDbLine
 10
6.9494583772
 20
70.1459178073
 30
0.0
 11
3.8494583772
 21
70.1459178073
 31
0.0
  0
LINE
  5
A6
330
1F
100
AcDbEntity
  8
CUT
 62
     3
100
AcDbLine
 10
6.9494583772
 20
76.1459178073
 30
0.0
 11
6.9494583772
 21
70.1459178073
 31
0.0
  0
LINE
  5
A7
330
1F
100
AcDbEntity
  8
CUT
 62
     3
100
AcDbLine
 10
6.8494583772
 20
76.1459178073
 30
0.0
 11
6.9494583772
 21
76.1459178073
 31
0.0
  0
LINE
  5
A8
330
1F
100
AcDbEntity
  8
CUT
 62
     3
100
AcDbLine
 10
6.8494583772
 20
89.1459178073
 30
0.0
 11
6.8494583772
 21
76.1459178073
 31
0.0
  0
LINE
  5
A9
330
1F
100
AcDbEntity
  8
CUT
 62
     3
100
AcDbLine
 10
8.8494583772
 20
89.1459178073
 30
0.0
 11
6.8494583772
 21
89.1459178073
 31
0.0
  0
ARC
  5
AA
330
1F
100
AcDbEntity
  8
CUT
 62
     3
100
AcDbCircle
 10
8.8494583772
 20
94.1459178073
 30
0.0
 40
4.999999999999901
100
AcDbArc
 50
270.0
 51
90.0
  0
LINE
  5
AB
330
1F
100
AcDbEntity
  8
CUT
 62
     3
100
AcDbLine
 10
634.7494583772
 20
81.1459178073
 30
0.0
 11
634.7494583772
 21
75.1459178073
 31
0.0
  0
LINE
  5
AC
330
1F
100
AcDbEntity
  8
CUT
 62
     3
100
AcDbLine
 10
634.7494583772
 20
75.1459178073
 30
0.0
 11
637.9494583772
 21
75.1459178073
 31
0.0
  0
LINE
  5
AD
330
1F
100
AcDbEntity
  8
CUT
 62
     3
100
AcDbLine
 10
637.9494583772
 20
75.1459178073
 30
0.0
 11
637.9494583772
 21
81.1459178073
 31
0.0
  0
LINE
  5
AE
330
1F
100
AcDbEntity
  8
CUT
 62
     3
100
AcDbLine
 10
637.9494583772
 20
81.1459178073
 30
0.0
 11
634.7494583772
 21
81.1459178073
 31
0.0
  0
LINE
  5
AF
330
1F
100
AcDbEntity
  8
CUT
 62
     3
100
AcDbLine
 10
634.7494583772
 20
113.1459178073
 30
0.0
 11
634.7494583772
 21
107.1459178073
 31
0.0
  0
LINE
  5
B0
330
1F
100
AcDbEntity
  8
CUT
 62
     3
100
AcDbLine
 10
634.7494583772
 20
107.1459178073
 30
0.0
 11
637.9494583772
 21
107.1459178073
 31
0.0
  0
LINE
  5
B1
330
1F
100
AcDbEntity
  8
CUT
 62
     3
100
AcDbLine
 10
637.9494583772
 20
107.1459178073
 30
0.0
 11
637.9494583772
 21
113.1459178073
 31
0.0
  0
LINE
  5
B2
330
1F
100
AcDbEntity
  8
CUT
 62
     3
100
AcDbLine
 10
637.9494583772
 20
113.1459178073
 30
0.0
 11
634.7494583772
 21
113.1459178073
 31
0.0
  0
LINE
  5
B3
330
1F
100
AcDbEntity
  8
CUT
 62
     3
100
AcDbLine
 10
1237.9494583772
 20
112.1459178073
 30
0.0
 11
1237.9494583772
 21
118.1459178073
 31
0.0
  0
LINE
  5
B4
330
1F
100
AcDbEntity
  8
CUT
 62
     3
100
AcDbLine
 10
1237.9494583772
 20
118.1459178073
 30
0.0
 11
1234.7494583772
 21
118.1459178073
 31
0.0
  0
LINE
  5
B5
330
1F
100
AcDbEntity
  8
CUT
 62
     3
100
AcDbLine
 10
1234.7494583772
 20
118.1459178073
 30
0.0
 11
1234.7494583772
 21
112.1459178073
 31
0.0
  0
LINE
  5
B6
330
1F
100
AcDbEntity
  8
CUT
 62
     3
100
AcDbLine
 10
1234.7494583772
 20
112.1459178073
 30
0.0
 11
1237.9494583772
 21
112.1459178073
 31
0.0
  0
LINE
  5
B7
330
1F
100
AcDbEntity
  8
CUT
 62
     3
100
AcDbLine
 10
1237.9494583772
 20
70.1459178073
 30
0.0
 11
1237.9494583772
 21
76.1459178073
 31
0.0
  0
LINE
  5
B8
330
1F
100
AcDbEntity
  8
CUT
 62
     3
100
AcDbLine
 10
1237.9494583772
 20
76.1459178073
 30
0.0
 11
1234.7494583772
 21
76.1459178073
 31
0.0
  0
LINE
  5
B9
330
1F
100
AcDbEntity
  8
CUT
 62
     3
100
AcDbLine
 10
1234.7494583772
 20
76.1459178073
 30
0.0
 11
1234.7494583772
 21
70.1459178073
 31
0.0
  0
LINE
  5
BA
330
1F
100
AcDbEntity
  8
CUT
 62
     3
100
AcDbLine
 10
1234.7494583772
 20
70.1459178073
 30
0.0
 11
1237.9494583772
 21
70.1459178073
 31
0.0
  0
LINE
  5
BB
330
1F
100
AcDbEntity
  8
CUT
 62
     3
100
AcDbLine
 10
1890.8494583772
 20
135.4423772373
 30
0.0
 11
1890.8494583772
 21
115.1459178073
 31
0.0
  0
ARC
  5
BC
330
1F
100
AcDbEntity
  8
CUT
 62
     3
100
AcDbCircle
 10
1895.8494583772
 20
52.8494583772
 30
0.0
 40
5.00000000000022
100
AcDbArc
 50
203.5781784782
 51
270.0
  0
MTEXT
  5
BE
330
1F
100
AcDbEntity
  8
0
  6
Continuous
 62
     7
370
     0
100
AcDbMText
 10
946.5814025582
 20
137.571252883
 30
0.0
 40
3.5
 41
0.0
 71
     2
 72
     1
  1
UP  90°  R 4
  7
SLDTEXTSTYLE0
 73
     1
 44
1.0
  0
MTEXT
  5
BF
330
1F
100
AcDbEntity
  8
0
  6
Continuous
 62
     7
370
     0
100
AcDbMText
 10
946.5814025582
 20
59.7747934529
 30
0.0
 40
3.5
 41
0.0
 71
     2
 72
     1
  1
UP  90°  R 4
  7
SLDTEXTSTYLE0
 73
     1
 44
1.0
  0
ENDSEC
  0
SECTION
  2
OBJECTS
  0
DICTIONARY
  5
C
330
0
100
AcDbDictionary
281
     1
  3
ACAD_GROUP
350
D
  3
ACAD_LAYOUT
350
1A
  3
ACAD_MLINESTYLE
350
17
  3
ACAD_PLOTSETTINGS
350
19
  3
ACAD_PLOTSTYLENAME
350
E
  3
ACAD_SCALELIST
350
47
  3
DWGPROPS
350
C0
  0
DICTIONARY
  5
D
102
{ACAD_REACTORS
330
C
102
}
330
C
100
AcDbDictionary
281
     1
  0
DICTIONARY
  5
1A
102
{ACAD_REACTORS
330
C
102
}
330
C
100
AcDbDictionary
281
     1
  3
Layout1
350
1E
  3
Layout2
350
26
  3
Model
350
22
  0
DICTIONARY
  5
17
102
{ACAD_REACTORS
330
C
102
}
330
C
100
AcDbDictionary
281
     1
  3
Standard
350
18
  0
DICTIONARY
  5
19
102
{ACAD_REACTORS
330
C
102
}
330
C
100
AcDbDictionary
281
     1
  0
ACDBDICTIONARYWDFLT
  5
E
102
{ACAD_REACTORS
330
C
102
}
330
C
100
AcDbDictionary
281
     1
  3
Normal
350
F
100
AcDbDictionaryWithDefault
340
F
  0
DICTIONARY
  5
47
102
{ACAD_REACTORS
330
C
102
}
330
C
100
AcDbDictionary
281
     1
  3
A0
350
48
  3
A1
350
49
  3
A2
350
4A
  3
A3
350
4B
  3
A4
350
4C
  3
A5
350
4D
  3
A6
350
4E
  3
A7
350
4F
  3
A8
350
50
  3
A9
350
51
  3
B0
350
52
  3
B1
350
53
  3
B2
350
54
  3
B3
350
55
  3
B4
350
56
  3
B5
350
57
  3
B6
350
58
  0
XRECORD
  5
C0
102
{ACAD_REACTORS
330
C
102
}
330
C
100
AcDbXrecord
280
     1
  1
DWGPROPS COOKIE
  2

  3

  4

  6

  7

  8
fcoqu
  9

300
=
301
=
302
=
303
=
304
=
305
=
306
=
307
=
308
=
309
=
 40
0.0
 41
2460925.133615776
 42
2460925.133615961
  1

 90
        0
  0
LAYOUT
  5
1E
102
{ACAD_REACTORS
330
1A
102
}
330
1A
100
AcDbPlotSettings
  1

  2
none_device
  4

  6

 40
0.0
 41
0.0
 42
0.0
 43
0.0
 44
0.0
 45
0.0
 46
0.0
 47
0.0
 48
0.0
 49
0.0
140
0.0
141
0.0
142
1.0
143
1.0
 70
   688
 72
     1
 73
     0
 74
     5
  7

 75
    16
147
1.0
148
0.0
149
0.0
100
AcDbLayout
  1
Layout1
 70
     1
 71
     1
 10
0.0
 20
0.0
 11
420.0
 21
297.0
 12
0.0
 22
0.0
 32
0.0
 14
1.0000000000E+20
 24
1.0000000000E+20
 34
1.0000000000E+20
 15
-1.0000000000E+20
 25
-1.0000000000E+20
 35
-1.0000000000E+20
146
0.0
 13
0.0
 23
0.0
 33
0.0
 16
1.0
 26
0.0
 36
0.0
 17
0.0
 27
1.0
 37
0.0
 76
     0
330
1B
  0
LAYOUT
  5
26
102
{ACAD_REACTORS
330
1A
102
}
330
1A
100
AcDbPlotSettings
  1

  2
none_device
  4

  6

 40
0.0
 41
0.0
 42
0.0
 43
0.0
 44
0.0
 45
0.0
 46
0.0
 47
0.0
 48
0.0
 49
0.0
140
0.0
141
0.0
142
1.0
143
1.0
 70
   688
 72
     1
 73
     0
 74
     5
  7

 75
    16
147
1.0
148
0.0
149
0.0
100
AcDbLayout
  1
Layout2
 70
     1
 71
     2
 10
0.0
 20
0.0
 11
0.0
 21
0.0
 12
0.0
 22
0.0
 32
0.0
 14
0.0
 24
0.0
 34
0.0
 15
0.0
 25
0.0
 35
0.0
146
0.0
 13
0.0
 23
0.0
 33
0.0
 16
1.0
 26
0.0
 36
0.0
 17
0.0
 27
1.0
 37
0.0
 76
     0
330
23
  0
LAYOUT
  5
22
102
{ACAD_REACTORS
330
1A
102
}
330
1A
100
AcDbPlotSettings
  1

  2
none_device
  4
Letter_(8.50_x_11.00_Inches)
  6

 40
6.35
 41
6.35
 42
6.35000508
 43
6.35000508
 44
215.9
 45
279.4
 46
0.0
 47
0.0
 48
0.0
 49
0.0
140
0.0
141
0.0
142
1.0
143
1.0
 70
  1712
 72
     1
 73
     0
 74
     0
  7

 75
     0
147
1.0
148
0.0
149
0.0
100
AcDbLayout
  1
Model
 70
     1
 71
     0
 10
0.0
 20
0.0
 11
1995.1165149747
 21
192.4729188601
 12
0.0
 22
0.0
 32
0.0
 14
0.0
 24
0.0
 34
0.0
 15
1995.1165149747
 25
192.4729188601
 35
0.0
146
0.0
 13
0.0
 23
0.0
 33
0.0
 16
1.0
 26
0.0
 36
0.0
 17
0.0
 27
1.0
 37
0.0
 76
     0
330
1F
331
29
  0
MLINESTYLE
  5
18
102
{ACAD_REACTORS
330
17
102
}
330
17
100
AcDbMlineStyle
  2
Standard
 70
     0
  3

 62
   256
 51
90.0
 52
90.0
 71
     2
 49
0.5
 62
   256
  6
BYLAYER
 49
-0.5
 62
   256
  6
BYLAYER
  0
ACDBPLACEHOLDER
  5
F
102
{ACAD_REACTORS
330
E
102
}
330
E
  0
SCALE
  5
48
102
{ACAD_REACTORS
330
47
102
}
330
47
100
AcDbScale
 70
     0
300
1:1
140
1.0
141
1.0
290
     1
  0
SCALE
  5
49
102
{ACAD_REACTORS
330
47
102
}
330
47
100
AcDbScale
 70
     0
300
1:2
140
1.0
141
2.0
290
     0
  0
SCALE
  5
4A
102
{ACAD_REACTORS
330
47
102
}
330
47
100
AcDbScale
 70
     0
300
1:4
140
1.0
141
4.0
290
     0
  0
SCALE
  5
4B
102
{ACAD_REACTORS
330
47
102
}
330
47
100
AcDbScale
 70
     0
300
1:5
140
1.0
141
5.0
290
     0
  0
SCALE
  5
4C
102
{ACAD_REACTORS
330
47
102
}
330
47
100
AcDbScale
 70
     0
300
1:8
140
1.0
141
8.0
290
     0
  0
SCALE
  5
4D
102
{ACAD_REACTORS
330
47
102
}
330
47
100
AcDbScale
 70
     0
300
1:10
140
1.0
141
10.0
290
     0
  0
SCALE
  5
4E
102
{ACAD_REACTORS
330
47
102
}
330
47
100
AcDbScale
 70
     0
300
1:16
140
1.0
141
16.0
290
     0
  0
SCALE
  5
4F
102
{ACAD_REACTORS
330
47
102
}
330
47
100
AcDbScale
 70
     0
300
1:20
140
1.0
141
20.0
290
     0
  0
SCALE
  5
50
102
{ACAD_REACTORS
330
47
102
}
330
47
100
AcDbScale
 70
     0
300
1:30
140
1.0
141
30.0
290
     0
  0
SCALE
  5
51
102
{ACAD_REACTORS
330
47
102
}
330
47
100
AcDbScale
 70
     0
300
1:40
140
1.0
141
40.0
290
     0
  0
SCALE
  5
52
102
{ACAD_REACTORS
330
47
102
}
330
47
100
AcDbScale
 70
     0
300
1:50
140
1.0
141
50.0
290
     0
  0
SCALE
  5
53
102
{ACAD_REACTORS
330
47
102
}
330
47
100
AcDbScale
 70
     0
300
1:100
140
1.0
141
100.0
290
     0
  0
SCALE
  5
54
102
{ACAD_REACTORS
330
47
102
}
330
47
100
AcDbScale
 70
     0
300
2:1
140
2.0
141
1.0
290
     0
  0
SCALE
  5
55
102
{ACAD_REACTORS
330
47
102
}
330
47
100
AcDbScale
 70
     0
300
4:1
140
4.0
141
1.0
290
     0
  0
SCALE
  5
56
102
{ACAD_REACTORS
330
47
102
}
330
47
100
AcDbScale
 70
     0
300
8:1
140
8.0
141
1.0
290
     0
  0
SCALE
  5
57
102
{ACAD_REACTORS
330
47
102
}
330
47
100
AcDbScale
 70
     0
300
10:1
140
10.0
141
1.0
290
     0
  0
SCALE
  5
58
102
{ACAD_REACTORS
330
47
102
}
330
47
100
AcDbScale
 70
     0
300
100:1
140
100.0
141
1.0
290
     0
  0
ENDSEC
  0
EOF
