  0
SECTION
  2
HEADER
  9
$ACADVER
  1
AC1027
  9
$ACADMAINTVER
 70
   105
  9
$DWGCODEPAGE
  3
ANSI_1252
  9
$LASTSAVEDBY
  1
Nick
  9
$REQUIREDVERSIONS
160
                 0
  9
$INSBASE
 10
0.0
 20
0.0
 30
0.0
  9
$EXTMIN
 10
0.0
 20
0.0
 30
0.0
  9
$EXTMAX
 10
420.0
 20
297.0
 30
0.0
  9
$LIMMIN
 10
0.0
 20
0.0
  9
$LIMMAX
 10
420.0
 20
297.0
  9
$ORTHOMODE
 70
     0
  9
$REGENMODE
 70
     1
  9
$FILLMODE
 70
     1
  9
$QTEXTMODE
 70
     0
  9
$MIRRTEXT
 70
     1
  9
$LTSCALE
 40
1.0
  9
$ATTMODE
 70
     1
  9
$TEXTSIZE
 40
4.2333333333
  9
$TRACEWID
 40
1.0
  9
$TEXTSTYLE
  7
Standard
  9
$CLAYER
  8
0
  9
$CELTYPE
  6
ByLayer
  9
$CECOLOR
 62
   256
  9
$CELTSCALE
 40
1.0
  9
$DISPSILH
 70
     0
  9
$DIMSCALE
 40
1.0
  9
$DIMASZ
 40
3.302
  9
$DIMEXO
 40
1.0
  9
$DIMDLI
 40
3.75
  9
$DIMRND
 40
0.0
  9
$DIMDLE
 40
0.0
  9
$DIMEXE
 40
1.0
  9
$DIMTP
 40
0.0
  9
$DIMTM
 40
0.0
  9
$DIMTXT
 40
4.2333333333
  9
$DIMCEN
 40
2.5
  9
$DIMTSZ
 40
0.0
  9
$DIMTOL
 70
     0
  9
$DIMLIM
 70
     0
  9
$DIMTIH
 70
     1
  9
$DIMTOH
 70
     1
  9
$DIMSE1
 70
     0
  9
$DIMSE2
 70
     0
  9
$DIMTAD
 70
     1
  9
$DIMZIN
 70
     1
  9
$DIMBLK
  1

  9
$DIMASO
 70
     1
  9
$DIMSHO
 70
     1
  9
$DIMPOST
  1

  9
$DIMAPOST
  1

  9
$DIMALT
 70
     0
  9
$DIMALTD
 70
     3
  9
$DIMALTF
 40
0.0393700787
  9
$DIMLFAC
 40
1.0
  9
$DIMTOFL
 70
     1
  9
$DIMTVP
 40
0.0
  9
$DIMTIX
 70
     0
  9
$DIMSOXD
 70
     0
  9
$DIMSAH
 70
     0
  9
$DIMBLK1
  1

  9
$DIMBLK2
  1

  9
$DIMSTYLE
  2
ISO-25
  9
$DIMCLRD
 70
     0
  9
$DIMCLRE
 70
     0
  9
$DIMCLRT
 70
     0
  9
$DIMTFAC
 40
1.0
  9
$DIMGAP
 40
1.524
  9
$DIMJUST
 70
     0
  9
$DIMSD1
 70
     0
  9
$DIMSD2
 70
     0
  9
$DIMTOLJ
 70
     0
  9
$DIMTZIN
 70
     1
  9
$DIMALTZ
 70
     0
  9
$DIMALTTZ
 70
     0
  9
$DIMUPT
 70
     0
  9
$DIMDEC
 70
     0
  9
$DIMTDEC
 70
     0
  9
$DIMALTU
 70
     2
  9
$DIMALTTD
 70
     3
  9
$DIMTXSTY
  7
Standard
  9
$DIMAUNIT
 70
     0
  9
$DIMADEC
 70
     2
  9
$DIMALTRND
 40
0.0
  9
$DIMAZIN
 70
     0
  9
$DIMDSEP
 70
    44
  9
$DIMATFIT
 70
     3
  9
$DIMFRAC
 70
     0
  9
$DIMLDRBLK
  1

  9
$DIMLUNIT
 70
     2
  9
$DIMLWD
 70
    -2
  9
$DIMLWE
 70
    -2
  9
$DIMTMOVE
 70
     0
  9
$DIMFXL
 40
1.0
  9
$DIMFXLON
 70
     0
  9
$DIMJOGANG
 40
0.7853981634
  9
$DIMTFILL
 70
     0
  9
$DIMTFILLCLR
 70
     0
  9
$DIMARCSYM
 70
     0
  9
$DIMLTYPE
  6

  9
$DIMLTEX1
  6

  9
$DIMLTEX2
  6

  9
$DIMTXTDIRECTION
 70
     0
  9
$LUNITS
 70
     2
  9
$LUPREC
 70
     0
  9
$SKETCHINC
 40
1.0
  9
$FILLETRAD
 40
0.0
  9
$AUNITS
 70
     0
  9
$AUPREC
 70
     2
  9
$MENU
  1
.
  9
$ELEVATION
 40
0.0
  9
$PELEVATION
 40
0.0
  9
$THICKNESS
 40
0.0
  9
$LIMCHECK
 70
     0
  9
$CHAMFERA
 40
0.0
  9
$CHAMFERB
 40
0.0
  9
$CHAMFERC
 40
0.0
  9
$CHAMFERD
 40
0.0
  9
$SKPOLY
 70
     0
  9
$TDCREATE
 40
2460934.572778611
  9
$TDUCREATE
 40
2460934.156111945
  9
$TDUPDATE
 40
2460934.572778831
  9
$TDUUPDATE
 40
2460934.156112165
  9
$TDINDWG
 40
0.0000000116
  9
$TDUSRTIMER
 40
0.0000000116
  9
$USRTIMER
 70
     1
  9
$ANGBASE
 50
0.0
  9
$ANGDIR
 70
     0
  9
$PDMODE
 70
     0
  9
$PDSIZE
 40
-1.0
  9
$PLINEWID
 40
0.0
  9
$SPLFRAME
 70
     0
  9
$SPLINETYPE
 70
     6
  9
$SPLINESEGS
 70
     8
  9
$HANDSEED
  5
117
  9
$SURFTAB1
 70
     6
  9
$SURFTAB2
 70
     6
  9
$SURFTYPE
 70
     6
  9
$SURFU
 70
     6
  9
$SURFV
 70
     6
  9
$UCSBASE
  2

  9
$UCSNAME
  2

  9
$UCSORG
 10
0.0
 20
0.0
 30
0.0
  9
$UCSXDIR
 10
1.0
 20
0.0
 30
0.0
  9
$UCSYDIR
 10
0.0
 20
1.0
 30
0.0
  9
$UCSORTHOREF
  2

  9
$UCSORTHOVIEW
 70
     0
  9
$UCSORGTOP
 10
0.0
 20
0.0
 30
0.0
  9
$UCSORGBOTTOM
 10
0.0
 20
0.0
 30
0.0
  9
$UCSORGLEFT
 10
0.0
 20
0.0
 30
0.0
  9
$UCSORGRIGHT
 10
0.0
 20
0.0
 30
0.0
  9
$UCSORGFRONT
 10
0.0
 20
0.0
 30
0.0
  9
$UCSORGBACK
 10
0.0
 20
0.0
 30
0.0
  9
$PUCSBASE
  2

  9
$PUCSNAME
  2

  9
$PUCSORG
 10
0.0
 20
0.0
 30
0.0
  9
$PUCSXDIR
 10
1.0
 20
0.0
 30
0.0
  9
$PUCSYDIR
 10
0.0
 20
1.0
 30
0.0
  9
$PUCSORTHOREF
  2

  9
$PUCSORTHOVIEW
 70
     0
  9
$PUCSORGTOP
 10
0.0
 20
0.0
 30
0.0
  9
$PUCSORGBOTTOM
 10
0.0
 20
0.0
 30
0.0
  9
$PUCSORGLEFT
 10
0.0
 20
0.0
 30
0.0
  9
$PUCSORGRIGHT
 10
0.0
 20
0.0
 30
0.0
  9
$PUCSORGFRONT
 10
0.0
 20
0.0
 30
0.0
  9
$PUCSORGBACK
 10
0.0
 20
0.0
 30
0.0
  9
$USERI1
 70
     0
  9
$USERI2
 70
     0
  9
$USERI3
 70
     0
  9
$USERI4
 70
     0
  9
$USERI5
 70
     0
  9
$USERR1
 40
0.0
  9
$USERR2
 40
0.0
  9
$USERR3
 40
0.0
  9
$USERR4
 40
0.0
  9
$USERR5
 40
0.0
  9
$WORLDVIEW
 70
     1
  9
$SHADEDGE
 70
     3
  9
$SHADEDIF
 70
    70
  9
$TILEMODE
 70
     1
  9
$MAXACTVP
 70
    64
  9
$PINSBASE
 10
0.0
 20
0.0
 30
0.0
  9
$PLIMCHECK
 70
     0
  9
$PEXTMIN
 10
1.0000000000E+20
 20
1.0000000000E+20
 30
1.0000000000E+20
  9
$PEXTMAX
 10
-1.0000000000E+20
 20
-1.0000000000E+20
 30
-1.0000000000E+20
  9
$PLIMMIN
 10
0.0
 20
0.0
  9
$PLIMMAX
 10
420.0
 20
297.0
  9
$UNITMODE
 70
     0
  9
$VISRETAIN
 70
     1
  9
$PLINEGEN
 70
     0
  9
$PSLTSCALE
 70
     1
  9
$TREEDEPTH
 70
  3020
  9
$CMLSTYLE
  2
Standard
  9
$CMLJUST
 70
     0
  9
$CMLSCALE
 40
20.0
  9
$PROXYGRAPHICS
 70
     1
  9
$MEASUREMENT
 70
     1
  9
$CELWEIGHT
370
    -1
  9
$ENDCAPS
280
     0
  9
$JOINSTYLE
280
     0
  9
$LWDISPLAY
290
     1
  9
$INSUNITS
 70
     4
  9
$HYPERLINKBASE
  1

  9
$STYLESHEET
  1

  9
$XEDIT
290
     1
  9
$CEPSNTYPE
380
     0
  9
$PSTYLEMODE
290
     1
  9
$FINGERPRINTGUID
  2
{aed86454-680e-4738-b5af-100bd32e2aca}
  9
$VERSIONGUID
  2
{FAEB1C32-E019-11D5-929B-00C0DF256EC4}
  9
$EXTNAMES
290
     1
  9
$PSVPSCALE
 40
0.0
  9
$OLESTARTUP
290
     0
  9
$SORTENTS
280
   127
  9
$INDEXCTL
280
     0
  9
$HIDETEXT
280
     1
  9
$XCLIPFRAME
280
     2
  9
$HALOGAP
280
     0
  9
$OBSCOLOR
 70
   257
  9
$OBSLTYPE
280
     0
  9
$INTERSECTIONDISPLAY
280
     0
  9
$INTERSECTIONCOLOR
 70
   257
  9
$DIMASSOC
280
     2
  9
$PROJECTNAME
  1

  9
$CAMERADISPLAY
290
     0
  9
$LENSLENGTH
 40
50.0
  9
$CAMERAHEIGHT
 40
0.0
  9
$STEPSPERSEC
 40
2.0
  9
$STEPSIZE
 40
6.0
  9
$3DDWFPREC
 40
2.0
  9
$PSOLWIDTH
 40
5.0
  9
$PSOLHEIGHT
 40
80.0
  9
$LOFTANG1
 40
1.5707963268
  9
$LOFTANG2
 40
1.5707963268
  9
$LOFTMAG1
 40
0.0
  9
$LOFTMAG2
 40
0.0
  9
$LOFTPARAM
 70
     7
  9
$LOFTNORMALS
280
     1
  9
$LATITUDE
 40
37.795
  9
$LONGITUDE
 40
-122.394
  9
$NORTHDIRECTION
 40
0.0
  9
$TIMEZONE
 70
 -8000
  9
$LIGHTGLYPHDISPLAY
280
     1
  9
$TILEMODELIGHTSYNCH
280
     1
  9
$CMATERIAL
347
44
  9
$SOLIDHIST
280
     0
  9
$SHOWHIST
280
     1
  9
$DWFFRAME
280
     2
  9
$DGNFRAME
280
     2
  9
$REALWORLDSCALE
290
     1
  9
$INTERFERECOLOR
 62
   256
  9
$CSHADOW
280
     0
  9
$SHADOWPLANELOCATION
 40
0.0
  0
ENDSEC
  0
SECTION
  2
CLASSES
  0
CLASS
  1
ACDBDICTIONARYWDFLT
  2
AcDbDictionaryWithDefault
  3
ObjectDBX Classes
 90
        0
 91
        3
280
     0
281
     0
  0
CLASS
  1
VISUALSTYLE
  2
AcDbVisualStyle
  3
ObjectDBX Classes
 90
     4095
 91
        3
280
     0
281
     0
  0
CLASS
  1
MATERIAL
  2
AcDbMaterial
  3
ObjectDBX Classes
 90
     1153
 91
        3
280
     0
281
     0
  0
CLASS
  1
SCALE
  2
AcDbScale
  3
ObjectDBX Classes
 90
     1153
 91
        3
280
     0
281
     0
  0
CLASS
  1
TABLESTYLE
  2
AcDbTableStyle
  3
ObjectDBX Classes
 90
     4095
 91
        3
280
     0
281
     0
  0
CLASS
  1
MLEADERSTYLE
  2
AcDbMLeaderStyle
  3
ACDB_MLEADERSTYLE_CLASS
 90
     4095
 91
        3
280
     0
281
     0
  0
CLASS
  1
SUN
  2
AcDbSun
  3
SCENEOE
 90
     1153
 91
        3
280
     0
281
     0
  0
CLASS
  1
DICTIONARYVAR
  2
AcDbDictionaryVar
  3
ObjectDBX Classes
 90
        0
 91
        3
280
     0
281
     0
  0
CLASS
  1
CELLSTYLEMAP
  2
AcDbCellStyleMap
  3
ObjectDBX Classes
 90
     1152
 91
        3
280
     0
281
     0
  0
ENDSEC
  0
SECTION
  2
TABLES
  0
TABLE
  2
VPORT
  5
8
330
0
100
AcDbSymbolTable
 70
     1
  0
VPORT
  5
29
330
8
100
AcDbSymbolTableRecord
100
AcDbViewportTableRecord
  2
*Active
 70
     0
 10
0.0
 20
0.0
 11
1.0
 21
1.0
 12
210.0
 22
148.5
 13
0.0
 23
0.0
 14
10.0
 24
10.0
 15
10.0
 25
10.0
 16
0.0
 26
0.0
 36
1.0
 17
0.0
 27
0.0
 37
0.0
 40
297.0
 41
1.4141414141
 42
50.0
 43
0.0
 44
0.0
 50
0.0
 51
0.0
 71
     0
 72
  2000
 73
     1
 74
     3
 75
     0
 76
     0
 77
     0
 78
     0
281
     0
 65
     1
110
0.0
120
0.0
130
0.0
111
1.0
121
0.0
131
0.0
112
0.0
122
1.0
132
0.0
 79
     0
146
0.0
348
2F
 60
     3
 61
     5
292
     1
282
     1
141
0.0
142
0.0
 63
   250
361
5D
  0
ENDTAB
  0
TABLE
  2
LTYPE
  5
5
330
0
100
AcDbSymbolTable
 70
     6
  0
LTYPE
  5
14
330
5
100
AcDbSymbolTableRecord
100
AcDbLinetypeTableRecord
  2
ByBlock
 70
     0
  3

 72
    65
 73
     0
 40
0.0
  0
LTYPE
  5
15
330
5
100
AcDbSymbolTableRecord
100
AcDbLinetypeTableRecord
  2
ByLayer
 70
     0
  3

 72
    65
 73
     0
 40
0.0
  0
LTYPE
  5
16
330
5
100
AcDbSymbolTableRecord
100
AcDbLinetypeTableRecord
  2
Continuous
 70
     0
  3
Solid line
 72
    65
 73
     0
 40
0.0
  0
LTYPE
  5
5E
330
5
100
AcDbSymbolTableRecord
100
AcDbLinetypeTableRecord
  2
HIDDEN
 70
     0
  3
Hidden __ __ __ __ __ __ __ __ __ __ __ __ __ __
 72
    65
 73
     2
 40
1.905
 49
1.27
 74
     0
 49
-0.635
 74
     0
  0
LTYPE
  5
5F
330
5
100
AcDbSymbolTableRecord
100
AcDbLinetypeTableRecord
  2
PHANTOM
 70
     0
  3
Phantom ______  __  __  ______  __  __  ______
 72
    65
 73
     6
 40
12.7
 49
6.35
 74
     0
 49
-1.27
 74
     0
 49
1.27
 74
     0
 49
-1.27
 74
     0
 49
1.27
 74
     0
 49
-1.27
 74
     0
  0
LTYPE
  5
60
330
5
100
AcDbSymbolTableRecord
100
AcDbLinetypeTableRecord
  2
CENTER
 70
     0
  3
Center ____ _ ____ _ ____ _ ____ _ ____ _ ____
 72
    65
 73
     4
 40
10.16
 49
6.35
 74
     0
 49
-1.27
 74
     0
 49
1.27
 74
     0
 49
-1.27
 74
     0
  0
LTYPE
  5
61
330
5
100
AcDbSymbolTableRecord
100
AcDbLinetypeTableRecord
  2
CENTERX2
 70
     0
  3
Center (2x) ________  __  ________  __  _____
 72
    65
 73
     4
 40
20.32
 49
12.7
 74
     0
 49
-2.54
 74
     0
 49
2.54
 74
     0
 49
-2.54
 74
     0
  0
LTYPE
  5
62
330
5
100
AcDbSymbolTableRecord
100
AcDbLinetypeTableRecord
  2
DOT2
 70
     0
  3
Dot (.5x) ........................................
 72
    65
 73
     2
 40
0.635
 49
0.0
 74
     0
 49
-0.635
 74
     0
  0
ENDTAB
  0
TABLE
  2
LAYER
  5
2
330
0
100
AcDbSymbolTable
 70
    13
  0
LAYER
  5
10
330
2
100
AcDbSymbolTableRecord
100
AcDbLayerTableRecord
  2
0
 70
     0
 62
     7
  6
Continuous
370
    -3
390
F
347
46
348
0
  0
LAYER
  5
63
330
2
100
AcDbSymbolTableRecord
100
AcDbLayerTableRecord
  2
DRAWING-SHEET
 70
     0
 62
   179
  6
Continuous
370
    -3
390
F
347
46
348
0
  0
LAYER
  5
64
330
2
100
AcDbSymbolTableRecord
100
AcDbLayerTableRecord
  2
BORDER
 70
     0
 62
   179
  6
Continuous
370
    -3
390
F
347
46
348
0
  0
LAYER
  5
65
330
2
100
AcDbSymbolTableRecord
100
AcDbLayerTableRecord
  2
DIMENSIONS
 70
     0
 62
     7
  6
Continuous
370
    -3
390
F
347
46
348
0
  0
LAYER
  5
66
330
2
100
AcDbSymbolTableRecord
100
AcDbLayerTableRecord
  2
CENTRE_LINES
 70
     0
 62
     7
  6
Continuous
370
    -3
390
F
347
46
348
0
  0
LAYER
  5
67
330
2
100
AcDbSymbolTableRecord
100
AcDbLayerTableRecord
  2
FORMAT
 70
     0
 62
     7
  6
Continuous
370
    -3
390
F
347
46
348
0
  0
LAYER
  5
68
330
2
100
AcDbSymbolTableRecord
100
AcDbLayerTableRecord
  2
SLD-0
 70
     0
 62
   179
  6
Continuous
370
    -3
390
F
347
46
348
0
  0
LAYER
  5
69
330
2
100
AcDbSymbolTableRecord
100
AcDbLayerTableRecord
  2
OUTLINE
 70
     0
 62
     4
  6
Continuous
370
    -3
390
F
347
46
348
0
  0
LAYER
  5
6A
330
2
100
AcDbSymbolTableRecord
100
AcDbLayerTableRecord
  2
4
 70
     0
 62
     7
  6
Continuous
370
    70
390
F
347
46
348
0
  0
LAYER
  5
6B
330
2
100
AcDbSymbolTableRecord
100
AcDbLayerTableRecord
  2
TEXT25
 70
     0
 62
   179
  6
Continuous
370
    -3
390
F
347
46
348
0
  0
LAYER
  5
6C
330
2
100
AcDbSymbolTableRecord
100
AcDbLayerTableRecord
  2
TEXT35
 70
     0
 62
     7
  6
Continuous
370
    -3
390
F
347
46
348
0
  0
LAYER
  5
6D
330
2
100
AcDbSymbolTableRecord
100
AcDbLayerTableRecord
  2
TEXT5
 70
     0
 62
     7
  6
Continuous
370
    -3
390
F
347
46
348
0
  0
LAYER
  5
6E
330
2
100
AcDbSymbolTableRecord
100
AcDbLayerTableRecord
  2
5
 70
     0
 62
     7
  6
Continuous
370
    35
390
F
347
46
348
0
  0
ENDTAB
  0
TABLE
  2
STYLE
  5
3
330
0
100
AcDbSymbolTable
 70
     3
  0
STYLE
  5
11
330
3
100
AcDbSymbolTableRecord
100
AcDbTextStyleTableRecord
  2
Standard
 70
     0
 40
0.0
 41
1.0
 50
0.0
 71
     0
 42
4.2333333333
  3
txt
  4

  0
STYLE
  5
75
330
3
100
AcDbSymbolTableRecord
100
AcDbTextStyleTableRecord
  2
SLDTEXTSTYLE0
 70
     0
 40
0.0
 41
0.75
 50
0.0
 71
     0
 42
4.2333333333
  3
TXT
  4

  0
STYLE
  5
7B
330
3
100
AcDbSymbolTableRecord
100
AcDbTextStyleTableRecord
  2
SLDTEXTSTYLE1
 70
     0
 40
0.0
 41
0.6
 50
0.0
 71
     0
 42
4.2333333333
  3
TXT
  4

  0
ENDTAB
  0
TABLE
  2
VIEW
  5
6
330
0
100
AcDbSymbolTable
 70
     0
  0
ENDTAB
  0
TABLE
  2
UCS
  5
7
330
0
100
AcDbSymbolTable
 70
     0
  0
ENDTAB
  0
TABLE
  2
APPID
  5
9
330
0
100
AcDbSymbolTable
 70
     1
  0
APPID
  5
12
330
9
100
AcDbSymbolTableRecord
100
AcDbRegAppTableRecord
  2
ACAD
 70
     0
  0
ENDTAB
  0
TABLE
  2
DIMSTYLE
  5
A
330
0
100
AcDbSymbolTable
 70
     1
100
AcDbDimStyleTable
  0
DIMSTYLE
105
27
330
A
100
AcDbSymbolTableRecord
100
AcDbDimStyleTableRecord
  2
ISO-25
 70
     0
 41
2.5
 42
0.625
 43
3.75
 44
1.25
 73
     0
 74
     0
 77
     1
 78
     8
140
2.5
141
2.5
143
0.0393700787
147
0.625
171
     3
172
     1
178
     0
271
     2
272
     2
274
     3
278
    44
283
     0
284
     8
340
11
  0
ENDTAB
  0
TABLE
  2
BLOCK_RECORD
  5
1
330
0
100
AcDbSymbolTable
 70
     6
  0
BLOCK_RECORD
  5
1F
330
1
100
AcDbSymbolTableRecord
100
AcDbBlockTableRecord
  2
*Model_Space
340
22
 70
     0
280
     1
281
     0
  0
BLOCK_RECORD
  5
1B
330
1
100
AcDbSymbolTableRecord
100
AcDbBlockTableRecord
  2
*Paper_Space
340
1E
 70
     0
280
     1
281
     0
  0
BLOCK_RECORD
  5
23
330
1
100
AcDbSymbolTableRecord
100
AcDbBlockTableRecord
  2
*Paper_Space0
340
26
 70
     0
280
     1
281
     0
  0
BLOCK_RECORD
  5
6F
330
1
100
AcDbSymbolTableRecord
100
AcDbBlockTableRecord
  2
Block1
340
0
 70
     0
280
     1
281
     0
  0
BLOCK_RECORD
  5
72
330
1
100
AcDbSymbolTableRecord
100
AcDbBlockTableRecord
  2
SW_NOTE_0
340
0
102
{BLKREFS
331
77
102
}
 70
     0
280
     1
281
     0
  0
BLOCK_RECORD
  5
78
330
1
100
AcDbSymbolTableRecord
100
AcDbBlockTableRecord
  2
SW_NOTE_0_1
340
0
102
{BLKREFS
331
7D
102
}
 70
     0
280
     1
281
     0
  0
BLOCK_RECORD
  5
7E
330
1
100
AcDbSymbolTableRecord
100
AcDbBlockTableRecord
  2
SW_NOTE_0_2
340
0
102
{BLKREFS
331
82
102
}
 70
     0
280
     1
281
     0
  0
BLOCK_RECORD
  5
83
330
1
100
AcDbSymbolTableRecord
100
AcDbBlockTableRecord
  2
SW_NOTE_0_3
340
0
102
{BLKREFS
331
87
102
}
 70
     0
280
     1
281
     0
  0
ENDTAB
  0
ENDSEC
  0
SECTION
  2
BLOCKS
  0
BLOCK
  5
20
330
1F
100
AcDbEntity
  8
0
100
AcDbBlockBegin
  2
*Model_Space
 70
     0
 10
0.0
 20
0.0
 30
0.0
  3
*Model_Space
  1

  0
ENDBLK
  5
21
330
1F
100
AcDbEntity
  8
0
100
AcDbBlockEnd
  0
BLOCK
  5
1C
330
1B
100
AcDbEntity
 67
     1
  8
0
100
AcDbBlockBegin
  2
*Paper_Space
 70
     0
 10
0.0
 20
0.0
 30
0.0
  3
*Paper_Space
  1

  0
ENDBLK
  5
1D
330
1B
100
AcDbEntity
 67
     1
  8
0
100
AcDbBlockEnd
  0
BLOCK
  5
24
330
23
100
AcDbEntity
  8
0
100
AcDbBlockBegin
  2
*Paper_Space0
 70
     0
 10
0.0
 20
0.0
 30
0.0
  3
*Paper_Space0
  1

  0
ENDBLK
  5
25
330
23
100
AcDbEntity
  8
0
100
AcDbBlockEnd
  0
BLOCK
  5
70
330
6F
100
AcDbEntity
  8
0
100
AcDbBlockBegin
  2
Block1
 70
     0
 10
0.0
 20
0.0
 30
0.0
  3
Block1
  1

  0
INSERT
  5
77
330
6F
100
AcDbEntity
  8
0
  6
Continuous
 62
     7
370
     0
100
AcDbBlockReference
  2
SW_NOTE_0
 10
40.5248655077
 20
20.5912386523
 30
0.0
  0
INSERT
  5
7D
330
6F
100
AcDbEntity
  8
DRAWING-SHEET
 62
     7
100
AcDbBlockReference
  2
SW_NOTE_0_1
 10
3.556761253
 20
-0.3611706024
 30
0.0
  0
INSERT
  5
82
330
6F
100
AcDbEntity
  8
DRAWING-SHEET
 62
     7
100
AcDbBlockReference
  2
SW_NOTE_0_2
 10
7.9590819428
 20
3.0109637777
 30
0.0
  0
INSERT
  5
87
330
6F
100
AcDbEntity
  8
DRAWING-SHEET
 62
     7
100
AcDbBlockReference
  2
SW_NOTE_0_3
 10
0.0721004934
 20
6.5234823937
 30
0.0
  0
ENDBLK
  5
71
330
6F
100
AcDbEntity
  8
0
100
AcDbBlockEnd
  0
BLOCK
  5
73
330
72
100
AcDbEntity
  8
0
100
AcDbBlockBegin
  2
SW_NOTE_0
 70
     0
 10
0.0
 20
0.0
 30
0.0
  3
SW_NOTE_0
  1

  0
MTEXT
  5
76
330
72
100
AcDbEntity
  8
0
  6
Continuous
 62
     0
370
     0
100
AcDbMText
 10
0.0
 20
1.9336016097
 30
0.0
 40
1.5
 41
0.0
 46
0.0
 71
     1
 72
     1
  1
TITLE:
  7
SLDTEXTSTYLE0
 73
     1
 44
1.0
  0
ENDBLK
  5
74
330
72
100
AcDbEntity
  8
0
100
AcDbBlockEnd
  0
BLOCK
  5
79
330
78
100
AcDbEntity
  8
0
100
AcDbBlockBegin
  2
SW_NOTE_0_1
 70
     0
 10
0.0
 20
0.0
 30
0.0
  3
SW_NOTE_0_1
  1

  0
MTEXT
  5
7C
330
78
100
AcDbEntity
  8
DRAWING-SHEET
 62
     0
100
AcDbMText
 10
0.0
 20
2.7285267159
 30
0.0
 40
2.1166666667
 41
0.0
 46
0.0
 71
     1
 72
     1
  1
Email: roddyeng.com.au
  7
SLDTEXTSTYLE1
 73
     1
 44
1.0
  0
ENDBLK
  5
7A
330
78
100
AcDbEntity
  8
0
100
AcDbBlockEnd
  0
BLOCK
  5
7F
330
7E
100
AcDbEntity
  8
0
100
AcDbBlockBegin
  2
SW_NOTE_0_2
 70
     0
 10
0.0
 20
0.0
 30
0.0
  3
SW_NOTE_0_2
  1

  0
MTEXT
  5
81
330
7E
100
AcDbEntity
  8
DRAWING-SHEET
 62
     0
100
AcDbMText
 10
0.0
 20
2.7285267159
 30
0.0
 40
2.1166666667
 41
0.0
 46
0.0
 71
     1
 72
     1
  1
Ph: - 02 6947 4039
  7
SLDTEXTSTYLE1
 73
     1
 44
1.0
  0
ENDBLK
  5
80
330
7E
100
AcDbEntity
  8
0
100
AcDbBlockEnd
  0
BLOCK
  5
84
330
83
100
AcDbEntity
  8
0
100
AcDbBlockBegin
  2
SW_NOTE_0_3
 70
     0
 10
0.0
 20
0.0
 30
0.0
  3
SW_NOTE_0_3
  1

  0
MTEXT
  5
86
330
83
100
AcDbEntity
  8
DRAWING-SHEET
 62
     0
100
AcDbMText
 10
0.0
 20
2.7285267159
 30
0.0
 40
2.1166666667
 41
0.0
 46
0.0
 71
     1
 72
     1
  1
14 Waratah St TUMUT NSW 2720
  7
SLDTEXTSTYLE1
 73
     1
 44
1.0
  0
ENDBLK
  5
85
330
83
100
AcDbEntity
  8
0
100
AcDbBlockEnd
  0
ENDSEC
  0
SECTION
  2
ENTITIES
  0
LINE
  5
88
330
1F
100
AcDbEntity
  8
0
  6
Continuous
 62
     7
370
    25
100
AcDbLine
 10
920.9431882444
 20
853.2206180001
 30
0.0
 11
920.9431882444
 21
860.4001051796
 31
0.0
  0
LINE
  5
89
330
1F
100
AcDbEntity
  8
0
  6
Continuous
 62
     7
370
    25
100
AcDbLine
 10
921.6611369624
 20
853.2206180001
 30
0.0
 11
920.9431882444
 21
853.2206180001
 31
0.0
  0
LINE
  5
8A
330
1F
100
AcDbEntity
  8
0
  6
Continuous
 62
     7
370
    25
100
AcDbLine
 10
921.6611369624
 20
861.2206180001
 30
0.0
 11
921.6611369624
 21
853.2206180001
 31
0.0
  0
LINE
  5
8B
330
1F
100
AcDbEntity
  8
0
  6
Continuous
 62
     7
370
    25
100
AcDbLine
 10
920.1819702957
 20
861.2206180001
 30
0.0
 11
921.6611369624
 21
861.2206180001
 31
0.0
  0
LINE
  5
8C
330
1F
100
AcDbEntity
  8
0
  6
Continuous
 62
     7
370
    25
100
AcDbLine
 10
919.7124190137
 20
860.4001051796
 30
0.0
 11
920.1819702957
 21
861.2206180001
 31
0.0
  0
LINE
  5
8D
330
1F
100
AcDbEntity
  8
0
  6
Continuous
 62
     7
370
    25
100
AcDbLine
 10
920.9431882444
 20
860.4001051796
 30
0.0
 11
919.7124190137
 21
860.4001051796
 31
0.0
  0
SPLINE
  5
8E
330
1F
100
AcDbEntity
  8
0
  6
Continuous
 62
     7
370
    25
100
AcDbSpline
210
0.0
220
0.0
230
1.0
 70
     8
 71
     3
 72
    31
 73
    27
 74
     0
 42
0.00000001
 43
0.00000001
 40
0.0
 40
0.0
 40
0.0
 40
0.0
 40
0.0337881161627107
 40
0.0671939323738803
 40
0.0998624108568249
 40
0.1325666121262579
 40
0.1651511732547859
 40
0.1979131873557925
 40
0.2313190035669618
 40
0.2650832782673727
 40
0.2992553087581147
 40
0.3343985665049785
 40
0.3699428235093072
 40
0.4062835607000601
 40
0.4440638196985089
 40
0.4829977068727745
 40
0.5233544466133041
 40
0.5655365896041497
 40
0.6096129240658182
 40
0.6563908113764166
 40
0.7058854949364557
 40
0.7583245002617313
 40
0.8138317829411498
 40
0.8727945590393887
 40
0.9347222295400733
 40
1.0
 40
1.0
 40
1.0
 40
1.0
 10
927.3101754239326
 20
861.4257462052778
 30
0.0
 10
927.3737993747538
 20
861.4246311991621
 30
0.0
 10
927.5003273950869
 20
861.4224138028095
 30
0.0
 10
927.6873911099347
 20
861.4011019341589
 30
0.0
 10
927.870133239568
 20
861.3657393670802
 30
0.0
 10
928.0477746994618
 20
861.3156342823198
 30
0.0
 10
928.221774668531
 20
861.2534727356698
 30
0.0
 10
928.390772171721
 20
861.1755593251345
 30
0.0
 10
928.55581692976
 20
861.0848647712043
 30
0.0
 10
928.7142861583768
 20
860.9782959087892
 30
0.0
 10
928.8679195648821
 20
860.8594792774821
 30
0.0
 10
929.012943480247
 20
860.7251646059317
 30
0.0
 10
929.1493711051555
 20
860.5767081047463
 30
0.0
 10
929.278914660324
 20
860.4156981301483
 30
0.0
 10
929.3978988824937
 20
860.2390465076716
 30
0.0
 10
929.5112095847461
 20
860.0498256852393
 30
0.0
 10
929.6126313810927
 20
859.8447265657105
 30
0.0
 10
929.7103106386438
 20
859.6271712106452
 30
0.0
 10
929.7946237511907
 20
859.3911399905157
 30
0.0
 10
929.8706608832416
 20
859.1379633950457
 30
0.0
 10
929.9320985256987
 20
858.8646509679525
 30
0.0
 10
929.9832740053287
 20
858.5726366929922
 30
0.0
 10
930.0229194817758
 20
858.2608481598718
 30
0.0
 10
930.051794092241
 20
857.9299537244164
 30
0.0
 10
930.0670468580498
 20
857.5797356886661
 30
0.0
 10
930.0699193179508
 20
857.3402891762612
 30
0.0
 10
930.0713933726504
 20
857.2174128719445
 30
0.0
  0
SPLINE
  5
8F
330
1F
100
AcDbEntity
  8
0
  6
Continuous
 62
     7
370
    25
100
AcDbSpline
210
0.0
220
0.0
230
1.0
 70
     8
 71
     3
 72
    31
 73
    27
 74
     0
 42
0.00000001
 43
0.00000001
 40
0.0
 40
0.0
 40
0.0
 40
0.0
 40
0.0685946222587427
 40
0.1332460424433001
 40
0.1943125864682572
 40
0.2512792231169662
 40
0.3045134392563468
 40
0.3542349066533261
 40
0.4004805887739902
 40
0.4434107549384919
 40
0.4840148686163452
 40
0.5232523007732023
 40
0.5610423727283603
 40
0.5979002393643994
 40
0.6335184888561964
 40
0.6683143511696525
 40
0.7024956712863812
 40
0.7366853535134581
 40
0.7702931693607891
 40
0.8034372550192488
 40
0.8359129516660291
 40
0.8684602457892907
 40
0.9008465382431827
 40
0.9334665246307081
 40
0.9662575752981233
 40
1.0
 40
1.0
 40
1.0
 40
1.0
 10
924.635495936753
 20
857.2174128719445
 30
0.0
 10
924.6362456925416
 20
857.34563547248
 30
0.0
 10
924.6377021039674
 20
857.5947097221886
 30
0.0
 10
924.6539042089784
 20
857.9576460469126
 30
0.0
 10
924.6808192771226
 20
858.2981267074731
 30
0.0
 10
924.7177047007805
 20
858.6161680012751
 30
0.0
 10
924.7625915127201
 20
858.9118520344585
 30
0.0
 10
924.8225126249516
 20
859.1843886221986
 30
0.0
 10
924.8906561737858
 20
859.4350391515999
 30
0.0
 10
924.9696331927813
 20
859.664620976688
 30
0.0
 10
925.058748139109
 20
859.8762271550244
 30
0.0
 10
925.1557407350451
 20
860.0737704722671
 30
0.0
 10
925.2644602651562
 20
860.256952031901
 30
0.0
 10
925.3786932089896
 20
860.4286955528609
 30
0.0
 10
925.5030636584245
 20
860.5861897123862
 30
0.0
 10
925.6340323223496
 20
860.7316586552856
 30
0.0
 10
925.7767108966746
 20
860.8617403706314
 30
0.0
 10
925.9262492012995
 20
860.9802462046546
 30
0.0
 10
926.0840011199092
 20
861.0841307113333
 30
0.0
 10
926.2454700710937
 20
861.1756341138836
 30
0.0
 10
926.4117674559072
 20
861.2538052390438
 30
0.0
 10
926.5833473025311
 20
861.315269092437
 30
0.0
 10
926.7586674348504
 20
861.366036742203
 30
0.0
 10
926.9383407301447
 20
861.4007543368238
 30
0.0
 10
927.1226638477135
 20
861.4225986990853
 30
0.0
 10
927.2470785558236
 20
861.4246870824913
 30
0.0
 10
927.3101754239326
 20
861.4257462052778
 30
0.0
  0
SPLINE
  5
90
330
1F
100
AcDbEntity
  8
0
  6
Continuous
 62
     7
370
    25
100
AcDbSpline
210
0.0
220
0.0
230
1.0
 70
     8
 71
     3
 72
    31
 73
    27
 74
     0
 42
0.00000001
 43
0.00000001
 40
0.0
 40
0.0
 40
0.0
 40
0.0
 40
0.033787146346991
 40
0.0666216577242936
 40
0.0992848780959722
 40
0.1313611650426506
 40
0.1635851875953431
 40
0.1961039269870685
 40
0.2289022543238174
 40
0.2621580559050076
 40
0.2959912222583158
 40
0.3302178457247995
 40
0.3650598258919537
 40
0.4009507373401078
 40
0.4376203820767381
 40
0.4757075294370928
 40
0.5153806916250497
 40
0.5564135414931649
 40
0.5997648298727322
 40
0.6464241555840875
 40
0.6964314445175676
 40
0.7497815178015586
 40
0.8065733069755331
 40
0.8674355315654003
 40
0.9318867532508747
 40
0.9999999999999999
 40
0.9999999999999999
 40
0.9999999999999999
 40
0.9999999999999999
 10
927.3101754239326
 20
853.0154897950215
 30
0.0
 10
927.2470803062519
 20
853.0165557503559
 30
0.0
 10
927.122669049645
 20
853.0186576062129
 30
0.0
 10
926.9383206486406
 20
853.0404032781859
 30
0.0
 10
926.7593893493494
 20
853.0753644283855
 30
0.0
 10
926.5849921972633
 20
853.124316666308
 30
0.0
 10
926.4142344485007
 20
853.1842362921719
 30
0.0
 10
926.2494429361445
 20
853.262301854693
 30
0.0
 10
926.088785373423
 20
853.352208298021
 30
0.0
 10
925.9326903882388
 20
853.454597832737
 30
0.0
 10
925.7840911630049
 20
853.5719045370305
 30
0.0
 10
925.6421514937161
 20
853.7016514825996
 30
0.0
 10
925.5104371643516
 20
853.8470764227079
 30
0.0
 10
925.3878449457977
 20
854.0058831040969
 30
0.0
 10
925.2713327442075
 20
854.1766105151432
 30
0.0
 10
925.1641570337634
 20
854.3615896535329
 30
0.0
 10
925.0650236530364
 20
854.5600870489376
 30
0.0
 10
924.9744099600798
 20
854.7733851304807
 30
0.0
 10
924.89407015776
 20
855.0045963941602
 30
0.0
 10
924.8231039677866
 20
855.256365945023
 30
0.0
 10
924.7670716078549
 20
855.5309159704266
 30
0.0
 10
924.719110567094
 20
855.8260413809531
 30
0.0
 10
924.6804262629946
 20
856.1430103646923
 30
0.0
 10
924.6540163765526
 20
856.481995000548
 30
0.0
 10
924.6376933707567
 20
856.842784049522
 30
0.0
 10
924.636241781225
 20
857.0902578193886
 30
0.0
 10
924.635495936753
 20
857.2174128719445
 30
0.0
  0
SPLINE
  5
91
330
1F
100
AcDbEntity
  8
0
  6
Continuous
 62
     7
370
    25
100
AcDbSpline
210
0.0
220
0.0
230
1.0
 70
     8
 71
     3
 72
    31
 73
    27
 74
     0
 42
0.00000001
 43
0.00000001
 40
0.0
 40
0.0
 40
0.0
 40
0.0
 40
0.0650632896172783
 40
0.1267731664665233
 40
0.1855157632260795
 40
0.2407646791677157
 40
0.292979796023599
 40
0.342250372779768
 40
0.3889192861856595
 40
0.4327756640583106
 40
0.4746284326311175
 40
0.5147746906379524
 40
0.553605893498442
 40
0.5914264064311742
 40
0.6280281199460676
 40
0.66380363411032
 40
0.6989843361316637
 40
0.7335914893067051
 40
0.7676284691511392
 40
0.801208347786592
 40
0.834263839726623
 40
0.866980694728776
 40
0.8997197415181601
 40
0.9327019124985377
 40
0.9661758834327493
 40
1.0
 40
1.0
 40
1.0
 40
1.0
 10
930.0713933726504
 20
857.2174128719445
 30
0.0
 10
930.06990403655
 20
857.0950725109368
 30
0.0
 10
930.0670021258952
 20
856.856697306688
 30
0.0
 10
930.0519650818547
 20
856.5080550773857
 30
0.0
 10
930.0223453534462
 20
856.1789166927032
 30
0.0
 10
929.9852939515976
 20
855.8684927785118
 30
0.0
 10
929.9339774648013
 20
855.5780753640365
 30
0.0
 10
929.8708799419411
 20
855.3066594818241
 30
0.0
 10
929.8008220612056
 20
855.0530730323032
 30
0.0
 10
929.7143425318119
 20
854.819393462909
 30
0.0
 10
929.6196894795896
 20
854.6023609535039
 30
0.0
 10
929.5167061740458
 20
854.399693185893
 30
0.0
 10
929.4063751429928
 20
854.2095988026254
 30
0.0
 10
929.2861722972716
 20
854.0335993810684
 30
0.0
 10
929.1580502099656
 20
853.8704481649017
 30
0.0
 10
929.0192666927244
 20
853.7230250274126
 30
0.0
 10
928.8737339267769
 20
853.5877777772112
 30
0.0
 10
928.7196484048709
 20
853.4674312001548
 30
0.0
 10
928.5587077163402
 20
853.3620945038431
 30
0.0
 10
928.3942298262263
 20
853.2678914172424
 30
0.0
 10
928.2232963785752
 20
853.1919309714141
 30
0.0
 10
928.0497810580507
 20
853.1267080206079
 30
0.0
 10
927.8712019355022
 20
853.0768784162966
 30
0.0
 10
927.6877816139263
 20
853.0424238893925
 30
0.0
 10
927.5004530746608
 20
853.018259664353
 30
0.0
 10
927.3738209259036
 20
853.0164162817808
 30
0.0
 10
927.3101754239326
 20
853.0154897950215
 30
0.0
  0
LINE
  5
92
330
1F
100
AcDbEntity
  8
0
  6
Continuous
 62
     7
370
    25
100
AcDbLine
 10
943.6515215778
 20
853.2206180001
 30
0.0
 11
938.3790856803
 21
859.5026692822
 31
0.0
  0
LINE
  5
93
330
1F
100
AcDbEntity
  8
0
  6
Continuous
 62
     7
370
    25
100
AcDbLine
 10
943.8149831162
 20
853.2206180001
 30
0.0
 11
943.6515215778
 21
853.2206180001
 31
0.0
  0
LINE
  5
94
330
1F
100
AcDbEntity
  8
0
  6
Continuous
 62
     7
370
    25
100
AcDbLine
 10
943.8149831162
 20
861.2206180001
 30
0.0
 11
943.8149831162
 21
853.2206180001
 31
0.0
  0
LINE
  5
95
330
1F
100
AcDbEntity
  8
0
  6
Continuous
 62
     7
370
    25
100
AcDbLine
 10
943.0970343983
 20
861.2206180001
 30
0.0
 11
943.8149831162
 21
861.2206180001
 31
0.0
  0
LINE
  5
96
330
1F
100
AcDbEntity
  8
0
  6
Continuous
 62
     7
370
    25
100
AcDbLine
 10
943.0970343983
 20
854.9241436412
 30
0.0
 11
943.0970343983
 21
861.2206180001
 31
0.0
  0
LINE
  5
97
330
1F
100
AcDbEntity
  8
0
  6
Continuous
 62
     7
370
    25
100
AcDbLine
 10
937.811777988
 20
861.2206180001
 30
0.0
 11
943.0970343983
 21
854.9241436412
 31
0.0
  0
LINE
  5
98
330
1F
100
AcDbEntity
  8
0
  6
Continuous
 62
     7
370
    25
100
AcDbLine
 10
937.6611369624
 20
861.2206180001
 30
0.0
 11
937.811777988
 21
861.2206180001
 31
0.0
  0
LINE
  5
99
330
1F
100
AcDbEntity
  8
0
  6
Continuous
 62
     7
370
    25
100
AcDbLine
 10
937.6611369624
 20
853.2206180001
 30
0.0
 11
937.6611369624
 21
861.2206180001
 31
0.0
  0
LINE
  5
9A
330
1F
100
AcDbEntity
  8
0
  6
Continuous
 62
     7
370
    25
100
AcDbLine
 10
938.3790856803
 20
853.2206180001
 30
0.0
 11
937.6611369624
 21
853.2206180001
 31
0.0
  0
LINE
  5
9B
330
1F
100
AcDbEntity
  8
0
  6
Continuous
 62
     7
370
    25
100
AcDbLine
 10
938.3790856803
 20
859.5026692822
 30
0.0
 11
938.3790856803
 21
853.2206180001
 31
0.0
  0
SPLINE
  5
9C
330
1F
100
AcDbEntity
  8
0
  6
Continuous
 62
     7
370
    25
100
AcDbSpline
210
0.0
220
0.0
230
1.0
 70
     8
 71
     3
 72
    23
 73
    19
 74
     0
 42
0.00000001
 43
0.00000001
 40
0.0
 40
0.0
 40
0.0
 40
0.0
 40
0.0611602766365183
 40
0.1203345577262035
 40
0.1781802550631265
 40
0.2352351259863656
 40
0.2926829614441807
 40
0.3511862482150805
 40
0.4104566095096924
 40
0.4717198544629949
 40
0.5337612027725894
 40
0.5957390238870951
 40
0.6578875151248839
 40
0.7212951802914616
 40
0.7868225145418892
 40
0.8546861538286845
 40
0.9254779862699963
 40
1.0
 40
1.0
 40
1.0
 40
1.0
 10
950.584213885471
 20
855.491451333483
 30
0.0
 10
950.5819810945605
 20
855.4133556257759
 30
0.0
 10
950.5775880158911
 20
855.2597001329614
 30
0.0
 10
950.5451766517842
 20
855.0339741111317
 30
0.0
 10
950.4902986929479
 20
854.8182599474452
 30
0.0
 10
950.4147075012572
 20
854.6111623869783
 30
0.0
 10
950.3160507821752
 20
854.4130820796169
 30
0.0
 10
950.1959868637034
 20
854.2237946190762
 30
0.0
 10
950.0528290039941
 20
854.0452018633893
 30
0.0
 10
949.8926853035325
 20
853.8753192962967
 30
0.0
 10
949.7115146852727
 20
853.7225700680915
 30
0.0
 10
949.5160501025927
 20
853.5865341671056
 30
0.0
 10
949.3038299428357
 20
853.4746574536989
 30
0.0
 10
949.0783396707982
 20
853.3806779759781
 30
0.0
 10
948.8370498053941
 20
853.3088900937722
 30
0.0
 10
948.5810438457146
 20
853.2586670677166
 30
0.0
 10
948.3105425843776
 20
853.2248269831484
 30
0.0
 10
948.1249202961226
 20
853.2220448005314
 30
0.0
 10
948.0297267059839
 20
853.2206180001497
 30
0.0
  0
SPLINE
  5
9D
330
1F
100
AcDbEntity
  8
0
  6
Continuous
 62
     7
370
    25
100
AcDbSpline
210
0.0
220
0.0
230
1.0
 70
     8
 71
     3
 72
    19
 73
    15
 74
     0
 42
0.00000001
 43
0.00000001
 40
0.0
 40
0.0
 40
0.0
 40
0.0
 40
0.1060574933033972
 40
0.2029142570846103
 40
0.2903001653958373
 40
0.3702225656250404
 40
0.4463837207709711
 40
0.5213968999648266
 40
0.5982910828464565
 40
0.6761424688569256
 40
0.7555286995560201
 40
0.834887172457659
 40
0.9166460487466404
 40
1.0
 40
1.0
 40
1.0
 40
1.0
 10
949.0441497829069
 20
857.5363231283549
 30
0.0
 10
949.1350307602664
 20
857.5014317022049
 30
0.0
 10
949.3089085828477
 20
857.4346757607308
 30
0.0
 10
949.548190896978
 20
857.3166518430232
 30
0.0
 10
949.7543505426834
 20
857.1882813049858
 30
0.0
 10
949.9289725906496
 20
857.048094218943
 30
0.0
 10
950.0783158018876
 20
856.8969883657085
 30
0.0
 10
950.2087225254827
 20
856.7327481045694
 30
0.0
 10
950.3199942378506
 20
856.5532309437067
 30
0.0
 10
950.4153380631433
 20
856.3603085771641
 30
0.0
 10
950.4897352197746
 20
856.1559509352056
 30
0.0
 10
950.5454515726199
 20
855.9420748755545
 30
0.0
 10
950.5773771706445
 20
855.7194473208245
 30
0.0
 10
950.581920350709
 20
855.5679378823365
 30
0.0
 10
950.584213885471
 20
855.491451333483
 30
0.0
  0
SPLINE
  5
9E
330
1F
100
AcDbEntity
  8
0
  6
Continuous
 62
     7
370
    25
100
AcDbSpline
210
0.0
220
0.0
230
1.0
 70
     8
 71
     3
 72
    15
 73
    11
 74
     0
 42
0.00000001
 43
0.00000001
 40
0.0
 40
0.0
 40
0.0
 40
0.0
 40
0.1305691070873113
 40
0.2565806086940817
 40
0.3805516168036832
 40
0.5036229172007111
 40
0.6257393231697916
 40
0.7475485819596281
 40
0.871766118564872
 40
1.0
 40
1.0
 40
1.0
 40
1.0
 10
949.9688292700864
 20
859.2382462052778
 30
0.0
 10
949.9663304850749
 20
859.1498975065855
 30
0.0
 10
949.9614201368801
 20
858.976283981966
 30
0.0
 10
949.9144652584052
 20
858.7223545893177
 30
0.0
 10
949.840955159115
 20
858.4806375177124
 30
0.0
 10
949.7387717324544
 20
858.2520149224736
 30
0.0
 10
949.605967169716
 20
858.0416523781407
 30
0.0
 10
949.4485767270528
 20
857.8478529128948
 30
0.0
 10
949.2586868927878
 20
857.6788219254778
 30
0.0
 10
949.1164166299583
 20
857.5843238625048
 30
0.0
 10
949.0441497829069
 20
857.5363231283549
 30
0.0
  0
SPLINE
  5
9F
330
1F
100
AcDbEntity
  8
0
  6
Continuous
 62
     7
370
    25
100
AcDbSpline
210
0.0
220
0.0
230
1.0
 70
     8
 71
     3
 72
    23
 73
    19
 74
     0
 42
0.00000001
 43
0.00000001
 40
0.0
 40
0.0
 40
0.0
 40
0.0
 40
0.0625940971873315
 40
0.1213229386347493
 40
0.1766801421977652
 40
0.2283650957096748
 40
0.2768684458368067
 40
0.3218791276660453
 40
0.3640986251098912
 40
0.4033556962427007
 40
0.4779679481633707
 40
0.5505354613647757
 40
0.6235844567403224
 40
0.698174882264205
 40
0.7733536703408738
 40
0.8472811254977323
 40
0.9228183395566674
 40
1.0
 40
1.0
 40
1.0
 40
1.0
 10
947.4271626034198
 20
861.2206180001497
 30
0.0
 10
947.5035705535632
 20
861.2202162849458
 30
0.0
 10
947.6516681771893
 20
861.2194376609023
 30
0.0
 10
947.8670269013694
 20
861.2073619325663
 30
0.0
 10
948.0687384685476
 20
861.1908964014151
 30
0.0
 10
948.2568613767776
 20
861.1647704753713
 30
0.0
 10
948.4313086965286
 20
861.1332464133246
 30
0.0
 10
948.5926061530722
 20
861.0950708336898
 30
0.0
 10
948.7402408325426
 20
861.0492957167548
 30
0.0
 10
948.9164985157566
 20
860.9765042167949
 30
0.0
 10
949.1174600263369
 20
860.8683369748527
 30
0.0
 10
949.3350563525152
 20
860.708500254512
 30
0.0
 10
949.5211231853365
 20
860.5129974816656
 30
0.0
 10
949.6815490533157
 20
860.2924656978385
 30
0.0
 10
949.8090944695699
 20
860.0498696481219
 30
0.0
 10
949.9013671491488
 20
859.7909915023447
 30
0.0
 10
949.9597851499685
 20
859.5191703779573
 30
0.0
 10
949.9657929996048
 20
859.3325573999482
 30
0.0
 10
949.9688292700864
 20
859.2382462052778
 30
0.0
  0
LINE
  5
A0
330
1F
100
AcDbEntity
  8
0
  6
Continuous
 62
     7
370
    25
100
AcDbLine
 10
945.8662651675
 20
861.2206180001
 30
0.0
 11
947.4271626034
 21
861.2206180001
 31
0.0
  0
LINE
  5
A1
330
1F
100
AcDbEntity
  8
0
  6
Continuous
 62
     7
370
    25
100
AcDbLine
 10
945.8662651675
 20
853.2206180001
 30
0.0
 11
945.8662651675
 21
861.2206180001
 31
0.0
  0
LINE
  5
A2
330
1F
100
AcDbEntity
  8
0
  6
Continuous
 62
     7
370
    25
100
AcDbLine
 10
948.029726706
 20
853.2206180001
 30
0.0
 11
945.8662651675
 21
853.2206180001
 31
0.0
  0
LINE
  5
A3
330
1F
100
AcDbEntity
  8
0
  6
Continuous
 62
     7
370
    25
100
AcDbLine
 10
982.5842138855
 20
857.0811949232
 30
0.0
 11
982.5842138855
 21
853.2206180001
 31
0.0
  0
LINE
  5
A4
330
1F
100
AcDbEntity
  8
0
  6
Continuous
 62
     7
370
    25
100
AcDbLine
 10
986.2941497829
 20
853.2206180001
 30
0.0
 11
982.5842138855
 21
857.0811949232
 31
0.0
  0
LINE
  5
A5
330
1F
100
AcDbEntity
  8
0
  6
Continuous
 62
     7
370
    25
100
AcDbLine
 10
987.2508805521
 20
853.2206180001
 30
0.0
 11
986.2941497829
 21
853.2206180001
 31
0.0
  0
LINE
  5
A6
330
1F
100
AcDbEntity
  8
0
  6
Continuous
 62
     7
370
    25
100
AcDbLine
 10
983.0120985009
 20
857.6308744104
 30
0.0
 11
987.2508805521
 21
853.2206180001
 31
0.0
  0
LINE
  5
A7
330
1F
100
AcDbEntity
  8
0
  6
Continuous
 62
     7
370
    25
100
AcDbLine
 10
986.9431882444
 20
861.2206180001
 30
0.0
 11
983.0120985009
 21
857.6308744104
 31
0.0
  0
LINE
  5
A8
330
1F
100
AcDbEntity
  8
0
  6
Continuous
 62
     7
370
    25
100
AcDbLine
 10
985.9191497829
 20
861.2206180001
 30
0.0
 11
986.9431882444
 21
861.2206180001
 31
0.0
  0
LINE
  5
A9
330
1F
100
AcDbEntity
  8
0
  6
Continuous
 62
     7
370
    25
100
AcDbLine
 10
982.5842138855
 20
858.1741436412
 30
0.0
 11
985.9191497829
 21
861.2206180001
 31
0.0
  0
LINE
  5
AA
330
1F
100
AcDbEntity
  8
0
  6
Continuous
 62
     7
370
    25
100
AcDbLine
 10
982.5842138855
 20
861.2206180001
 30
0.0
 11
982.5842138855
 21
858.1741436412
 31
0.0
  0
LINE
  5
AB
330
1F
100
AcDbEntity
  8
0
  6
Continuous
 62
     7
370
    25
100
AcDbLine
 10
981.8662651675
 20
861.2206180001
 30
0.0
 11
982.5842138855
 21
861.2206180001
 31
0.0
  0
LINE
  5
AC
330
1F
100
AcDbEntity
  8
0
  6
Continuous
 62
     7
370
    25
100
AcDbLine
 10
981.8662651675
 20
853.2206180001
 30
0.0
 11
981.8662651675
 21
861.2206180001
 31
0.0
  0
LINE
  5
AD
330
1F
100
AcDbEntity
  8
0
  6
Continuous
 62
     7
370
    25
100
AcDbLine
 10
982.5842138855
 20
853.2206180001
 30
0.0
 11
981.8662651675
 21
853.2206180001
 31
0.0
  0
CIRCLE
  5
AE
330
1F
100
AcDbEntity
  8
0
  6
Continuous
 62
     7
370
    25
100
AcDbCircle
 10
951.4872798434
 20
785.6360078278
 30
0.0
 40
120.0
  0
CIRCLE
  5
AF
330
1F
100
AcDbEntity
  8
0
  6
Continuous
 62
     7
370
    25
100
AcDbCircle
 10
988.798914499
 20
875.7142622476
 30
0.0
 40
12.5
  0
CIRCLE
  5
B0
330
1F
100
AcDbEntity
  8
0
  6
Continuous
 62
     7
370
    25
100
AcDbCircle
 10
1041.5655342633
 20
822.9476424834
 30
0.0
 40
12.50000000000018
  0
CIRCLE
  5
B1
330
1F
100
AcDbEntity
  8
0
  6
Continuous
 62
     7
370
    25
100
AcDbCircle
 10
1041.5655342633
 20
748.3243731722
 30
0.0
 40
12.49999999999989
  0
CIRCLE
  5
B2
330
1F
100
AcDbEntity
  8
0
  6
Continuous
 62
     7
370
    25
100
AcDbCircle
 10
988.798914499
 20
695.5577534079
 30
0.0
 40
12.49999999999994
  0
CIRCLE
  5
B3
330
1F
100
AcDbEntity
  8
0
  6
Continuous
 62
     7
370
    25
100
AcDbCircle
 10
914.1756451878
 20
695.5577534079
 30
0.0
 40
12.49999999999989
  0
CIRCLE
  5
B4
330
1F
100
AcDbEntity
  8
0
  6
Continuous
 62
     7
370
    25
100
AcDbCircle
 10
861.4090254236
 20
748.3243731722
 30
0.0
 40
12.49999999999994
  0
CIRCLE
  5
B5
330
1F
100
AcDbEntity
  8
0
  6
Continuous
 62
     7
370
    25
100
AcDbCircle
 10
861.4090254236
 20
822.9476424834
 30
0.0
 40
12.5
  0
CIRCLE
  5
B6
330
1F
100
AcDbEntity
  8
0
  6
Continuous
 62
     7
370
    25
100
AcDbCircle
 10
914.1756451878
 20
875.7142622476
 30
0.0
 40
12.5000000000001
  0
SPLINE
  5
B7
330
1F
100
AcDbEntity
  8
0
  6
Continuous
 62
     7
370
    25
100
AcDbSpline
210
0.0
220
0.0
230
1.0
 70
     8
 71
     3
 72
    31
 73
    27
 74
     0
 42
0.00000001
 43
0.00000001
 40
0.0
 40
0.0
 40
0.0
 40
0.0
 40
0.03378811616271
 40
0.0671939323738796
 40
0.0998624108568254
 40
0.1325666121262584
 40
0.1651511732547858
 40
0.1979131873557919
 40
0.2313190035669612
 40
0.265083278267373
 40
0.2992553087581151
 40
0.3343985665049788
 40
0.3699428235093075
 40
0.4062835607000604
 40
0.4440638196985092
 40
0.4829977068727748
 40
0.5233544466133043
 40
0.5655365896041497
 40
0.6096129240658182
 40
0.6563908113764167
 40
0.7058854949364557
 40
0.7583245002617313
 40
0.8138317829411499
 40
0.8727945590393887
 40
0.9347222295400733
 40
1.0
 40
1.0
 40
1.0
 40
1.0
 10
977.6691497829069
 20
861.4257462052778
 30
0.0
 10
977.7327737337282
 20
861.4246311991621
 30
0.0
 10
977.8593017540612
 20
861.4224138028095
 30
0.0
 10
978.046365468909
 20
861.4011019341589
 30
0.0
 10
978.2291075985424
 20
861.3657393670803
 30
0.0
 10
978.406749058436
 20
861.3156342823198
 30
0.0
 10
978.5807490275052
 20
861.2534727356698
 30
0.0
 10
978.7497465306953
 20
861.1755593251345
 30
0.0
 10
978.9147912887342
 20
861.0848647712043
 30
0.0
 10
979.0732605173512
 20
860.9782959087892
 30
0.0
 10
979.2268939238566
 20
860.8594792774823
 30
0.0
 10
979.3719178392214
 20
860.7251646059317
 30
0.0
 10
979.5083454641298
 20
860.5767081047463
 30
0.0
 10
979.6378890192984
 20
860.4156981301483
 30
0.0
 10
979.756873241468
 20
860.2390465076716
 30
0.0
 10
979.8701839437205
 20
860.0498256852392
 30
0.0
 10
979.9716057400672
 20
859.8447265657105
 30
0.0
 10
980.0692849976183
 20
859.6271712106452
 30
0.0
 10
980.153598110165
 20
859.3911399905157
 30
0.0
 10
980.2296352422161
 20
859.1379633950457
 30
0.0
 10
980.2910728846731
 20
858.8646509679525
 30
0.0
 10
980.342248364303
 20
858.5726366929922
 30
0.0
 10
980.3818938407502
 20
858.2608481598719
 30
0.0
 10
980.4107684512154
 20
857.9299537244164
 30
0.0
 10
980.4260212170242
 20
857.5797356886661
 30
0.0
 10
980.4288936769252
 20
857.3402891762612
 30
0.0
 10
980.4303677316249
 20
857.2174128719445
 30
0.0
  0
SPLINE
  5
B8
330
1F
100
AcDbEntity
  8
0
  6
Continuous
 62
     7
370
    25
100
AcDbSpline
210
0.0
220
0.0
230
1.0
 70
     8
 71
     3
 72
    31
 73
    27
 74
     0
 42
0.00000001
 43
0.00000001
 40
0.0
 40
0.0
 40
0.0
 40
0.0
 40
0.0685946222587427
 40
0.1332460424433002
 40
0.1943125864682573
 40
0.2512792231169663
 40
0.3045134392563468
 40
0.3542349066533263
 40
0.4004805887739902
 40
0.4434107549384921
 40
0.4840148686163453
 40
0.5232523007732024
 40
0.5610423727283604
 40
0.5979002393643995
 40
0.6335184888561969
 40
0.6683143511696527
 40
0.702495671286381
 40
0.7366853535134588
 40
0.7702931693607898
 40
0.8034372550192489
 40
0.8359129516660292
 40
0.8684602457892913
 40
0.9008465382431833
 40
0.9334665246307075
 40
0.9662575752981238
 40
1.0
 40
1.0
 40
1.0
 40
1.0
 10
974.9944702957274
 20
857.2174128719445
 30
0.0
 10
974.9952200515158
 20
857.34563547248
 30
0.0
 10
974.9966764629419
 20
857.5947097221884
 30
0.0
 10
975.0128785679527
 20
857.9576460469126
 30
0.0
 10
975.0397936360971
 20
858.298126707473
 30
0.0
 10
975.0766790597548
 20
858.6161680012751
 30
0.0
 10
975.1215658716945
 20
858.9118520344585
 30
0.0
 10
975.181486983926
 20
859.1843886221986
 30
0.0
 10
975.2496305327603
 20
859.4350391515999
 30
0.0
 10
975.3286075517557
 20
859.664620976688
 30
0.0
 10
975.4177224980833
 20
859.8762271550244
 30
0.0
 10
975.5147150940194
 20
860.0737704722671
 30
0.0
 10
975.6234346241305
 20
860.2569520319009
 30
0.0
 10
975.7376675679639
 20
860.4286955528609
 30
0.0
 10
975.862038017399
 20
860.5861897123862
 30
0.0
 10
975.993006681324
 20
860.7316586552856
 30
0.0
 10
976.1356852556489
 20
860.8617403706314
 30
0.0
 10
976.285223560274
 20
860.9802462046546
 30
0.0
 10
976.4429754788836
 20
861.0841307113333
 30
0.0
 10
976.604444430068
 20
861.1756341138836
 30
0.0
 10
976.7707418148816
 20
861.2538052390438
 30
0.0
 10
976.9423216615054
 20
861.315269092437
 30
0.0
 10
977.1176417938246
 20
861.366036742203
 30
0.0
 10
977.2973150891191
 20
861.4007543368238
 30
0.0
 10
977.4816382066879
 20
861.4225986990853
 30
0.0
 10
977.6060529147978
 20
861.4246870824913
 30
0.0
 10
977.6691497829069
 20
861.4257462052778
 30
0.0
  0
SPLINE
  5
B9
330
1F
100
AcDbEntity
  8
0
  6
Continuous
 62
     7
370
    25
100
AcDbSpline
210
0.0
220
0.0
230
1.0
 70
     8
 71
     3
 72
    31
 73
    27
 74
     0
 42
0.00000001
 43
0.00000001
 40
0.0
 40
0.0
 40
0.0
 40
0.0
 40
0.0337871463469903
 40
0.0666216577242942
 40
0.0992848780959716
 40
0.1313611650426511
 40
0.1635851875953425
 40
0.196103926987068
 40
0.2289022543238179
 40
0.2621580559050076
 40
0.2959912222583153
 40
0.3302178457247995
 40
0.3650598258919533
 40
0.4009507373401082
 40
0.4376203820767381
 40
0.4757075294370928
 40
0.5153806916250494
 40
0.5564135414931647
 40
0.5997648298727318
 40
0.6464241555840875
 40
0.6964314445175676
 40
0.7497815178015584
 40
0.8065733069755329
 40
0.8674355315654002
 40
0.9318867532508747
 40
0.9999999999999999
 40
0.9999999999999999
 40
0.9999999999999999
 40
0.9999999999999999
 10
977.6691497829069
 20
853.0154897950215
 30
0.0
 10
977.6060546652263
 20
853.0165557503559
 30
0.0
 10
977.4816434086194
 20
853.0186576062129
 30
0.0
 10
977.2972950076149
 20
853.0404032781859
 30
0.0
 10
977.1183637083236
 20
853.0753644283855
 30
0.0
 10
976.9439665562377
 20
853.124316666308
 30
0.0
 10
976.7732088074749
 20
853.1842362921719
 30
0.0
 10
976.6084172951189
 20
853.262301854693
 30
0.0
 10
976.4477597323973
 20
853.352208298021
 30
0.0
 10
976.2916647472132
 20
853.454597832737
 30
0.0
 10
976.1430655219792
 20
853.5719045370305
 30
0.0
 10
976.0011258526905
 20
853.7016514825996
 30
0.0
 10
975.869411523326
 20
853.8470764227079
 30
0.0
 10
975.7468193047721
 20
854.0058831040969
 30
0.0
 10
975.6303071031818
 20
854.1766105151432
 30
0.0
 10
975.5231313927378
 20
854.3615896535329
 30
0.0
 10
975.4239980120109
 20
854.5600870489377
 30
0.0
 10
975.3333843190543
 20
854.7733851304807
 30
0.0
 10
975.2530445167345
 20
855.0045963941602
 30
0.0
 10
975.1820783267608
 20
855.256365945023
 30
0.0
 10
975.1260459668292
 20
855.5309159704266
 30
0.0
 10
975.0780849260684
 20
855.8260413809531
 30
0.0
 10
975.039400621969
 20
856.1430103646923
 30
0.0
 10
975.0129907355271
 20
856.481995000548
 30
0.0
 10
974.9966677297309
 20
856.842784049522
 30
0.0
 10
974.9952161401992
 20
857.0902578193886
 30
0.0
 10
974.9944702957274
 20
857.2174128719445
 30
0.0
  0
SPLINE
  5
BA
330
1F
100
AcDbEntity
  8
0
  6
Continuous
 62
     7
370
    25
100
AcDbSpline
210
0.0
220
0.0
230
1.0
 70
     8
 71
     3
 72
    31
 73
    27
 74
     0
 42
0.00000001
 43
0.00000001
 40
0.0
 40
0.0
 40
0.0
 40
0.0
 40
0.0650632896172782
 40
0.1267731664665232
 40
0.1855157632260793
 40
0.2407646791677157
 40
0.2929797960235987
 40
0.3422503727797678
 40
0.3889192861856592
 40
0.4327756640583105
 40
0.4746284326311174
 40
0.5147746906379523
 40
0.5536058934984416
 40
0.5914264064311737
 40
0.6280281199460671
 40
0.6638036341103194
 40
0.6989843361316636
 40
0.7335914893067046
 40
0.7676284691511387
 40
0.8012083477865914
 40
0.8342638397266224
 40
0.8669806947287755
 40
0.8997197415181608
 40
0.9327019124985384
 40
0.9661758834327498
 40
0.9999999999999999
 40
0.9999999999999999
 40
0.9999999999999999
 40
0.9999999999999999
 10
980.4303677316249
 20
857.2174128719445
 30
0.0
 10
980.4288783955244
 20
857.0950725109368
 30
0.0
 10
980.4259764848696
 20
856.856697306688
 30
0.0
 10
980.4109394408291
 20
856.5080550773857
 30
0.0
 10
980.3813197124206
 20
856.1789166927032
 30
0.0
 10
980.3442683105719
 20
855.868492778512
 30
0.0
 10
980.2929518237755
 20
855.5780753640365
 30
0.0
 10
980.2298543009155
 20
855.3066594818242
 30
0.0
 10
980.15979642018
 20
855.0530730323031
 30
0.0
 10
980.0733168907861
 20
854.819393462909
 30
0.0
 10
979.9786638385639
 20
854.6023609535039
 30
0.0
 10
979.8756805330202
 20
854.399693185893
 30
0.0
 10
979.7653495019673
 20
854.2095988026252
 30
0.0
 10
979.645146656246
 20
854.0335993810684
 30
0.0
 10
979.5170245689399
 20
853.8704481649017
 30
0.0
 10
979.3782410516988
 20
853.7230250274126
 30
0.0
 10
979.2327082857514
 20
853.5877777772112
 30
0.0
 10
979.0786227638451
 20
853.4674312001548
 30
0.0
 10
978.9176820753146
 20
853.3620945038432
 30
0.0
 10
978.7532041852005
 20
853.2678914172424
 30
0.0
 10
978.5822707375496
 20
853.1919309714141
 30
0.0
 10
978.408755417025
 20
853.1267080206079
 30
0.0
 10
978.2301762944765
 20
853.0768784162966
 30
0.0
 10
978.0467559729007
 20
853.0424238893925
 30
0.0
 10
977.8594274336351
 20
853.018259664353
 30
0.0
 10
977.732795284878
 20
853.0164162817808
 30
0.0
 10
977.6691497829069
 20
853.0154897950215
 30
0.0
  0
SPLINE
  5
BB
330
1F
100
AcDbEntity
  8
0
  6
Continuous
 62
     7
370
    25
100
AcDbSpline
210
0.0
220
0.0
230
1.0
 70
     8
 71
     3
 72
    19
 73
    15
 74
     0
 42
0.00000001
 43
0.00000001
 40
0.0
 40
0.0
 40
0.0
 40
0.0
 40
0.1101655532114447
 40
0.2157872561749703
 40
0.3180274349094164
 40
0.4175739541655086
 40
0.511650487647446
 40
0.5961620971027629
 40
0.6729345334849952
 40
0.743669557349856
 40
0.8106770010653602
 40
0.8740589623137345
 40
0.9366963019193725
 40
1.0
 40
1.0
 40
1.0
 40
1.0
 10
971.0970343982915
 20
858.0411308206626
 30
0.0
 10
971.1960084913663
 20
858.0428103720253
 30
0.0
 10
971.3898744263564
 20
858.0461002005572
 30
0.0
 10
971.6730614086647
 20
858.085889938603
 30
0.0
 10
971.9438575506881
 20
858.140931374159
 30
0.0
 10
972.1962615324045
 20
858.2252403850626
 30
0.0
 10
972.426315734349
 20
858.3231610635981
 30
0.0
 10
972.6259033962506
 20
858.4371089710627
 30
0.0
 10
972.7922283043052
 20
858.5637712550553
 30
0.0
 10
972.9244821819996
 20
858.7051029335521
 30
0.0
 10
973.0239775617654
 20
858.8566801849425
 30
0.0
 10
973.0967245273107
 20
859.0146611167997
 30
0.0
 10
973.1396967015852
 20
859.1804303989398
 30
0.0
 10
973.1454330831117
 20
859.2935610684965
 30
0.0
 10
973.1483164495736
 20
859.3504256924573
 30
0.0
  0
LINE
  5
BC
330
1F
100
AcDbEntity
  8
0
  6
Continuous
 62
     7
370
    25
100
AcDbLine
 10
971.0970343983
 20
857.2206180001
 30
0.0
 11
971.0970343983
 21
858.0411308207
 31
0.0
  0
SPLINE
  5
BD
330
1F
100
AcDbEntity
  8
0
  6
Continuous
 62
     7
370
    25
100
AcDbSpline
210
0.0
220
0.0
230
1.0
 70
     8
 71
     3
 72
    23
 73
    19
 74
     0
 42
0.00000001
 43
0.00000001
 40
0.0
 40
0.0
 40
0.0
 40
0.0
 40
0.0669091856056583
 40
0.1334854404229657
 40
0.2010351165700835
 40
0.2712343400187647
 40
0.3428799841615856
 40
0.4138361296100203
 40
0.4859766219744209
 40
0.5602295572555496
 40
0.5998841807523917
 40
0.6440548396425976
 40
0.6918919315842558
 40
0.7446875244737723
 40
0.8014917751698766
 40
0.8628576982200915
 40
0.9293283793947436
 40
1.0
 40
1.0
 40
1.0
 40
1.0
 10
973.55857285983
 20
855.528310307842
 30
0.0
 10
973.555075027771
 20
855.6028505109736
 30
0.0
 10
973.5480967683782
 20
855.7515600155679
 30
0.0
 10
973.4948200153692
 20
855.9703430424764
 30
0.0
 10
973.407188325752
 20
856.1811394137659
 30
0.0
 10
973.284508299905
 20
856.380352648184
 30
0.0
 10
973.1351694915728
 20
856.5649832802627
 30
0.0
 10
972.960621133038
 20
856.7297180973554
 30
0.0
 10
972.7594137538989
 20
856.8656497340894
 30
0.0
 10
972.5742254818231
 20
856.9595666630007
 30
0.0
 10
972.4101908383669
 20
857.0236514062778
 30
0.0
 10
972.2698128167953
 20
857.0663370393047
 30
0.0
 10
972.1126548662273
 20
857.102482537993
 30
0.0
 10
971.9406174973655
 20
857.1361105871923
 30
0.0
 10
971.7524044312102
 20
857.1647308115394
 30
0.0
 10
971.5482205729743
 20
857.1885978189529
 30
0.0
 10
971.3280245464489
 20
857.2076950553975
 30
0.0
 10
971.1755875959155
 20
857.2162232731837
 30
0.0
 10
971.0970343982915
 20
857.2206180001497
 30
0.0
  0
SPLINE
  5
BE
330
1F
100
AcDbEntity
  8
0
  6
Continuous
 62
     7
370
    25
100
AcDbSpline
210
0.0
220
0.0
230
1.0
 70
     8
 71
     3
 72
    23
 73
    19
 74
     0
 42
0.00000001
 43
0.00000001
 40
0.0
 40
0.0
 40
0.0
 40
0.0
 40
0.0760717369555655
 40
0.1487517145745116
 40
0.2184027938458462
 40
0.2857595810623859
 40
0.3505980236748785
 40
0.4149640445981284
 40
0.478069338571783
 40
0.5417606760069078
 40
0.6043498585387175
 40
0.6640750210708974
 40
0.7214636230801997
 40
0.7775871282364458
 40
0.8326444469271316
 40
0.8878435110684628
 40
0.9434603426519486
 40
1.0
 40
1.0
 40
1.0
 40
1.0
 10
971.5217138854711
 20
853.8360026155343
 30
0.0
 10
971.5965790343814
 20
853.8374103989563
 30
0.0
 10
971.7429713701949
 20
853.8401631979084
 30
0.0
 10
971.9565824772366
 20
853.865479099271
 30
0.0
 10
972.1597995002442
 20
853.9023486157155
 30
0.0
 10
972.3503661877157
 20
853.9592925764424
 30
0.0
 10
972.5307787759467
 20
854.0296488083441
 30
0.0
 10
972.6985082607993
 20
854.1179880207706
 30
0.0
 10
972.8557565035272
 20
854.2216330987985
 30
0.0
 10
973.0005094302161
 20
854.3394368899782
 30
0.0
 10
973.1306705902455
 20
854.4684003073061
 30
0.0
 10
973.2452751919401
 20
854.6032873269871
 30
0.0
 10
973.3427029896073
 20
854.7435292230093
 30
0.0
 10
973.4212940254679
 20
854.8899020708188
 30
0.0
 10
973.483352426155
 20
855.0417997368305
 30
0.0
 10
973.525599741741
 20
855.1996484896407
 30
0.0
 10
973.5549746334551
 20
855.3621565266785
 30
0.0
 10
973.557366889861
 20
855.4726227414023
 30
0.0
 10
973.55857285983
 20
855.528310307842
 30
0.0
  0
SPLINE
  5
BF
330
1F
100
AcDbEntity
  8
0
  6
Continuous
 62
     7
370
    25
100
AcDbSpline
210
0.0
220
0.0
230
1.0
 70
     8
 71
     3
 72
    15
 73
    11
 74
     0
 42
0.00000001
 43
0.00000001
 40
0.0
 40
0.0
 40
0.0
 40
0.0
 40
0.1182713048357317
 40
0.236177533083767
 40
0.3556629329485098
 40
0.4759041646706846
 40
0.6001273417110826
 40
0.7286081161551218
 40
0.8613134756739406
 40
1.0
 40
1.0
 40
1.0
 40
1.0
 10
970.1851754239326
 20
854.2686949232267
 30
0.0
 10
970.2299675988471
 20
854.2341615886312
 30
0.0
 10
970.3194136854316
 20
854.1652015159808
 30
0.0
 10
970.465169642228
 20
854.0771977936089
 30
0.0
 10
970.618460810424
 20
854.0009440214151
 30
0.0
 10
970.7826086372147
 20
853.9426955740637
 30
0.0
 10
970.954070969681
 20
853.8933752065456
 30
0.0
 10
971.135619233068
 20
853.8610997342427
 30
0.0
 10
971.3256517293235
 20
853.8389553426011
 30
0.0
 10
971.4554066172848
 20
853.8370012134756
 30
0.0
 10
971.5217138854711
 20
853.8360026155343
 30
0.0
  0
SPLINE
  5
C0
330
1F
100
AcDbEntity
  8
0
  6
Continuous
 62
     7
370
    25
100
AcDbSpline
210
0.0
220
0.0
230
1.0
 70
     8
 71
     3
 72
    15
 73
    11
 74
     0
 42
0.00000001
 43
0.00000001
 40
0.0
 40
0.0
 40
0.0
 40
0.0
 40
0.1497703860319698
 40
0.2913164099952437
 40
0.4259663731047445
 40
0.5521595739695315
 40
0.6715274135235939
 40
0.7861216286916649
 40
0.8953250730704493
 40
1.0
 40
1.0
 40
1.0
 40
1.0
 10
969.55857285983
 20
855.3744641539959
 30
0.0
 10
969.5772775259792
 20
855.3128664093819
 30
0.0
 10
969.6136597263401
 20
855.1930534456833
 30
0.0
 10
969.6755895504203
 20
855.0206184612836
 30
0.0
 10
969.7461456008672
 20
854.8625429110555
 30
0.0
 10
969.8218360206067
 20
854.7176672036773
 30
0.0
 10
969.9013296115157
 20
854.5845645694734
 30
0.0
 10
969.9902780118276
 20
854.4667545831097
 30
0.0
 10
970.0820932007357
 20
854.3590626923445
 30
0.0
 10
970.151303151253
 20
854.2983892936242
 30
0.0
 10
970.1851754239326
 20
854.2686949232267
 30
0.0
  0
LINE
  5
C1
330
1F
100
AcDbEntity
  8
0
  6
Continuous
 62
     7
370
    25
100
AcDbLine
 10
968.8406241419
 20
855.374464154
 30
0.0
 11
969.5585728598
 21
855.374464154
 31
0.0
  0
SPLINE
  5
C2
330
1F
100
AcDbEntity
  8
0
  6
Continuous
 62
     7
370
    25
100
AcDbSpline
210
0.0
220
0.0
230
1.0
 70
     8
 71
     3
 72
    23
 73
    19
 74
     0
 42
0.00000001
 43
0.00000001
 40
0.0
 40
0.0
 40
0.0
 40
0.0
 40
0.0655411703374041
 40
0.1289631677825927
 40
0.1903771361885619
 40
0.2500923616690521
 40
0.3085484324592021
 40
0.366397963055295
 40
0.4245421892666803
 40
0.4831699964229063
 40
0.5422433998311209
 40
0.6017393520173303
 40
0.6625060022496075
 40
0.7248555134488471
 40
0.7891278292811796
 40
0.8563463998785102
 40
0.9262952349869037
 40
1.0
 40
1.0
 40
1.0
 40
1.0
 10
971.5088933726505
 20
853.0154897950215
 30
0.0
 10
971.4233635434318
 20
853.0174742824694
 30
0.0
 10
971.2550693604145
 20
853.0213790920175
 30
0.0
 10
971.0076556498173
 20
853.0480730376096
 30
0.0
 10
970.7714917655554
 20
853.096827335296
 30
0.0
 10
970.546258399026
 20
853.1624348904186
 30
0.0
 10
970.3317554586979
 20
853.2456160151739
 30
0.0
 10
970.128637504006
 20
853.3492016106512
 30
0.0
 10
969.9356548902457
 20
853.471056472484
 30
0.0
 10
969.754628716201
 20
853.6126189588989
 30
0.0
 10
969.5855805614439
 20
853.7709763069145
 30
0.0
 10
969.4330029060607
 20
853.9489397582691
 30
0.0
 10
969.2943519507645
 20
854.1432195386601
 30
0.0
 10
969.1733402051383
 20
854.3560722385429
 30
0.0
 10
969.0644557420163
 20
854.5847471123207
 30
0.0
 10
968.9748992696796
 20
854.8321722514788
 30
0.0
 10
968.8960751127967
 20
855.0961357303107
 30
0.0
 10
968.8594271945198
 20
855.2800848507126
 30
0.0
 10
968.8406241418812
 20
855.3744641539959
 30
0.0
  0
SPLINE
  5
C3
330
1F
100
AcDbEntity
  8
0
  6
Continuous
 62
     7
370
    25
100
AcDbSpline
210
0.0
220
0.0
230
1.0
 70
     8
 71
     3
 72
    19
 73
    15
 74
     0
 42
0.00000001
 43
0.00000001
 40
0.0
 40
0.0
 40
0.0
 40
0.0
 40
0.079648251180228
 40
0.1589216764181117
 40
0.2396194947370311
 40
0.3226094298185598
 40
0.4060346366179229
 40
0.4876020954923865
 40
0.5696846265959321
 40
0.6530361450088346
 40
0.7374357177222874
 40
0.8224778158555109
 40
0.909747655118407
 40
1.0
 40
1.0
 40
1.0
 40
1.0
 10
974.2765215777787
 20
855.5972205642522
 30
0.0
 10
974.2724198325938
 20
855.4851983443957
 30
0.0
 10
974.264235645102
 20
855.2616810830385
 30
0.0
 10
974.1910834752559
 20
854.9314531478766
 30
0.0
 10
974.077681782241
 20
854.6086519998169
 30
0.0
 10
973.9166373571722
 20
854.2999095101123
 30
0.0
 10
973.7203687655643
 20
854.0110400678259
 30
0.0
 10
973.4868663102998
 20
853.7525799328822
 30
0.0
 10
973.2187830910764
 20
853.5304116943998
 30
0.0
 10
972.9197987508461
 20
853.3447883159887
 30
0.0
 10
972.5958738857393
 20
853.1964044938325
 30
0.0
 10
972.249415389746
 20
853.0934160530403
 30
0.0
 10
971.8854152663973
 20
853.0263394823633
 30
0.0
 10
971.6357985862775
 20
853.0191466391859
 30
0.0
 10
971.5088933726505
 20
853.0154897950215
 30
0.0
  0
SPLINE
  5
C4
330
1F
100
AcDbEntity
  8
0
  6
Continuous
 62
     7
370
    25
100
AcDbSpline
210
0.0
220
0.0
230
1.0
 70
     8
 71
     3
 72
    15
 73
    11
 74
     0
 42
0.00000001
 43
0.00000001
 40
0.0
 40
0.0
 40
0.0
 40
0.0
 40
0.1281355097972525
 40
0.2541727119019764
 40
0.3781116451389986
 40
0.5017122630072798
 40
0.6239863093684819
 40
0.7470956136177395
 40
0.8728746366500597
 40
1.0
 40
1.0
 40
1.0
 40
1.0
 10
973.7989574752146
 20
857.0186949232266
 30
0.0
 10
973.8374519720207
 20
856.9659914909782
 30
0.0
 10
973.9138105915948
 20
856.8614476816759
 30
0.0
 10
974.0080632401704
 20
856.6933644225124
 30
0.0
 10
974.0935697871561
 20
856.5234181612961
 30
0.0
 10
974.1601988599031
 20
856.3470538046653
 30
0.0
 10
974.2117962698157
 20
856.1663154876409
 30
0.0
 10
974.2486786292211
 20
855.980892868079
 30
0.0
 10
974.2715909512344
 20
855.790634531109
 30
0.0
 10
974.2748722129818
 20
855.6619202906052
 30
0.0
 10
974.2765215777787
 20
855.5972205642522
 30
0.0
  0
SPLINE
  5
C5
330
1F
100
AcDbEntity
  8
0
  6
Continuous
 62
     7
370
    25
100
AcDbSpline
210
0.0
220
0.0
230
1.0
 70
     8
 71
     3
 72
    11
 73
     7
 74
     0
 42
0.00000001
 43
0.00000001
 40
0.0
 40
0.0
 40
0.0
 40
0.0
 40
0.2538796003266515
 40
0.5030089172783565
 40
0.750291080689966
 40
1.0
 40
1.0
 40
1.0
 40
1.0
 10
972.9319702957274
 20
857.701387230919
 30
0.0
 10
973.017071449038
 20
857.6602942673956
 30
0.0
 10
973.185681447363
 20
857.5788772214294
 30
0.0
 10
973.4155112291523
 20
857.4192069185328
 30
0.0
 10
973.6241463728254
 20
857.2348495531526
 30
0.0
 10
973.7404977305484
 20
857.0909806322072
 30
0.0
 10
973.7989574752146
 20
857.0186949232266
 30
0.0
  0
SPLINE
  5
C6
330
1F
100
AcDbEntity
  8
0
  6
Continuous
 62
     7
370
    25
100
AcDbSpline
210
0.0
220
0.0
230
1.0
 70
     8
 71
     3
 72
    15
 73
    11
 74
     0
 42
0.00000001
 43
0.00000001
 40
0.0
 40
0.0
 40
0.0
 40
0.0
 40
0.1280675485958932
 40
0.2506083188676667
 40
0.3706301659145063
 40
0.4900722467299482
 40
0.6103747641546218
 40
0.7343130699115265
 40
0.8632165042449875
 40
1.0
 40
1.0
 40
1.0
 40
1.0
 10
973.8662651675223
 20
859.3472205642523
 30
0.0
 10
973.8636055308433
 20
859.2626336049252
 30
0.0
 10
973.8584010345893
 20
859.0971100518667
 30
0.0
 10
973.8142097075897
 20
858.8554609155509
 30
0.0
 10
973.7398411067297
 20
858.6277086863344
 30
0.0
 10
973.6368245065518
 20
858.4128946014807
 30
0.0
 10
973.5034723917169
 20
858.2123806818851
 30
0.0
 10
973.3419347988246
 20
858.0257157884896
 30
0.0
 10
973.1510715719093
 20
857.8520719984821
 30
0.0
 10
973.0064339992846
 20
857.7525989173954
 30
0.0
 10
972.9319702957274
 20
857.701387230919
 30
0.0
  0
SPLINE
  5
C7
330
1F
100
AcDbEntity
  8
0
  6
Continuous
 62
     7
370
    25
100
AcDbSpline
210
0.0
220
0.0
230
1.0
 70
     8
 71
     3
 72
    19
 73
    15
 74
     0
 42
0.00000001
 43
0.00000001
 40
0.0
 40
0.0
 40
0.0
 40
0.0
 40
0.0902542493426765
 40
0.1785397915286857
 40
0.2660930338538211
 40
0.3546309779571744
 40
0.4418861533505621
 40
0.5257469151636475
 40
0.608113633603635
 40
0.6901972728278841
 40
0.770821484330335
 40
0.8483261812554099
 40
0.9240117400247415
 40
0.9999999999999999
 40
0.9999999999999999
 40
0.9999999999999999
 40
0.9999999999999999
 10
971.5297267059838
 20
861.4257462052778
 30
0.0
 10
971.6341444021555
 20
861.4225936790037
 30
0.0
 10
971.8407021414548
 20
861.4163573922041
 30
0.0
 10
972.1441605344845
 20
861.3594101088233
 30
0.0
 10
972.4367932638606
 20
861.2692955205852
 30
0.0
 10
972.7153972588694
 20
861.1447841442721
 30
0.0
 10
972.974182247661
 20
860.9912131427587
 30
0.0
 10
973.2044363887971
 20
860.8084366012849
 30
0.0
 10
973.4030386992063
 20
860.5999810550283
 30
0.0
 10
973.5696544195722
 20
860.3697351937286
 30
0.0
 10
973.7001115602664
 20
860.123665457987
 30
0.0
 10
973.7963089853629
 20
859.870407955936
 30
0.0
 10
973.8548728276455
 20
859.6105634499042
 30
0.0
 10
973.8624626717832
 20
859.435118240361
 30
0.0
 10
973.8662651675223
 20
859.3472205642523
 30
0.0
  0
SPLINE
  5
C8
330
1F
100
AcDbEntity
  8
0
  6
Continuous
 62
     7
370
    25
100
AcDbSpline
210
0.0
220
0.0
230
1.0
 70
     8
 71
     3
 72
    23
 73
    19
 74
     0
 42
0.00000001
 43
0.00000001
 40
0.0
 40
0.0
 40
0.0
 40
0.0
 40
0.0726253460834354
 40
0.1419766113262348
 40
0.2089849284189414
 40
0.2739568703644459
 40
0.3368893473968428
 40
0.3987449534945912
 40
0.4601158852788616
 40
0.5208249225900288
 40
0.580994458632486
 40
0.6401519276014654
 40
0.6986224507562562
 40
0.7572710809271651
 40
0.8164266940046603
 40
0.876254048203472
 40
0.9371652930625374
 40
1.0
 40
1.0
 40
1.0
 40
1.0
 10
969.1483164495736
 20
859.3744641539959
 30
0.0
 10
969.1677668511302
 20
859.4549955459395
 30
0.0
 10
969.2057907952606
 20
859.612427830261
 30
0.0
 10
969.2850995346182
 20
859.8373587121978
 30
0.0
 10
969.3714978322058
 20
860.0502124753766
 30
0.0
 10
969.4752443569253
 20
860.247003500966
 30
0.0
 10
969.5884072237277
 20
860.4316867072123
 30
0.0
 10
969.718059158667
 20
860.600073277425
 30
0.0
 10
969.8582185245319
 20
860.7564457699214
 30
0.0
 10
970.0132469800789
 20
860.8952188843379
 30
0.0
 10
970.1758267781149
 20
861.0208822653817
 30
0.0
 10
970.3482487661166
 20
861.1280252535929
 30
0.0
 10
970.5270439516495
 20
861.2201947458545
 30
0.0
 10
970.7134511126749
 20
861.2961267044268
 30
0.0
 10
970.9080252193993
 20
861.353327901378
 30
0.0
 10
971.1090072155612
 20
861.3948291712998
 30
0.0
 10
971.3169237872519
 20
861.4217802895041
 30
0.0
 10
971.4580611371907
 20
861.4244106051301
 30
0.0
 10
971.5297267059838
 20
861.4257462052778
 30
0.0
  0
LINE
  5
C9
330
1F
100
AcDbEntity
  8
0
  6
Continuous
 62
     7
370
    25
100
AcDbLine
 10
969.8662651675
 20
859.374464154
 30
0.0
 11
969.1483164496
 21
859.374464154
 31
0.0
  0
SPLINE
  5
CA
330
1F
100
AcDbEntity
  8
0
  6
Continuous
 62
     7
370
    25
100
AcDbSpline
210
0.0
220
0.0
230
1.0
 70
     8
 71
     3
 72
    19
 73
    15
 74
     0
 42
0.00000001
 43
0.00000001
 40
0.0
 40
0.0
 40
0.0
 40
0.0
 40
0.1227119423657786
 40
0.2396849640167739
 40
0.3518158552560928
 40
0.4637661328620822
 40
0.5208177931608283
 40
0.5794482914480045
 40
0.6406041451203153
 40
0.70529751180598
 40
0.7736338807131325
 40
0.8446693818863743
 40
0.9200565080211427
 40
1.0
 40
1.0
 40
1.0
 40
1.0
 10
971.5393420905992
 20
860.6052333847651
 30
0.0
 10
971.4482525637352
 20
860.6020531287579
 30
0.0
 10
971.2703335319949
 20
860.5958413491062
 30
0.0
 10
971.0138422933541
 20
860.5414344612202
 30
0.0
 10
970.775398101353
 20
860.4546274132355
 30
0.0
 10
970.5931382920058
 20
860.3510090831054
 30
0.0
 10
970.4585495510721
 20
860.2487223771603
 30
0.0
 10
970.3623736923219
 20
860.1593912083118
 30
0.0
 10
970.2679268113964
 20
860.0601161827999
 30
0.0
 10
970.1814224071697
 20
859.944782753594
 30
0.0
 10
970.0939390319134
 20
859.8212015188723
 30
0.0
 10
970.014294319848
 20
859.6830902467772
 30
0.0
 10
969.9369007375591
 20
859.53405163123
 30
0.0
 10
969.8902663384307
 20
859.4286901808255
 30
0.0
 10
969.8662651675223
 20
859.3744641539959
 30
0.0
  0
SPLINE
  5
CB
330
1F
100
AcDbEntity
  8
0
  6
Continuous
 62
     7
370
    25
100
AcDbSpline
210
0.0
220
0.0
230
1.0
 70
     8
 71
     3
 72
    23
 73
    19
 74
     0
 42
0.00000001
 43
0.00000001
 40
0.0
 40
0.0
 40
0.0
 40
0.0
 40
0.0552745490875266
 40
0.1099660938819816
 40
0.1632474428518045
 40
0.2180761854823601
 40
0.2733008743735911
 40
0.330909300011433
 40
0.3909945233652092
 40
0.454175953430824
 40
0.5188615408488237
 40
0.5833105320111656
 40
0.6485166818638237
 40
0.7150308870971841
 40
0.7825020728543338
 40
0.8523226850768567
 40
0.9249284897844289
 40
1.0
 40
1.0
 40
1.0
 40
1.0
 10
973.1483164495736
 20
859.3504256924573
 30
0.0
 10
973.1473692245181
 20
859.3922033956404
 30
0.0
 10
973.1454847651951
 20
859.4753181547154
 30
0.0
 10
973.1217195588328
 20
859.596746883146
 30
0.0
 10
973.086007465158
 20
859.7144633309772
 30
0.0
 10
973.0369109410278
 20
859.8279668972724
 30
0.0
 10
972.9711962011269
 20
859.936470380468
 30
0.0
 10
972.8925539462141
 20
860.0408988351884
 30
0.0
 10
972.7989125741466
 20
860.1406560443453
 30
0.0
 10
972.6916086952699
 20
860.2336396318989
 30
0.0
 10
972.5763817124836
 20
860.3222550311343
 30
0.0
 10
972.450096512374
 20
860.3974862013729
 30
0.0
 10
972.3165607987468
 20
860.4618177718332
 30
0.0
 10
972.1756267305183
 20
860.5148680623565
 30
0.0
 10
972.0268369469334
 20
860.5547750068519
 30
0.0
 10
971.8708905294278
 20
860.5834283586274
 30
0.0
 10
971.7074901099708
 20
860.601342998014
 30
0.0
 10
971.596011865383
 20
860.6039222343761
 30
0.0
 10
971.5393420905992
 20
860.6052333847651
 30
0.0
  0
SPLINE
  5
CC
330
1F
100
AcDbEntity
  8
0
  6
Continuous
 62
     7
370
    25
100
AcDbSpline
210
0.0
220
0.0
230
1.0
 70
     8
 71
     3
 72
    19
 73
    15
 74
     0
 42
0.00000001
 43
0.00000001
 40
0.0
 40
0.0
 40
0.0
 40
0.0
 40
0.0969723103815161
 40
0.1877734389628681
 40
0.2723961390136943
 40
0.35132099737529
 40
0.4243347744514666
 40
0.4919087840005267
 40
0.5542332197968021
 40
0.6112676582441573
 40
0.7163478449915549
 40
0.8145400858216161
 40
0.9084954561491877
 40
1.0
 40
1.0
 40
1.0
 40
1.0
 10
966.032931834189
 20
857.7622846668164
 30
0.0
 10
966.1197567788917
 20
857.6991044164171
 30
0.0
 10
966.2878812506139
 20
857.5767646181246
 30
0.0
 10
966.5270985761258
 20
857.3929573494905
 30
0.0
 10
966.7439987089141
 20
857.2131910213207
 30
0.0
 10
966.9393431742174
 20
857.0386136336725
 30
0.0
 10
967.1150618220797
 20
856.8705494210927
 30
0.0
 10
967.269205183622
 20
856.7069764374809
 30
0.0
 10
967.4033438815585
 20
856.5490665570643
 30
0.0
 10
967.5477535237532
 20
856.3466149554845
 30
0.0
 10
967.6953142540856
 20
856.0979724771431
 30
0.0
 10
967.8220376996312
 20
855.7933365033253
 30
0.0
 10
967.9019424938128
 20
855.4875163421895
 30
0.0
 10
967.912391671943
 20
855.2819692873893
 30
0.0
 10
967.9175472188043
 20
855.1805538975856
 30
0.0
  0
SPLINE
  5
CD
330
1F
100
AcDbEntity
  8
0
  6
Continuous
 62
     7
370
    25
100
AcDbSpline
210
0.0
220
0.0
230
1.0
 70
     8
 71
     3
 72
    15
 73
    11
 74
     0
 42
0.00000001
 43
0.00000001
 40
0.0
 40
0.0
 40
0.0
 40
0.0
 40
0.0525942815291342
 40
0.1249519739750351
 40
0.2180938989285908
 40
0.3335024107325172
 40
0.4687891785044455
 40
0.6249375859646001
 40
0.8016830479282234
 40
0.9999999999999999
 40
0.9999999999999999
 40
0.9999999999999999
 40
0.9999999999999999
 10
964.9576113213685
 20
858.5587590257907
 30
0.0
 10
964.9751230297288
 20
858.5431315382117
 30
0.0
 10
965.0167268403276
 20
858.5060042048877
 30
0.0
 10
965.092786099161
 20
858.4452218491306
 30
0.0
 10
965.1932267808295
 20
858.3702440838841
 30
0.0
 10
965.3154260978051
 20
858.277473074799
 30
0.0
 10
965.461637210324
 20
858.1698583042452
 30
0.0
 10
965.6318761957975
 20
858.0487757621565
 30
0.0
 10
965.824245413706
 20
857.9102947129979
 30
0.0
 10
965.9607526500479
 20
857.8134774773182
 30
0.0
 10
966.032931834189
 20
857.7622846668164
 30
0.0
  0
SPLINE
  5
CE
330
1F
100
AcDbEntity
  8
0
  6
Continuous
 62
     7
370
    25
100
AcDbSpline
210
0.0
220
0.0
230
1.0
 70
     8
 71
     3
 72
    15
 73
    11
 74
     0
 42
0.00000001
 43
0.00000001
 40
0.0
 40
0.0
 40
0.0
 40
0.0
 40
0.10728521426896
 40
0.2147458609696401
 40
0.3229385595552856
 40
0.4341161625174689
 40
0.5534123109627982
 40
0.6860729848107322
 40
0.834255992059577
 40
1.0
 40
1.0
 40
1.0
 40
1.0
 10
964.4303677316249
 20
859.5924128719446
 30
0.0
 10
964.4312663067903
 20
859.5495523495664
 30
0.0
 10
964.4330649264685
 20
859.4637612194238
 30
0.0
 10
964.4581501783232
 20
859.3370151121006
 30
0.0
 10
964.490377215941
 20
859.2105891934294
 30
0.0
 10
964.5414460885203
 20
859.0850518612369
 30
0.0
 10
964.611949639642
 20
858.9582076119747
 30
0.0
 10
964.7045328988567
 20
858.8278722118408
 30
0.0
 10
964.8211347549709
 20
858.6928968777332
 30
0.0
 10
964.9104536403455
 20
858.6051085948191
 30
0.0
 10
964.9576113213685
 20
858.5587590257907
 30
0.0
  0
SPLINE
  5
CF
330
1F
100
AcDbEntity
  8
0
  6
Continuous
 62
     7
370
    25
100
AcDbSpline
210
0.0
220
0.0
230
1.0
 70
     8
 71
     3
 72
    15
 73
    11
 74
     0
 42
0.00000001
 43
0.00000001
 40
0.0
 40
0.0
 40
0.0
 40
0.0
 40
0.1430730837303603
 40
0.2759029640930098
 40
0.4023708562739944
 40
0.528413645093593
 40
0.6503563791869511
 40
0.7658950861246918
 40
0.8807741308440217
 40
1.0
 40
1.0
 40
1.0
 40
1.0
 10
965.6034446547017
 20
860.6052333847651
 30
0.0
 10
965.5208011749178
 20
860.602463784875
 30
0.0
 10
965.3614310093993
 20
860.5971228723911
 30
0.0
 10
965.135167612582
 20
860.5387914774387
 30
0.0
 10
964.9315243552946
 20
860.4469472253111
 30
0.0
 10
964.7565470637376
 20
860.3182272753783
 30
0.0
 10
964.610862544782
 20
860.1657221492407
 30
0.0
 10
964.5054786390336
 20
859.9902276233553
 30
0.0
 10
964.4420496914862
 20
859.7964392745448
 30
0.0
 10
964.4343096237124
 20
859.6612583457867
 30
0.0
 10
964.4303677316249
 20
859.5924128719446
 30
0.0
  0
SPLINE
  5
D0
330
1F
100
AcDbEntity
  8
0
  6
Continuous
 62
     7
370
    25
100
AcDbSpline
210
0.0
220
0.0
230
1.0
 70
     8
 71
     3
 72
    19
 73
    15
 74
     0
 42
0.00000001
 43
0.00000001
 40
0.0
 40
0.0
 40
0.0
 40
0.0
 40
0.0984694310255615
 40
0.1896291011376355
 40
0.2741840894379687
 40
0.3521831609671552
 40
0.4231988731834677
 40
0.4885509460005335
 40
0.5484733460279374
 40
0.6014401636178721
 40
0.7011980824257661
 40
0.799591802138184
 40
0.8985450984822277
 40
1.0
 40
1.0
 40
1.0
 40
1.0
 10
967.1659446547018
 20
859.579592359124
 30
0.0
 10
967.126753951908
 20
859.6300807943758
 30
0.0
 10
967.0512818214573
 20
859.7273097160311
 30
0.0
 10
966.9367001372046
 20
859.8634727231312
 30
0.0
 10
966.8287032276727
 20
859.9878532477755
 30
0.0
 10
966.7223023138802
 20
860.0958878261299
 30
0.0
 10
966.6231168705294
 20
860.1934927023308
 30
0.0
 10
966.5268493453935
 20
860.2770578607867
 30
0.0
 10
966.4348851139938
 20
860.3474020789126
 30
0.0
 10
966.3189607468029
 20
860.4224730731049
 30
0.0
 10
966.1733202477785
 20
860.496887938373
 30
0.0
 10
965.99049845066
 20
860.5598572596936
 30
0.0
 10
965.7994441077229
 20
860.5976974012221
 30
0.0
 10
965.6693192357442
 20
860.6027005728057
 30
0.0
 10
965.6034446547017
 20
860.6052333847651
 30
0.0
  0
LINE
  5
D1
330
1F
100
AcDbEntity
  8
0
  6
Continuous
 62
     7
370
    25
100
AcDbLine
 10
967.8149831162
 20
860.0715795386
 30
0.0
 11
967.1659446547
 21
859.5795923591
 31
0.0
  0
SPLINE
  5
D2
330
1F
100
AcDbEntity
  8
0
  6
Continuous
 62
     7
370
    25
100
AcDbSpline
210
0.0
220
0.0
230
1.0
 70
     8
 71
     3
 72
    19
 73
    15
 74
     0
 42
0.00000001
 43
0.00000001
 40
0.0
 40
0.0
 40
0.0
 40
0.0
 40
0.1072327993600892
 40
0.2132518127818507
 40
0.3188304473075882
 40
0.4267935306342781
 40
0.4836459507827199
 40
0.5436038220211417
 40
0.6083076495640826
 40
0.6771267602600425
 40
0.7506856360204984
 40
0.8287134184432883
 40
0.9121903482234537
 40
1.0
 40
1.0
 40
1.0
 40
1.0
 10
965.68357285983
 20
861.4257462052778
 30
0.0
 10
965.7778450890826
 20
861.4224946587656
 30
0.0
 10
965.9653224645039
 20
861.4160283705379
 30
0.0
 10
966.2410921000914
 20
861.3598054418071
 30
0.0
 10
966.506602309007
 20
861.266775334863
 30
0.0
 10
966.7201869143087
 20
861.1612012594858
 30
0.0
 10
966.8873475119357
 20
861.0557580235698
 30
0.0
 10
967.0148280437961
 20
860.9597127109324
 30
0.0
 10
967.1440107884512
 20
860.8491410341228
 30
0.0
 10
967.2759377709169
 20
860.7237484716524
 30
0.0
 10
967.4083735639207
 20
860.5823844691618
 30
0.0
 10
967.5432843119073
 20
860.4260171802265
 30
0.0
 10
967.6809854977604
 20
860.2556021953935
 30
0.0
 10
967.7695703209007
 20
860.133946193669
 30
0.0
 10
967.8149831162402
 20
860.0715795386112
 30
0.0
  0
SPLINE
  5
D3
330
1F
100
AcDbEntity
  8
0
  6
Continuous
 62
     7
370
    25
100
AcDbSpline
210
0.0
220
0.0
230
1.0
 70
     8
 71
     3
 72
    19
 73
    15
 74
     0
 42
0.00000001
 43
0.00000001
 40
0.0
 40
0.0
 40
0.0
 40
0.0
 40
0.0837853706537117
 40
0.1657798879221451
 40
0.246280007893265
 40
0.3274609277363925
 40
0.4087969540320699
 40
0.4897152412309895
 40
0.5713760321300537
 40
0.6555233211112772
 40
0.741019482799974
 40
0.8265467605037614
 40
0.9119888516548341
 40
1.0
 40
1.0
 40
1.0
 40
1.0
 10
963.7124190136761
 20
859.5587590257907
 30
0.0
 10
963.7154023485181
 20
859.6433985105101
 30
0.0
 10
963.7213052515176
 20
859.8108683704759
 30
0.0
 10
963.77122643385
 20
860.0555102686292
 30
0.0
 10
963.8500216193459
 20
860.2890792222694
 30
0.0
 10
963.9604099344581
 20
860.5092628422116
 30
0.0
 10
964.102712455414
 20
860.7103279413845
 30
0.0
 10
964.2673889682488
 20
860.8945873402006
 30
0.0
 10
964.4635295082201
 20
861.0494869567056
 30
0.0
 10
964.6787355042508
 20
861.1848288044523
 30
0.0
 10
964.9142929261541
 20
861.2907623477828
 30
0.0
 10
965.1611292767773
 20
861.3706731595781
 30
0.0
 10
965.4196368699777
 20
861.4159514628718
 30
0.0
 10
965.5947297491168
 20
861.4224492112436
 30
0.0
 10
965.68357285983
 20
861.4257462052778
 30
0.0
  0
SPLINE
  5
D4
330
1F
100
AcDbEntity
  8
0
  6
Continuous
 62
     7
370
    25
100
AcDbSpline
210
0.0
220
0.0
230
1.0
 70
     8
 71
     3
 72
    15
 73
    11
 74
     0
 42
0.00000001
 43
0.00000001
 40
0.0
 40
0.0
 40
0.0
 40
0.0
 40
0.1335067689985155
 40
0.2625589787303678
 40
0.3882644471488824
 40
0.5126673546814278
 40
0.6337222699657565
 40
0.7553938601370976
 40
0.8775529450912811
 40
1.0
 40
1.0
 40
1.0
 40
1.0
 10
964.1595343982915
 20
858.340810307842
 30
0.0
 10
964.1241685806203
 20
858.3878983920802
 30
0.0
 10
964.0546169538424
 20
858.4805034292681
 30
0.0
 10
963.9628089413508
 20
858.6252459613087
 30
0.0
 10
963.8847765692401
 20
858.773413425101
 30
0.0
 10
963.8236055243573
 20
858.9254039726773
 30
0.0
 10
963.7720941670098
 20
859.0790838101185
 30
0.0
 10
963.7374474682262
 20
859.2364580860035
 30
0.0
 10
963.7157528467044
 20
859.3968206424937
 30
0.0
 10
963.7135311632003
 20
859.5047372153451
 30
0.0
 10
963.7124190136761
 20
859.5587590257907
 30
0.0
  0
SPLINE
  5
D5
330
1F
100
AcDbEntity
  8
0
  6
Continuous
 62
     7
370
    25
100
AcDbSpline
210
0.0
220
0.0
230
1.0
 70
     8
 71
     3
 72
    15
 73
    11
 74
     0
 42
0.00000001
 43
0.00000001
 40
0.0
 40
0.0
 40
0.0
 40
0.0
 40
0.181535301376285
 40
0.3470816724816275
 40
0.4955678164315517
 40
0.6283573018772124
 40
0.7455196699921548
 40
0.845830750757651
 40
0.9307818073847572
 40
1.0
 40
1.0
 40
1.0
 40
1.0
 10
965.470431834189
 20
857.252669282201
 30
0.0
 10
965.3862627000653
 20
857.3126203396166
 30
0.0
 10
965.2253377250249
 20
857.4272421961762
 30
0.0
 10
965.0002895368048
 20
857.5973548453502
 30
0.0
 10
964.7990450499249
 20
857.7528836900174
 30
0.0
 10
964.622498726443
 20
857.8952928605374
 30
0.0
 10
964.4707282193663
 20
858.0246016713485
 30
0.0
 10
964.3425375656198
 20
858.1395683893878
 30
0.0
 10
964.2411922922585
 20
858.2433022428012
 30
0.0
 10
964.1848366793247
 20
858.3105967382187
 30
0.0
 10
964.1595343982915
 20
858.340810307842
 30
0.0
  0
SPLINE
  5
D6
330
1F
100
AcDbEntity
  8
0
  6
Continuous
 62
     7
370
    25
100
AcDbSpline
210
0.0
220
0.0
230
1.0
 70
     8
 71
     3
 72
    15
 73
    11
 74
     0
 42
0.00000001
 43
0.00000001
 40
0.0
 40
0.0
 40
0.0
 40
0.0
 40
0.0902792146500148
 40
0.1895299184469602
 40
0.2991978724002899
 40
0.4189258867738195
 40
0.5483762854012455
 40
0.6881363695386787
 40
0.8390835016589211
 40
1.0
 40
1.0
 40
1.0
 40
1.0
 10
966.9127395264966
 20
855.97702825656
 30
0.0
 10
966.8769209797981
 20
856.0228495676533
 30
0.0
 10
966.8017244214212
 20
856.1190456786665
 30
0.0
 10
966.6724501069228
 20
856.2622347883247
 30
0.0
 10
966.5207561313676
 20
856.4099340316436
 30
0.0
 10
966.351833720141
 20
856.5677833046707
 30
0.0
 10
966.1595295170767
 20
856.7284411256719
 30
0.0
 10
965.9498666270124
 20
856.8995686181038
 30
0.0
 10
965.7174920922326
 20
857.0746579370676
 30
0.0
 10
965.5545218142487
 20
857.1920809440312
 30
0.0
 10
965.470431834189
 20
857.252669282201
 30
0.0
  0
SPLINE
  5
D7
330
1F
100
AcDbEntity
  8
0
  6
Continuous
 62
     7
370
    25
100
AcDbSpline
210
0.0
220
0.0
230
1.0
 70
     8
 71
     3
 72
    11
 73
     7
 74
     0
 42
0.00000001
 43
0.00000001
 40
0.0
 40
0.0
 40
0.0
 40
0.0
 40
0.2347233736739069
 40
0.4771583189289953
 40
0.728556284203051
 40
0.9999999999999999
 40
0.9999999999999999
 40
0.9999999999999999
 40
0.9999999999999999
 10
967.1995985008556
 20
855.1917718463036
 30
0.0
 10
967.1962286478287
 20
855.2583795027778
 30
0.0
 10
967.189378229056
 20
855.3937831351199
 30
0.0
 10
967.1314777031761
 20
855.5935537704432
 30
0.0
 10
967.0403937103911
 20
855.7912510733557
 30
0.0
 10
966.9563648104939
 20
855.9135396803906
 30
0.0
 10
966.9127395264966
 20
855.97702825656
 30
0.0
  0
SPLINE
  5
D8
330
1F
100
AcDbEntity
  8
0
  6
Continuous
 62
     7
370
    25
100
AcDbSpline
210
0.0
220
0.0
230
1.0
 70
     8
 71
     3
 72
    19
 73
    15
 74
     0
 42
0.00000001
 43
0.00000001
 40
0.0
 40
0.0
 40
0.0
 40
0.0
 40
0.0912636048966265
 40
0.180930311085081
 40
0.2700882198317233
 40
0.3601561333877259
 40
0.4483425324981535
 40
0.5326658421383302
 40
0.6138337041070506
 40
0.6939815272835562
 40
0.7727159770890071
 40
0.8493351720622497
 40
0.9239673265752315
 40
1.0
 40
1.0
 40
1.0
 40
1.0
 10
965.632290808548
 20
853.8360026155343
 30
0.0
 10
965.7024322040028
 20
853.837956152705
 30
0.0
 10
965.8414876852536
 20
853.841829044735
 30
0.0
 10
966.0462013834505
 20
853.8790423065622
 30
0.0
 10
966.2450169314872
 20
853.9362128869359
 30
0.0
 10
966.4338366748711
 20
854.0180893018123
 30
0.0
 10
966.6100552223719
 20
854.1171486977553
 30
0.0
 10
966.7645848117127
 20
854.2367971034862
 30
0.0
 10
966.8981759275515
 20
854.3707541451174
 30
0.0
 10
967.007453903705
 20
854.5202002128705
 30
0.0
 10
967.0912939843641
 20
854.6809251239729
 30
0.0
 10
967.15573299788
 20
854.8458987270318
 30
0.0
 10
967.1914931662375
 20
855.0177125973838
 30
0.0
 10
967.1968800312814
 20
855.1333936553216
 30
0.0
 10
967.1995985008556
 20
855.1917718463036
 30
0.0
  0
SPLINE
  5
D9
330
1F
100
AcDbEntity
  8
0
  6
Continuous
 62
     7
370
    25
100
AcDbSpline
210
0.0
220
0.0
230
1.0
 70
     8
 71
     3
 72
    15
 73
    11
 74
     0
 42
0.00000001
 43
0.00000001
 40
0.0
 40
0.0
 40
0.0
 40
0.0
 40
0.1590042985173804
 40
0.304646099896816
 40
0.4385469045795933
 40
0.5623222987759279
 40
0.6774325425257303
 40
0.7868973929387529
 40
0.8936108891042674
 40
1.0
 40
1.0
 40
1.0
 40
1.0
 10
963.8758805521377
 20
855.1693359488677
 30
0.0
 10
963.9387793801388
 20
855.0640459261314
 30
0.0
 10
964.0592911072891
 20
854.8623143057681
 30
0.0
 10
964.2603227853521
 20
854.5897244990738
 30
0.0
 10
964.4686265823027
 20
854.3580395693389
 30
0.0
 10
964.6857450589871
 20
854.1686073235335
 30
0.0
 10
964.9103529404097
 20
854.0194670109676
 30
0.0
 10
965.1439164918079
 20
853.9138619098966
 30
0.0
 10
965.3856486305768
 20
853.8479968233335
 30
0.0
 10
965.5501602225298
 20
853.8399966254943
 30
0.0
 10
965.632290808548
 20
853.8360026155343
 30
0.0
  0
LINE
  5
DA
330
1F
100
AcDbEntity
  8
0
  6
Continuous
 62
     7
370
    25
100
AcDbLine
 10
963.1995985009
 20
854.7638872309
 30
0.0
 11
963.8758805521
 21
855.1693359489
 31
0.0
  0
SPLINE
  5
DB
330
1F
100
AcDbEntity
  8
0
  6
Continuous
 62
     7
370
    25
100
AcDbSpline
210
0.0
220
0.0
230
1.0
 70
     8
 71
     3
 72
    23
 73
    19
 74
     0
 42
0.00000001
 43
0.00000001
 40
0.0
 40
0.0
 40
0.0
 40
0.0
 40
0.0572082694335104
 40
0.1136960596574913
 40
0.1691779164171951
 40
0.2241592165805421
 40
0.2787198783810438
 40
0.3337942174469891
 40
0.389241459340004
 40
0.4458220733936206
 40
0.5037042811090199
 40
0.5642938918193638
 40
0.6279754158952224
 40
0.6950382596840499
 40
0.7653727258510108
 40
0.8396114430907339
 40
0.9175377500777876
 40
0.9999999999999999
 40
0.9999999999999999
 40
0.9999999999999999
 40
0.9999999999999999
 10
965.632290808548
 20
853.0154897950215
 30
0.0
 10
965.5718671674485
 20
853.0166582101014
 30
0.0
 10
965.4517808587525
 20
853.0189803252767
 30
0.0
 10
965.2741591858995
 20
853.0395089662418
 30
0.0
 10
965.1001258391611
 20
853.0685537744503
 30
0.0
 10
964.9318646230831
 20
853.1146659343975
 30
0.0
 10
964.7672076821877
 20
853.1706133104938
 30
0.0
 10
964.6068711461284
 20
853.2395009278611
 30
0.0
 10
964.4507773087436
 20
853.3220545311692
 30
0.0
 10
964.2980514050445
 20
853.4164431588919
 30
0.0
 10
964.1490818631333
 20
853.5262894321801
 30
0.0
 10
964.0052659364387
 20
853.6542288526103
 30
0.0
 10
963.8618849409798
 20
853.7967328640191
 30
0.0
 10
963.7231708922446
 20
853.95767129456
 30
0.0
 10
963.5863179909744
 20
854.1344440553778
 30
0.0
 10
963.4540244834623
 20
854.3287050460004
 30
0.0
 10
963.3235519859103
 20
854.5393961403067
 30
0.0
 10
963.2416880594478
 20
854.6876591933806
 30
0.0
 10
963.1995985008556
 20
854.7638872309188
 30
0.0
  0
SPLINE
  5
DC
330
1F
100
AcDbEntity
  8
0
  6
Continuous
 62
     7
370
    25
100
AcDbSpline
210
0.0
220
0.0
230
1.0
 70
     8
 71
     3
 72
    23
 73
    19
 74
     0
 42
0.00000001
 43
0.00000001
 40
0.0
 40
0.0
 40
0.0
 40
0.0
 40
0.0614842551968907
 40
0.121774527702212
 40
0.1809195598139335
 40
0.2402561150782733
 40
0.3001144444023517
 40
0.361145947612612
 40
0.4235005824125854
 40
0.4886693612807191
 40
0.5539541046535623
 40
0.6175812610152625
 40
0.6802384268167404
 40
0.7421873887724549
 40
0.804663211769293
 40
0.8682589893126633
 40
0.9330202571803768
 40
1.0
 40
1.0
 40
1.0
 40
1.0
 10
967.9175472188043
 20
855.1805538975856
 30
0.0
 10
967.9160451888067
 20
855.1088319202242
 30
0.0
 10
967.9130702972191
 20
854.9667807578401
 30
0.0
 10
967.878873922868
 20
854.7581977249666
 30
0.0
 10
967.8287718310679
 20
854.5556128799748
 30
0.0
 10
967.7532581534666
 20
854.3615303372433
 30
0.0
 10
967.6610909345868
 20
854.1723994511096
 30
0.0
 10
967.544139510893
 20
853.9931813930276
 30
0.0
 10
967.4085790886354
 20
853.8199096248288
 30
0.0
 10
967.2530733402825
 20
853.6572045017314
 30
0.0
 10
967.0829112778448
 20
853.5078417680504
 30
0.0
 10
966.9030628329014
 20
853.3749753418276
 30
0.0
 10
966.7132336376233
 20
853.2641906026383
 30
0.0
 10
966.5144534852045
 20
853.1737886779528
 30
0.0
 10
966.3066767155883
 20
853.1030834950357
 30
0.0
 10
966.0899732096809
 20
853.0518540798793
 30
0.0
 10
965.8639857554647
 20
853.0204124549342
 30
0.0
 10
965.7103846547277
 20
853.0171490001579
 30
0.0
 10
965.632290808548
 20
853.0154897950215
 30
0.0
  0
LINE
  5
DD
330
1F
100
AcDbEntity
  8
0
  6
Continuous
 62
     7
370
    25
100
AcDbLine
 10
961.9688292701
 20
861.2206180001
 30
0.0
 11
961.9688292701
 21
853.2206180001
 31
0.0
  0
LINE
  5
DE
330
1F
100
AcDbEntity
  8
0
  6
Continuous
 62
     7
370
    25
100
AcDbLine
 10
961.2508805521
 20
861.2206180001
 30
0.0
 11
961.9688292701
 21
861.2206180001
 31
0.0
  0
LINE
  5
DF
330
1F
100
AcDbEntity
  8
0
  6
Continuous
 62
     7
370
    25
100
AcDbLine
 10
961.2508805521
 20
853.2206180001
 30
0.0
 11
961.2508805521
 21
861.2206180001
 31
0.0
  0
LINE
  5
E0
330
1F
100
AcDbEntity
  8
0
  6
Continuous
 62
     7
370
    25
100
AcDbLine
 10
961.9688292701
 20
853.2206180001
 30
0.0
 11
961.2508805521
 21
853.2206180001
 31
0.0
  0
SPLINE
  5
E1
330
1F
100
AcDbEntity
  8
0
  6
Continuous
 62
     7
370
    25
100
AcDbSpline
210
0.0
220
0.0
230
1.0
 70
     8
 71
     3
 72
    11
 73
     7
 74
     0
 42
0.00000001
 43
0.00000001
 40
0.0
 40
0.0
 40
0.0
 40
0.0
 40
0.2629516255674855
 40
0.5157066923583614
 40
0.7621092269530989
 40
1.0
 40
1.0
 40
1.0
 40
1.0
 10
956.8502395264966
 20
853.951387230919
 30
0.0
 10
956.8943179529175
 20
853.9341084712852
 30
0.0
 10
956.9807655626054
 20
853.9002209759728
 30
0.0
 10
957.1129371732741
 20
853.8624017798332
 30
0.0
 10
957.244354400614
 20
853.8417334143015
 30
0.0
 10
957.3314805580236
 20
853.8378903671276
 30
0.0
 10
957.3742779880351
 20
853.8360026155343
 30
0.0
  0
SPLINE
  5
E2
330
1F
100
AcDbEntity
  8
0
  6
Continuous
 62
     7
370
    25
100
AcDbSpline
210
0.0
220
0.0
230
1.0
 70
     8
 71
     3
 72
    11
 73
     7
 74
     0
 42
0.00000001
 43
0.00000001
 40
0.0
 40
0.0
 40
0.0
 40
0.0
 40
0.2991842876765383
 40
0.5648989463568108
 40
0.7985478688426153
 40
1.0
 40
1.0
 40
1.0
 40
1.0
 10
955.8278036290607
 20
854.553951333483
 30
0.0
 10
955.9254097525408
 20
854.4866429993327
 30
0.0
 10
956.109702840724
 20
854.3595560879919
 30
0.0
 10
956.3805701341781
 20
854.1960667155552
 30
0.0
 10
956.6205636267631
 20
854.0558949085669
 30
0.0
 10
956.777553220652
 20
853.9844611277861
 30
0.0
 10
956.8502395264966
 20
853.951387230919
 30
0.0
  0
LINE
  5
E3
330
1F
100
AcDbEntity
  8
0
  6
Continuous
 62
     7
370
    25
100
AcDbLine
 10
955.404726706
 20
853.9385667181
 30
0.0
 11
955.8278036291
 21
854.5539513335
 31
0.0
  0
SPLINE
  5
E4
330
1F
100
AcDbEntity
  8
0
  6
Continuous
 62
     7
370
    25
100
AcDbSpline
210
0.0
220
0.0
230
1.0
 70
     8
 71
     3
 72
    15
 73
    11
 74
     0
 42
0.00000001
 43
0.00000001
 40
0.0
 40
0.0
 40
0.0
 40
0.0
 40
0.1060709021051295
 40
0.2134216804124504
 40
0.3216854881303261
 40
0.4338579390981598
 40
0.5540812827743542
 40
0.6875870439665601
 40
0.8364658500651109
 40
1.0
 40
1.0
 40
1.0
 40
1.0
 10
957.3342138854711
 20
853.0154897950215
 30
0.0
 10
957.2565947808687
 20
853.0179597587452
 30
0.0
 10
957.1004200014753
 20
853.0229294893497
 30
0.0
 10
956.8679840957332
 20
853.0634362620349
 30
0.0
 10
956.6362081509174
 20
853.1258729325408
 30
0.0
 10
956.4038619821397
 20
853.2173074363093
 30
0.0
 10
956.1663551447728
 20
853.3416630899884
 30
0.0
 10
955.9204709237588
 20
853.5043712421691
 30
0.0
 10
955.6630464872813
 20
853.7051290167914
 30
0.0
 10
955.4934846904661
 20
853.8583581496099
 30
0.0
 10
955.4047267059838
 20
853.9385667180984
 30
0.0
  0
SPLINE
  5
E5
330
1F
100
AcDbEntity
  8
0
  6
Continuous
 62
     7
370
    25
100
AcDbSpline
210
0.0
220
0.0
230
1.0
 70
     8
 71
     3
 72
    23
 73
    19
 74
     0
 42
0.00000001
 43
0.00000001
 40
0.0
 40
0.0
 40
0.0
 40
0.0
 40
0.0773606839426999
 40
0.1485419530250433
 40
0.214007737252132
 40
0.2729945033606876
 40
0.3264091957674681
 40
0.3738804007298079
 40
0.4160199382657599
 40
0.4521255195126318
 40
0.5180017107054544
 40
0.5823669297335147
 40
0.6470437823418057
 40
0.7133304210644734
 40
0.7809119703509683
 40
0.8503949591306456
 40
0.9229229735922768
 40
1.0
 40
1.0
 40
1.0
 40
1.0
 10
959.1995985008556
 20
855.8183744104061
 30
0.0
 10
959.1988809725542
 20
855.71847687693
 30
0.0
 10
959.1975032306601
 20
855.5266614227659
 30
0.0
 10
959.1899274351505
 20
855.2503782321564
 30
0.0
 10
959.1759080570786
 20
854.9981023779771
 30
0.0
 10
959.1554851713884
 20
854.7692602134223
 30
0.0
 10
959.1282389249344
 20
854.5645686584788
 30
0.0
 10
959.0970594320886
 20
854.3824461034735
 30
0.0
 10
959.0593158920295
 20
854.224412543867
 30
0.0
 10
959.0024782547013
 20
854.0469603021803
 30
0.0
 10
958.9092806580245
 20
853.8523458913612
 30
0.0
 10
958.7690131422646
 20
853.6421626899764
 30
0.0
 10
958.5947667504139
 20
853.4583148942044
 30
0.0
 10
958.3929358174446
 20
853.2986515229685
 30
0.0
 10
958.1617563338336
 20
853.1714349945655
 30
0.0
 10
957.9059889758356
 20
853.0801088724859
 30
0.0
 10
957.6272082045258
 20
853.0244040573447
 30
0.0
 10
957.4338385762918
 20
853.0185208456941
 30
0.0
 10
957.3342138854711
 20
853.0154897950215
 30
0.0
  0
LINE
  5
E6
330
1F
100
AcDbEntity
  8
0
  6
Continuous
 62
     7
370
    25
100
AcDbLine
 10
959.1995985009
 20
861.2206180001
 30
0.0
 11
959.1995985009
 21
855.8183744104
 31
0.0
  0
LINE
  5
E7
330
1F
100
AcDbEntity
  8
0
  6
Continuous
 62
     7
370
    25
100
AcDbLine
 10
958.4816497829
 20
861.2206180001
 30
0.0
 11
959.1995985009
 21
861.2206180001
 31
0.0
  0
LINE
  5
E8
330
1F
100
AcDbEntity
  8
0
  6
Continuous
 62
     7
370
    25
100
AcDbLine
 10
958.4816497829
 20
855.8985026155
 30
0.0
 11
958.4816497829
 21
861.2206180001
 31
0.0
  0
SPLINE
  5
E9
330
1F
100
AcDbEntity
  8
0
  6
Continuous
 62
     7
370
    25
100
AcDbSpline
210
0.0
220
0.0
230
1.0
 70
     8
 71
     3
 72
    23
 73
    19
 74
     0
 42
0.00000001
 43
0.00000001
 40
0.0
 40
0.0
 40
0.0
 40
0.0
 40
0.0623263659914404
 40
0.1231962451944444
 40
0.1840362202545513
 40
0.2469640854288916
 40
0.3106993957895715
 40
0.3732676370734409
 40
0.4365875799673878
 40
0.5021247910366505
 40
0.5390047220341654
 40
0.5832553755259874
 40
0.6344465152828147
 40
0.6926760461021148
 40
0.758570486286528
 40
0.8316586747921159
 40
0.9119171022748382
 40
1.0
 40
1.0
 40
1.0
 40
1.0
 10
957.3742779880351
 20
853.8360026155343
 30
0.0
 10
957.429552933012
 20
853.8383402953834
 30
0.0
 10
957.5388111187922
 20
853.8429610265185
 30
0.0
 10
957.6975859622394
 20
853.8837593699957
 30
0.0
 10
957.849490033576
 20
853.9460322911701
 30
0.0
 10
957.9890778225612
 20
854.0372123912077
 30
0.0
 10
958.1177301358912
 20
854.1456270670925
 30
0.0
 10
958.2238851658051
 20
854.2767265154727
 30
0.0
 10
958.3123817246278
 20
854.4220201932018
 30
0.0
 10
958.3656381665719
 20
854.5595549448407
 30
0.0
 10
958.3995690740256
 20
854.6849872426079
 30
0.0
 10
958.4211042211277
 20
854.8002629817556
 30
0.0
 10
958.4399354448792
 20
854.935032075472
 30
0.0
 10
958.4563504206541
 20
855.0894553904666
 30
0.0
 10
958.4659606390754
 20
855.2638420924822
 30
0.0
 10
958.4767429769608
 20
855.4576801334638
 30
0.0
 10
958.4806407161373
 20
855.6714582184834
 30
0.0
 10
958.4813031638392
 20
855.8205118228715
 30
0.0
 10
958.4816497829069
 20
855.8985026155343
 30
0.0
  0
LINE
  5
EA
330
1F
100
AcDbEntity
  8
0
  6
Continuous
 62
     7
370
    25
100
AcDbLine
 10
954.5842138855
 20
856.7077974873
 30
0.0
 11
954.5842138855
 21
855.8872846668
 31
0.0
  0
LINE
  5
EB
330
1F
100
AcDbEntity
  8
0
  6
Continuous
 62
     7
370
    25
100
AcDbLine
 10
951.5072908085
 20
856.7077974873
 30
0.0
 11
954.5842138855
 21
856.7077974873
 31
0.0
  0
LINE
  5
EC
330
1F
100
AcDbEntity
  8
0
  6
Continuous
 62
     7
370
    25
100
AcDbLine
 10
951.5072908085
 20
855.8872846668
 30
0.0
 11
951.5072908085
 21
856.7077974873
 31
0.0
  0
LINE
  5
ED
330
1F
100
AcDbEntity
  8
0
  6
Continuous
 62
     7
370
    25
100
AcDbLine
 10
954.5842138855
 20
855.8872846668
 30
0.0
 11
951.5072908085
 21
855.8872846668
 31
0.0
  0
SPLINE
  5
EE
330
1F
100
AcDbEntity
  8
0
  6
Continuous
 62
     7
370
    25
100
AcDbSpline
210
0.0
220
0.0
230
1.0
 70
     8
 71
     3
 72
    31
 73
    27
 74
     0
 42
0.00000001
 43
0.00000001
 40
0.0
 40
0.0
 40
0.0
 40
0.0
 40
0.0337881161627106
 40
0.0671939323738803
 40
0.0998624108568254
 40
0.1325666121262584
 40
0.1651511732547858
 40
0.1979131873557924
 40
0.2313190035669617
 40
0.265083278267373
 40
0.2992553087581151
 40
0.3343985665049788
 40
0.3699428235093071
 40
0.4062835607000603
 40
0.4440638196985091
 40
0.4829977068727747
 40
0.5233544466133042
 40
0.5655365896041499
 40
0.6096129240658184
 40
0.6563908113764169
 40
0.7058854949364558
 40
0.7583245002617313
 40
0.8138317829411499
 40
0.8727945590393889
 40
0.9347222295400733
 40
1.0
 40
1.0
 40
1.0
 40
1.0
 10
933.4640215777787
 20
861.4257462052778
 30
0.0
 10
933.5276455286
 20
861.4246311991621
 30
0.0
 10
933.6541735489329
 20
861.4224138028095
 30
0.0
 10
933.8412372637808
 20
861.401101934159
 30
0.0
 10
934.0239793934142
 20
861.3657393670803
 30
0.0
 10
934.2016208533079
 20
861.3156342823198
 30
0.0
 10
934.3756208223771
 20
861.2534727356698
 30
0.0
 10
934.5446183255672
 20
861.1755593251345
 30
0.0
 10
934.7096630836061
 20
861.0848647712044
 30
0.0
 10
934.868132312223
 20
860.9782959087892
 30
0.0
 10
935.0217657187283
 20
860.8594792774823
 30
0.0
 10
935.1667896340932
 20
860.7251646059317
 30
0.0
 10
935.3032172590016
 20
860.5767081047463
 30
0.0
 10
935.4327608141701
 20
860.4156981301483
 30
0.0
 10
935.5517450363399
 20
860.2390465076716
 30
0.0
 10
935.6650557385923
 20
860.0498256852393
 30
0.0
 10
935.7664775349389
 20
859.8447265657105
 30
0.0
 10
935.86415679249
 20
859.6271712106452
 30
0.0
 10
935.9484699050369
 20
859.3911399905157
 30
0.0
 10
936.0245070370878
 20
859.1379633950457
 30
0.0
 10
936.0859446795449
 20
858.8646509679525
 30
0.0
 10
936.1371201591749
 20
858.5726366929922
 30
0.0
 10
936.176765635622
 20
858.2608481598719
 30
0.0
 10
936.2056402460872
 20
857.9299537244164
 30
0.0
 10
936.220893011896
 20
857.5797356886661
 30
0.0
 10
936.2237654717969
 20
857.3402891762612
 30
0.0
 10
936.2252395264966
 20
857.2174128719445
 30
0.0
  0
SPLINE
  5
EF
330
1F
100
AcDbEntity
  8
0
  6
Continuous
 62
     7
370
    25
100
AcDbSpline
210
0.0
220
0.0
230
1.0
 70
     8
 71
     3
 72
    31
 73
    27
 74
     0
 42
0.00000001
 43
0.00000001
 40
0.0
 40
0.0
 40
0.0
 40
0.0
 40
0.0685946222587427
 40
0.1332460424433002
 40
0.1943125864682573
 40
0.2512792231169663
 40
0.3045134392563468
 40
0.3542349066533263
 40
0.4004805887739903
 40
0.4434107549384921
 40
0.4840148686163453
 40
0.5232523007732024
 40
0.5610423727283604
 40
0.5979002393643995
 40
0.6335184888561969
 40
0.6683143511696527
 40
0.7024956712863815
 40
0.7366853535134588
 40
0.7702931693607898
 40
0.8034372550192489
 40
0.8359129516660292
 40
0.8684602457892913
 40
0.9008465382431833
 40
0.9334665246307081
 40
0.9662575752981233
 40
1.0
 40
1.0
 40
1.0
 40
1.0
 10
930.7893420905991
 20
857.2174128719445
 30
0.0
 10
930.7900918463877
 20
857.34563547248
 30
0.0
 10
930.7915482578136
 20
857.5947097221884
 30
0.0
 10
930.8077503628244
 20
857.9576460469126
 30
0.0
 10
930.8346654309688
 20
858.298126707473
 30
0.0
 10
930.8715508546265
 20
858.6161680012751
 30
0.0
 10
930.9164376665663
 20
858.9118520344584
 30
0.0
 10
930.9763587787978
 20
859.1843886221986
 30
0.0
 10
931.044502327632
 20
859.4350391515999
 30
0.0
 10
931.1234793466274
 20
859.664620976688
 30
0.0
 10
931.2125942929551
 20
859.8762271550243
 30
0.0
 10
931.3095868888913
 20
860.0737704722671
 30
0.0
 10
931.4183064190023
 20
860.2569520319009
 30
0.0
 10
931.5325393628357
 20
860.4286955528609
 30
0.0
 10
931.6569098122707
 20
860.586189712386
 30
0.0
 10
931.7878784761958
 20
860.7316586552856
 30
0.0
 10
931.9305570505207
 20
860.8617403706314
 30
0.0
 10
932.0800953551457
 20
860.9802462046546
 30
0.0
 10
932.2378472737554
 20
861.0841307113333
 30
0.0
 10
932.3993162249398
 20
861.1756341138836
 30
0.0
 10
932.5656136097534
 20
861.2538052390438
 30
0.0
 10
932.7371934563772
 20
861.315269092437
 30
0.0
 10
932.9125135886966
 20
861.366036742203
 30
0.0
 10
933.0921868839908
 20
861.4007543368238
 30
0.0
 10
933.2765100015597
 20
861.4225986990853
 30
0.0
 10
933.4009247096698
 20
861.4246870824913
 30
0.0
 10
933.4640215777787
 20
861.4257462052778
 30
0.0
  0
SPLINE
  5
F0
330
1F
100
AcDbEntity
  8
0
  6
Continuous
 62
     7
370
    25
100
AcDbSpline
210
0.0
220
0.0
230
1.0
 70
     8
 71
     3
 72
    31
 73
    27
 74
     0
 42
0.00000001
 43
0.00000001
 40
0.0
 40
0.0
 40
0.0
 40
0.0
 40
0.033787146346991
 40
0.0666216577242936
 40
0.0992848780959716
 40
0.1313611650426506
 40
0.1635851875953425
 40
0.196103926987068
 40
0.2289022543238174
 40
0.2621580559050071
 40
0.2959912222583152
 40
0.330217845724799
 40
0.3650598258919532
 40
0.4009507373401077
 40
0.4376203820767376
 40
0.4757075294370924
 40
0.5153806916250492
 40
0.5564135414931645
 40
0.5997648298727317
 40
0.6464241555840872
 40
0.6964314445175672
 40
0.7497815178015583
 40
0.8065733069755329
 40
0.8674355315654002
 40
0.9318867532508747
 40
1.0
 40
1.0
 40
1.0
 40
1.0
 10
933.4640215777787
 20
853.0154897950215
 30
0.0
 10
933.400926460098
 20
853.0165557503559
 30
0.0
 10
933.2765152034912
 20
853.0186576062129
 30
0.0
 10
933.0921668024868
 20
853.0404032781859
 30
0.0
 10
932.9132355031954
 20
853.0753644283855
 30
0.0
 10
932.7388383511095
 20
853.124316666308
 30
0.0
 10
932.5680806023468
 20
853.1842362921719
 30
0.0
 10
932.4032890899907
 20
853.262301854693
 30
0.0
 10
932.2426315272692
 20
853.352208298021
 30
0.0
 10
932.0865365420849
 20
853.454597832737
 30
0.0
 10
931.937937316851
 20
853.5719045370305
 30
0.0
 10
931.7959976475622
 20
853.7016514825996
 30
0.0
 10
931.6642833181977
 20
853.8470764227079
 30
0.0
 10
931.5416910996439
 20
854.0058831040969
 30
0.0
 10
931.4251788980537
 20
854.1766105151432
 30
0.0
 10
931.3180031876096
 20
854.3615896535329
 30
0.0
 10
931.2188698068826
 20
854.5600870489377
 30
0.0
 10
931.128256113926
 20
854.7733851304807
 30
0.0
 10
931.0479163116062
 20
855.0045963941602
 30
0.0
 10
930.9769501216326
 20
855.256365945023
 30
0.0
 10
930.920917761701
 20
855.5309159704266
 30
0.0
 10
930.8729567209401
 20
855.8260413809531
 30
0.0
 10
930.8342724168408
 20
856.1430103646923
 30
0.0
 10
930.8078625303988
 20
856.481995000548
 30
0.0
 10
930.7915395246029
 20
856.842784049522
 30
0.0
 10
930.7900879350711
 20
857.0902578193886
 30
0.0
 10
930.7893420905991
 20
857.2174128719445
 30
0.0
  0
SPLINE
  5
F1
330
1F
100
AcDbEntity
  8
0
  6
Continuous
 62
     7
370
    25
100
AcDbSpline
210
0.0
220
0.0
230
1.0
 70
     8
 71
     3
 72
    31
 73
    27
 74
     0
 42
0.00000001
 43
0.00000001
 40
0.0
 40
0.0
 40
0.0
 40
0.0
 40
0.0650632896172782
 40
0.1267731664665232
 40
0.1855157632260794
 40
0.2407646791677157
 40
0.2929797960235988
 40
0.3422503727797678
 40
0.3889192861856594
 40
0.4327756640583106
 40
0.4746284326311173
 40
0.5147746906379522
 40
0.5536058934984418
 40
0.591426406431174
 40
0.6280281199460673
 40
0.66380363411032
 40
0.6989843361316631
 40
0.7335914893067046
 40
0.7676284691511387
 40
0.8012083477865914
 40
0.8342638397266224
 40
0.866980694728776
 40
0.8997197415181601
 40
0.9327019124985377
 40
0.9661758834327493
 40
0.9999999999999999
 40
0.9999999999999999
 40
0.9999999999999999
 40
0.9999999999999999
 10
936.2252395264966
 20
857.2174128719445
 30
0.0
 10
936.2237501903962
 20
857.0950725109368
 30
0.0
 10
936.2208482797414
 20
856.856697306688
 30
0.0
 10
936.2058112357009
 20
856.5080550773857
 30
0.0
 10
936.1761915072924
 20
856.1789166927032
 30
0.0
 10
936.1391401054437
 20
855.868492778512
 30
0.0
 10
936.0878236186472
 20
855.5780753640365
 30
0.0
 10
936.0247260957873
 20
855.3066594818241
 30
0.0
 10
935.9546682150518
 20
855.0530730323032
 30
0.0
 10
935.8681886856579
 20
854.819393462909
 30
0.0
 10
935.7735356334357
 20
854.6023609535039
 30
0.0
 10
935.670552327892
 20
854.399693185893
 30
0.0
 10
935.560221296839
 20
854.2095988026254
 30
0.0
 10
935.4400184511178
 20
854.0335993810684
 30
0.0
 10
935.3118963638117
 20
853.8704481649017
 30
0.0
 10
935.1731128465706
 20
853.7230250274126
 30
0.0
 10
935.0275800806231
 20
853.5877777772112
 30
0.0
 10
934.8734945587171
 20
853.4674312001548
 30
0.0
 10
934.7125538701864
 20
853.3620945038431
 30
0.0
 10
934.5480759800723
 20
853.2678914172424
 30
0.0
 10
934.3771425324214
 20
853.1919309714141
 30
0.0
 10
934.2036272118968
 20
853.1267080206079
 30
0.0
 10
934.0250480893484
 20
853.0768784162966
 30
0.0
 10
933.8416277677725
 20
853.0424238893925
 30
0.0
 10
933.6542992285068
 20
853.018259664353
 30
0.0
 10
933.5276670797498
 20
853.0164162817808
 30
0.0
 10
933.4640215777787
 20
853.0154897950215
 30
0.0
  0
SPLINE
  5
F2
330
1F
100
AcDbEntity
  8
0
  6
Continuous
 62
     7
370
    25
100
AcDbSpline
210
0.0
220
0.0
230
1.0
 70
     8
 71
     3
 72
    19
 73
    15
 74
     0
 42
0.00000001
 43
0.00000001
 40
0.0
 40
0.0
 40
0.0
 40
0.0
 40
0.0602873979279692
 40
0.1196023547075216
 40
0.1775033710185429
 40
0.2351426637323308
 40
0.2921325932269357
 40
0.3508712086415661
 40
0.4100978625665962
 40
0.4707315215304479
 40
0.5948287040804158
 40
0.7225788240942896
 40
0.8566913895440168
 40
1.0
 40
1.0
 40
1.0
 40
1.0
 10
949.8662651675222
 20
855.491451333483
 30
0.0
 10
949.8656340718939
 20
855.5337218260889
 30
0.0
 10
949.8643820602664
 20
855.6175809844549
 30
0.0
 10
949.8455006547265
 20
855.7408171425986
 30
0.0
 10
949.8180403809122
 20
855.8601905673056
 30
0.0
 10
949.7825399606093
 20
855.9760254026993
 30
0.0
 10
949.7308383215441
 20
856.08622740578
 30
0.0
 10
949.6704805043621
 20
856.1929761132926
 30
0.0
 10
949.5997115863172
 20
856.2964126376897
 30
0.0
 10
949.4894392071913
 20
856.4271835027168
 30
0.0
 10
949.329046099717
 20
856.5778509607818
 30
0.0
 10
949.1011448987045
 20
856.725365251677
 30
0.0
 10
948.8420082176319
 20
856.844331667877
 30
0.0
 10
948.654059662441
 20
856.8948447566505
 30
0.0
 10
948.5569702957274
 20
856.9209385129702
 30
0.0
  0
SPLINE
  5
F3
330
1F
100
AcDbEntity
  8
0
  6
Continuous
 62
     7
370
    25
100
AcDbSpline
210
0.0
220
0.0
230
1.0
 70
     8
 71
     3
 72
    23
 73
    19
 74
     0
 42
0.00000001
 43
0.00000001
 40
0.0
 40
0.0
 40
0.0
 40
0.0
 40
0.0725024889330346
 40
0.1397389892678949
 40
0.2017951348259232
 40
0.2598219344148621
 40
0.3122059893845976
 40
0.3607734341243382
 40
0.4045403426007489
 40
0.4436980985527635
 40
0.5168407942439702
 40
0.587874335944282
 40
0.6579654175616318
 40
0.7289693886473126
 40
0.7993077199548838
 40
0.8666357778344737
 40
0.9331163290572759
 40
1.0
 40
1.0
 40
1.0
 40
1.0
 10
947.6066497829069
 20
854.0411308206626
 30
0.0
 10
947.6798358992795
 20
854.0420079575695
 30
0.0
 10
947.8208924903132
 20
854.0436985233226
 30
0.0
 10
948.0245524448752
 20
854.0492175051759
 30
0.0
 10
948.213313824992
 20
854.0617712782024
 30
0.0
 10
948.386315278088
 20
854.0815332202909
 30
0.0
 10
948.545424884101
 20
854.1029696755415
 30
0.0
 10
948.6887339195955
 20
854.1317954605054
 30
0.0
 10
948.8174040760788
 20
854.164821655992
 30
0.0
 10
948.9666024937688
 20
854.2158711925293
 30
0.0
 10
949.1346105126968
 20
854.2951774117687
 30
0.0
 10
949.315663898721
 20
854.414752786439
 30
0.0
 10
949.4766381116217
 20
854.5572060613483
 30
0.0
 10
949.613335846951
 20
854.7220767223167
 30
0.0
 10
949.7253655350562
 20
854.901348326724
 30
0.0
 10
949.8068637181043
 20
855.0913948409017
 30
0.0
 10
949.8571285334623
 20
855.2890760464295
 30
0.0
 10
949.8632134918392
 20
855.4238571036706
 30
0.0
 10
949.8662651675222
 20
855.491451333483
 30
0.0
  0
LINE
  5
F4
330
1F
100
AcDbEntity
  8
0
  6
Continuous
 62
     7
370
    25
100
AcDbLine
 10
946.5842138855
 20
854.0411308207
 30
0.0
 11
947.6066497829
 21
854.0411308207
 31
0.0
  0
LINE
  5
F5
330
1F
100
AcDbEntity
  8
0
  6
Continuous
 62
     7
370
    25
100
AcDbLine
 10
946.5842138855
 20
857.015489795
 30
0.0
 11
946.5842138855
 21
854.0411308207
 31
0.0
  0
SPLINE
  5
F6
330
1F
100
AcDbEntity
  8
0
  6
Continuous
 62
     7
370
    25
100
AcDbSpline
210
0.0
220
0.0
230
1.0
 70
     8
 71
     3
 72
    15
 73
    11
 74
     0
 42
0.00000001
 43
0.00000001
 40
0.0
 40
0.0
 40
0.0
 40
0.0
 40
0.0793064855229972
 40
0.1719528189279295
 40
0.2770565073915884
 40
0.3947305758644747
 40
0.5261773212767582
 40
0.6713447665976112
 40
0.8292852571892513
 40
1.0
 40
1.0
 40
1.0
 40
1.0
 10
948.5569702957274
 20
856.9209385129702
 30
0.0
 10
948.518046648065
 20
856.9288358477254
 30
0.0
 10
948.4336521512674
 20
856.9459588984347
 30
0.0
 10
948.296034824573
 20
856.964033649039
 30
0.0
 10
948.138924267082
 20
856.9801366430781
 30
0.0
 10
947.9619576905653
 20
856.9920478605952
 30
0.0
 10
947.7649111965912
 20
857.0043599601336
 30
0.0
 10
947.5473639538811
 20
857.0091481226988
 30
0.0
 10
947.3102043775174
 20
857.014860717198
 30
0.0
 10
947.1456503834609
 20
857.0152747383222
 30
0.0
 10
947.0601754239325
 20
857.0154897950215
 30
0.0
  0
LINE
  5
F7
330
1F
100
AcDbEntity
  8
0
  6
Continuous
 62
     7
370
    25
100
AcDbLine
 10
947.0601754239
 20
857.015489795
 30
0.0
 11
946.5842138855
 21
857.015489795
 31
0.0
  0
LINE
  5
F8
330
1F
100
AcDbEntity
  8
0
  6
Continuous
 62
     7
370
    25
100
AcDbLine
 10
946.5842138855
 20
860.4001051796
 30
0.0
 11
946.5842138855
 21
857.8360026155
 31
0.0
  0
LINE
  5
F9
330
1F
100
AcDbEntity
  8
0
  6
Continuous
 62
     7
370
    25
100
AcDbLine
 10
946.5842138855
 20
857.8360026155
 30
0.0
 11
947.0665856803
 21
857.8360026155
 31
0.0
  0
SPLINE
  5
FA
330
1F
100
AcDbEntity
  8
0
  6
Continuous
 62
     7
370
    25
100
AcDbSpline
210
0.0
220
0.0
230
1.0
 70
     8
 71
     3
 72
    23
 73
    19
 74
     0
 42
0.00000001
 43
0.00000001
 40
0.0
 40
0.0
 40
0.0
 40
0.0
 40
0.0723010339955061
 40
0.1397003317393863
 40
0.2022885114847731
 40
0.2605995332222011
 40
0.3131903291553334
 40
0.3617389329854281
 40
0.405706475632223
 40
0.4455399848948731
 40
0.5188319558616092
 40
0.5897782395835778
 40
0.6588674786561485
 40
0.7284304780610662
 40
0.7972827036081003
 40
0.8648153774014441
 40
0.9313637528792688
 40
0.9999999999999999
 40
0.9999999999999999
 40
0.9999999999999999
 40
0.9999999999999999
 10
947.0665856803428
 20
857.8360026155343
 30
0.0
 10
947.137097212609
 20
857.8369167252634
 30
0.0
 10
947.2733398623288
 20
857.8386829715445
 30
0.0
 10
947.4706424830347
 20
857.8437424391146
 30
0.0
 10
947.6537853817687
 20
857.8579093954963
 30
0.0
 10
947.8224524287949
 20
857.8720722801927
 30
0.0
 10
947.9763780150043
 20
857.8950999091385
 30
0.0
 10
948.1152211270091
 20
857.9225104757952
 30
0.0
 10
948.2411607771544
 20
857.9514999731585
 30
0.0
 10
948.3863940240949
 20
858.0008016575023
 30
0.0
 10
948.551132191999
 20
858.0736649150656
 30
0.0
 10
948.7267507157806
 20
858.1867433976255
 30
0.0
 10
948.8815723605552
 20
858.3214276335092
 30
0.0
 10
949.0123087896277
 20
858.476835546092
 30
0.0
 10
949.1193064365503
 20
858.6479582566249
 30
0.0
 10
949.19362349976
 20
858.8320654119043
 30
0.0
 10
949.2440172921773
 20
859.0245685708427
 30
0.0
 10
949.248569363851
 20
859.1567245772194
 30
0.0
 10
949.2508805521377
 20
859.2238231283549
 30
0.0
  0
SPLINE
  5
FB
330
1F
100
AcDbEntity
  8
0
  6
Continuous
 62
     7
370
    25
100
AcDbSpline
210
0.0
220
0.0
230
1.0
 70
     8
 71
     3
 72
    23
 73
    19
 74
     0
 42
0.00000001
 43
0.00000001
 40
0.0
 40
0.0
 40
0.0
 40
0.0
 40
0.0570031325129265
 40
0.1118178691207245
 40
0.1644023722182133
 40
0.2158698048987947
 40
0.2668411100818684
 40
0.3174789632053574
 40
0.3699021362727589
 40
0.4234004494436375
 40
0.4797183982994501
 40
0.5392414966442969
 40
0.6024306889434231
 40
0.6710295461473359
 40
0.7444847975608481
 40
0.8234539713786851
 40
0.9087403127306665
 40
1.0
 40
1.0
 40
1.0
 40
1.0
 10
949.2508805521377
 20
859.2238231283549
 30
0.0
 10
949.2496778545747
 20
859.2682248918144
 30
0.0
 10
949.2473186319713
 20
859.3553237994774
 30
0.0
 10
949.2279967974457
 20
859.482293751835
 30
0.0
 10
949.1951566273073
 20
859.6017080432914
 30
0.0
 10
949.1529753856155
 20
859.715203152604
 30
0.0
 10
949.0940298114068
 20
859.8192302388218
 30
0.0
 10
949.0246276095736
 20
859.9173861146957
 30
0.0
 10
948.940774603197
 20
860.0063280998313
 30
0.0
 10
948.8453293171262
 20
860.0894583816951
 30
0.0
 10
948.7355953220215
 20
860.1631601595191
 30
0.0
 10
948.6116380835773
 20
860.2277104753445
 30
0.0
 10
948.4717805359961
 20
860.2796893934698
 30
0.0
 10
948.3183797246099
 20
860.3252120277044
 30
0.0
 10
948.149074381756
 20
860.3571852707174
 30
0.0
 10
947.9658182596792
 20
860.3838215853623
 30
0.0
 10
947.7671103304747
 20
860.3973821385156
 30
0.0
 10
947.629635810416
 20
860.3991772536576
 30
0.0
 10
947.55857285983
 20
860.4001051796369
 30
0.0
  0
LINE
  5
FC
330
1F
100
AcDbEntity
  8
0
  6
Continuous
 62
     7
370
    25
100
AcDbLine
 10
947.5585728598
 20
860.4001051796
 30
0.0
 11
946.5842138855
 21
860.4001051796
 31
0.0
  0
SPLINE
  5
FD
330
1F
100
AcDbEntity
  8
0
  6
Continuous
 62
     7
370
    25
100
AcDbSpline
210
0.0
220
0.0
230
1.0
 70
     8
 71
     3
 72
    27
 73
    23
 74
     0
 42
0.00000001
 43
0.00000001
 40
0.0
 40
0.0
 40
0.0
 40
0.0
 40
0.0603866193110626
 40
0.1208832485859964
 40
0.1827546186251395
 40
0.2478110297583506
 40
0.2812991000432497
 40
0.3150876241506568
 40
0.3497023955502758
 40
0.3848565811185569
 40
0.4209661972261021
 40
0.4585111882611392
 40
0.4971747221273131
 40
0.5376020478662706
 40
0.5805030184200131
 40
0.6274675400267059
 40
0.6783882095592452
 40
0.733983220592561
 40
0.7937467045508348
 40
0.8577136721607319
 40
0.9266978643613873
 40
1.0
 40
1.0
 40
1.0
 40
1.0
 10
927.334213885471
 20
860.6052333847651
 30
0.0
 10
927.2457325321298
 20
860.6005900781428
 30
0.0
 10
927.0686086336037
 20
860.5912950059052
 30
0.0
 10
926.807013308514
 20
860.5257104262672
 30
0.0
 10
926.5562605047602
 20
860.4113950755527
 30
0.0
 10
926.3568479912085
 20
860.2857896527756
 30
0.0
 10
926.2040164791912
 20
860.1661592266234
 30
0.0
 10
926.09639889433
 20
860.062418760204
 30
0.0
 10
925.9954933578324
 20
859.9489416073694
 30
0.0
 10
925.9025386146607
 20
859.8245943734257
 30
0.0
 10
925.8154773959355
 20
859.6909592481248
 30
0.0
 10
925.7355207957625
 20
859.546984928753
 30
0.0
 10
925.6634811850744
 20
859.3919418105233
 30
0.0
 10
925.597002245234
 20
859.2259613867084
 30
0.0
 10
925.5385501583169
 20
859.0440620851414
 30
0.0
 10
925.4903353852197
 20
858.843447242642
 30
0.0
 10
925.4457935495171
 20
858.6229629185525
 30
0.0
 10
925.4142615063159
 20
858.3813183289635
 30
0.0
 10
925.3862300645748
 20
858.1201019784053
 30
0.0
 10
925.3682155549697
 20
857.838325251024
 30
0.0
 10
925.3542012521829
 20
857.5364638101042
 30
0.0
 10
925.353701905068
 20
857.3280085906696
 30
0.0
 10
925.3534446547017
 20
857.2206180001497
 30
0.0
  0
SPLINE
  5
FE
330
1F
100
AcDbEntity
  8
0
  6
Continuous
 62
     7
370
    25
100
AcDbSpline
210
0.0
220
0.0
230
1.0
 70
     8
 71
     3
 72
    27
 73
    23
 74
     0
 42
0.00000001
 43
0.00000001
 40
0.0
 40
0.0
 40
0.0
 40
0.0
 40
0.0656811979906367
 40
0.1284864641740656
 40
0.1881751303280078
 40
0.2451061306699843
 40
0.2994484245294762
 40
0.3508229360093825
 40
0.3999416805337758
 40
0.4466717436323698
 40
0.4912545333734973
 40
0.5333763442704369
 40
0.5738527549682232
 40
0.6125263117194522
 40
0.6495971364453285
 40
0.6855320415538501
 40
0.7201057860682001
 40
0.7538376629736501
 40
0.8189254160467135
 40
0.8804934616501632
 40
0.940311333846057
 40
1.0
 40
1.0
 40
1.0
 40
1.0
 10
929.3534446547017
 20
857.2206180001497
 30
0.0
 10
929.3521870793122
 20
857.3167724516195
 30
0.0
 10
929.3497269930137
 20
857.5048711139751
 30
0.0
 10
929.340323592554
 20
857.7803412412028
 30
0.0
 10
929.3160411365724
 20
858.0419818375666
 30
0.0
 10
929.2890717220249
 20
858.2909200607993
 30
0.0
 10
929.249306645243
 20
858.5257778955524
 30
0.0
 10
929.206431658088
 20
858.748521450424
 30
0.0
 10
929.148828887139
 20
858.9563912214397
 30
0.0
 10
929.0872979729127
 20
859.1526416939233
 30
0.0
 10
929.016874211698
 20
859.3350431899252
 30
0.0
 10
928.939352533395
 20
859.5044461301811
 30
0.0
 10
928.8565599419229
 20
859.6616683581967
 30
0.0
 10
928.7666348208732
 20
859.8062785103715
 30
0.0
 10
928.6706446881525
 20
859.9389243227398
 30
0.0
 10
928.5660560042725
 20
860.056946253156
 30
0.0
 10
928.4570174378476
 20
860.1640021802613
 30
0.0
 10
928.3042924416793
 20
860.2862023382535
 30
0.0
 10
928.1043512078498
 20
860.4108004993578
 30
0.0
 10
927.8555611567814
 20
860.5254650933243
 30
0.0
 10
927.5966568270645
 20
860.591312619315
 30
0.0
 10
927.4216317891398
 20
860.6005964754021
 30
0.0
 10
927.334213885471
 20
860.6052333847651
 30
0.0
  0
SPLINE
  5
FF
330
1F
100
AcDbEntity
  8
0
  6
Continuous
 62
     7
370
    25
100
AcDbSpline
210
0.0
220
0.0
230
1.0
 70
     8
 71
     3
 72
    19
 73
    15
 74
     0
 42
0.00000001
 43
0.00000001
 40
0.0
 40
0.0
 40
0.0
 40
0.0
 40
0.1128134007444587
 40
0.2253938839207276
 40
0.3395948145626994
 40
0.4596754102248647
 40
0.5217351900879328
 40
0.5839258387389143
 40
0.6481741447653692
 40
0.7138810381130626
 40
0.7810044549073875
 40
0.8514509275565524
 40
0.9240506926641749
 40
1.0
 40
1.0
 40
1.0
 40
1.0
 10
927.334213885471
 20
853.8360026155343
 30
0.0
 10
927.4228028492556
 20
853.8396546859607
 30
0.0
 10
927.5997978736777
 20
853.8469512866511
 30
0.0
 10
927.8583894054362
 20
853.9173484006494
 30
0.0
 10
928.1094300227671
 20
854.0235644908521
 30
0.0
 10
928.3061658862617
 20
854.1491587889533
 30
0.0
 10
928.4558402714079
 20
854.2687663991276
 30
0.0
 10
928.5630791059356
 20
854.3707427381286
 30
0.0
 10
928.6615066452116
 20
854.484927577686
 30
0.0
 10
928.7548599591651
 20
854.6081259683486
 30
0.0
 10
928.8404807035648
 20
854.7426916464602
 30
0.0
 10
928.918339304011
 20
854.8879775327824
 30
0.0
 10
928.9893869555428
 20
855.0443870822961
 30
0.0
 10
929.0298647748576
 20
855.1535750574179
 30
0.0
 10
929.0505600393171
 20
855.2094000514318
 30
0.0
  0
SPLINE
  5
100
330
1F
100
AcDbEntity
  8
0
  6
Continuous
 62
     7
370
    25
100
AcDbSpline
210
0.0
220
0.0
230
1.0
 70
     8
 71
     3
 72
    15
 73
    11
 74
     0
 42
0.00000001
 43
0.00000001
 40
0.0
 40
0.0
 40
0.0
 40
0.0
 40
0.1105883385953369
 40
0.224541754053591
 40
0.3425034940501052
 40
0.464324098417359
 40
0.5907560327017657
 40
0.7222274753555105
 40
0.8588428362087219
 40
1.0
 40
1.0
 40
1.0
 40
1.0
 10
929.0505600393171
 20
855.2094000514318
 30
0.0
 10
929.0746783657029
 20
855.2807823130692
 30
0.0
 10
929.1236489116056
 20
855.4257189170542
 30
0.0
 10
929.1867615385102
 20
855.6505501218096
 30
0.0
 10
929.2364653081187
 20
855.8864421536678
 30
0.0
 10
929.2811815726888
 20
856.1319852775955
 30
0.0
 10
929.3117028433113
 20
856.3889903084778
 30
0.0
 10
929.336269273673
 20
856.6566620431424
 30
0.0
 10
929.3507394152484
 20
856.9352022996804
 30
0.0
 10
929.3525331319829
 20
857.1244479938412
 30
0.0
 10
929.3534446547017
 20
857.2206180001497
 30
0.0
  0
SPLINE
  5
101
330
1F
100
AcDbEntity
  8
0
  6
Continuous
 62
     7
370
    25
100
AcDbSpline
210
0.0
220
0.0
230
1.0
 70
     8
 71
     3
 72
    27
 73
    23
 74
     0
 42
0.00000001
 43
0.00000001
 40
0.0
 40
0.0
 40
0.0
 40
0.0
 40
0.0729510658758663
 40
0.1415836941865472
 40
0.2059264601708678
 40
0.2653013571846064
 40
0.3205972327139291
 40
0.3718165030988105
 40
0.4187897697094521
 40
0.4616987286157648
 40
0.5021335821035656
 40
0.5408043152926488
 40
0.5781805253279676
 40
0.6142968652075143
 40
0.649678243264788
 40
0.6842994600896385
 40
0.7183589527723611
 40
0.7520808646475976
 40
0.8176524386023869
 40
0.8797220764054375
 40
0.9399655597309876
 40
1.0
 40
1.0
 40
1.0
 40
1.0
 10
925.3534446547017
 20
857.2206180001497
 30
0.0
 10
925.3537176765703
 20
857.1137638314552
 30
0.0
 10
925.3542475584067
 20
856.9063808719143
 30
0.0
 10
925.3680903025833
 20
856.6050248468263
 30
0.0
 10
925.3869479757249
 20
856.32394980953
 30
0.0
 10
925.4112709407195
 20
856.0627988690384
 30
0.0
 10
925.4473919659218
 20
855.8224559833017
 30
0.0
 10
925.4878646237909
 20
855.6012681362955
 30
0.0
 10
925.5371174000633
 20
855.4004058800355
 30
0.0
 10
925.5953917266165
 20
855.2184908841393
 30
0.0
 10
925.6617668052302
 20
855.0524358704357
 30
0.0
 10
925.7342373507616
 20
854.8979188072875
 30
0.0
 10
925.8120904316872
 20
854.7531143811485
 30
0.0
 10
925.8992199186654
 20
854.6193232762935
 30
0.0
 10
925.9941114917602
 20
854.4961091869841
 30
0.0
 10
926.0946217983603
 20
854.3812912845331
 30
0.0
 10
926.2045019909137
 20
854.2788981843374
 30
0.0
 10
926.3565105452982
 20
854.1560939442701
 30
0.0
 10
926.5571882011315
 20
854.0291930671739
 30
0.0
 10
926.8100349559454
 20
853.9186877189873
 30
0.0
 10
927.0698485581888
 20
853.8492421042848
 30
0.0
 10
927.2461942726732
 20
853.8404106621017
 30
0.0
 10
927.334213885471
 20
853.8360026155343
 30
0.0
  0
SPLINE
  5
102
330
1F
100
AcDbEntity
  8
0
  6
Continuous
 62
     7
370
    25
100
AcDbSpline
210
0.0
220
0.0
230
1.0
 70
     8
 71
     3
 72
    27
 73
    23
 74
     0
 42
0.00000001
 43
0.00000001
 40
0.0
 40
0.0
 40
0.0
 40
0.0
 40
0.0729510658758663
 40
0.1415836941865471
 40
0.2059264601708678
 40
0.2653013571846064
 40
0.3205972327139289
 40
0.3718165030988104
 40
0.418789769709452
 40
0.4616987286157648
 40
0.5021335821035656
 40
0.5408043152926488
 40
0.5781805253279672
 40
0.6142968652075143
 40
0.649678243264788
 40
0.6842994600896384
 40
0.718358952772361
 40
0.7520808646475975
 40
0.817652438602386
 40
0.8797220764054368
 40
0.9399655597309876
 40
1.0
 40
1.0
 40
1.0
 40
1.0
 10
975.7124190136761
 20
857.2206180001497
 30
0.0
 10
975.7126920355448
 20
857.1137638314552
 30
0.0
 10
975.7132219173811
 20
856.9063808719143
 30
0.0
 10
975.7270646615576
 20
856.6050248468263
 30
0.0
 10
975.7459223346992
 20
856.32394980953
 30
0.0
 10
975.7702452996939
 20
856.0627988690384
 30
0.0
 10
975.8063663248961
 20
855.8224559833016
 30
0.0
 10
975.8468389827652
 20
855.6012681362955
 30
0.0
 10
975.8960917590376
 20
855.4004058800355
 30
0.0
 10
975.9543660855908
 20
855.2184908841393
 30
0.0
 10
976.0207411642044
 20
855.0524358704357
 30
0.0
 10
976.093211709736
 20
854.8979188072875
 30
0.0
 10
976.1710647906615
 20
854.7531143811485
 30
0.0
 10
976.2581942776399
 20
854.6193232762935
 30
0.0
 10
976.3530858507347
 20
854.4961091869841
 30
0.0
 10
976.4535961573346
 20
854.3812912845331
 30
0.0
 10
976.5634763498881
 20
854.2788981843374
 30
0.0
 10
976.7154849042726
 20
854.1560939442701
 30
0.0
 10
976.9161625601058
 20
854.0291930671739
 30
0.0
 10
977.1690093149198
 20
853.9186877189873
 30
0.0
 10
977.4288229171632
 20
853.8492421042848
 30
0.0
 10
977.6051686316476
 20
853.8404106621017
 30
0.0
 10
977.6931882444454
 20
853.8360026155343
 30
0.0
  0
SPLINE
  5
103
330
1F
100
AcDbEntity
  8
0
  6
Continuous
 62
     7
370
    25
100
AcDbSpline
210
0.0
220
0.0
230
1.0
 70
     8
 71
     3
 72
    19
 73
    15
 74
     0
 42
0.00000001
 43
0.00000001
 40
0.0
 40
0.0
 40
0.0
 40
0.0
 40
0.1128134007444558
 40
0.2253938839207276
 40
0.3395948145626994
 40
0.4596754102248636
 40
0.5217351900879329
 40
0.5839258387389145
 40
0.6481741447653694
 40
0.7138810381130627
 40
0.7810044549073876
 40
0.8514509275565517
 40
0.9240506926641738
 40
1.0
 40
1.0
 40
1.0
 40
1.0
 10
977.6931882444454
 20
853.8360026155343
 30
0.0
 10
977.7817772082299
 20
853.8396546859607
 30
0.0
 10
977.9587722326521
 20
853.8469512866511
 30
0.0
 10
978.2173637644106
 20
853.9173484006494
 30
0.0
 10
978.4684043817415
 20
854.0235644908521
 30
0.0
 10
978.6651402452361
 20
854.1491587889533
 30
0.0
 10
978.8148146303822
 20
854.2687663991276
 30
0.0
 10
978.92205346491
 20
854.3707427381286
 30
0.0
 10
979.0204810041861
 20
854.484927577686
 30
0.0
 10
979.1138343181393
 20
854.6081259683486
 30
0.0
 10
979.1994550625392
 20
854.7426916464602
 30
0.0
 10
979.2773136629853
 20
854.8879775327824
 30
0.0
 10
979.3483613145171
 20
855.0443870822961
 30
0.0
 10
979.388839133832
 20
855.1535750574179
 30
0.0
 10
979.4095343982915
 20
855.2094000514318
 30
0.0
  0
SPLINE
  5
104
330
1F
100
AcDbEntity
  8
0
  6
Continuous
 62
     7
370
    25
100
AcDbSpline
210
0.0
220
0.0
230
1.0
 70
     8
 71
     3
 72
    15
 73
    11
 74
     0
 42
0.00000001
 43
0.00000001
 40
0.0
 40
0.0
 40
0.0
 40
0.0
 40
0.1105883385953364
 40
0.2245417540535905
 40
0.3425034940501052
 40
0.4643240984173589
 40
0.5907560327017657
 40
0.7222274753555104
 40
0.8588428362087218
 40
1.0
 40
1.0
 40
1.0
 40
1.0
 10
979.4095343982915
 20
855.2094000514318
 30
0.0
 10
979.4336527246772
 20
855.280782313069
 30
0.0
 10
979.48262327058
 20
855.4257189170542
 30
0.0
 10
979.5457358974846
 20
855.6505501218096
 30
0.0
 10
979.595439667093
 20
855.8864421536678
 30
0.0
 10
979.6401559316631
 20
856.1319852775955
 30
0.0
 10
979.6706772022857
 20
856.3889903084778
 30
0.0
 10
979.6952436326474
 20
856.6566620431424
 30
0.0
 10
979.7097137742228
 20
856.9352022996806
 30
0.0
 10
979.7115074909573
 20
857.1244479938412
 30
0.0
 10
979.7124190136761
 20
857.2206180001497
 30
0.0
  0
SPLINE
  5
105
330
1F
100
AcDbEntity
  8
0
  6
Continuous
 62
     7
370
    25
100
AcDbSpline
210
0.0
220
0.0
230
1.0
 70
     8
 71
     3
 72
    27
 73
    23
 74
     0
 42
0.00000001
 43
0.00000001
 40
0.0
 40
0.0
 40
0.0
 40
0.0
 40
0.0656811979906367
 40
0.1284864641740656
 40
0.1881751303280079
 40
0.2451061306699845
 40
0.2994484245294763
 40
0.3508229360093826
 40
0.3999416805337759
 40
0.44667174363237
 40
0.4912545333734981
 40
0.533376344270437
 40
0.5738527549682236
 40
0.6125263117194532
 40
0.6495971364453285
 40
0.6855320415538505
 40
0.7201057860682001
 40
0.7538376629736501
 40
0.8189254160467135
 40
0.880493461650164
 40
0.9403113338460578
 40
1.0
 40
1.0
 40
1.0
 40
1.0
 10
979.7124190136761
 20
857.2206180001497
 30
0.0
 10
979.7111614382865
 20
857.3167724516195
 30
0.0
 10
979.7087013519882
 20
857.5048711139751
 30
0.0
 10
979.6992979515285
 20
857.7803412412028
 30
0.0
 10
979.6750154955467
 20
858.0419818375666
 30
0.0
 10
979.6480460809993
 20
858.2909200607993
 30
0.0
 10
979.6082810042174
 20
858.5257778955526
 30
0.0
 10
979.5654060170624
 20
858.748521450424
 30
0.0
 10
979.5078032461133
 20
858.9563912214397
 30
0.0
 10
979.446272331887
 20
859.1526416939233
 30
0.0
 10
979.3758485706724
 20
859.3350431899252
 30
0.0
 10
979.2983268923693
 20
859.5044461301811
 30
0.0
 10
979.2155343008973
 20
859.6616683581967
 30
0.0
 10
979.1256091798476
 20
859.8062785103715
 30
0.0
 10
979.029619047127
 20
859.9389243227398
 30
0.0
 10
978.9250303632467
 20
860.056946253156
 30
0.0
 10
978.815991796822
 20
860.1640021802613
 30
0.0
 10
978.6632668006537
 20
860.2862023382535
 30
0.0
 10
978.4633255668241
 20
860.4108004993578
 30
0.0
 10
978.2145355157558
 20
860.5254650933243
 30
0.0
 10
977.9556311860389
 20
860.591312619315
 30
0.0
 10
977.7806061481142
 20
860.6005964754022
 30
0.0
 10
977.6931882444454
 20
860.6052333847651
 30
0.0
  0
SPLINE
  5
106
330
1F
100
AcDbEntity
  8
0
  6
Continuous
 62
     7
370
    25
100
AcDbSpline
210
0.0
220
0.0
230
1.0
 70
     8
 71
     3
 72
    27
 73
    23
 74
     0
 42
0.00000001
 43
0.00000001
 40
0.0
 40
0.0
 40
0.0
 40
0.0
 40
0.0603866193110626
 40
0.1208832485859964
 40
0.1827546186251394
 40
0.2478110297583505
 40
0.2812991000432496
 40
0.3150876241506567
 40
0.3497023955502762
 40
0.3848565811185573
 40
0.4209661972261021
 40
0.4585111882611399
 40
0.4971747221273131
 40
0.5376020478662709
 40
0.5805030184200134
 40
0.6274675400267063
 40
0.6783882095592454
 40
0.7339832205925612
 40
0.793746704550835
 40
0.857713672160732
 40
0.9266978643613873
 40
1.0
 40
1.0
 40
1.0
 40
1.0
 10
977.6931882444454
 20
860.6052333847651
 30
0.0
 10
977.6047068911041
 20
860.6005900781428
 30
0.0
 10
977.4275829925781
 20
860.5912950059052
 30
0.0
 10
977.1659876674884
 20
860.5257104262672
 30
0.0
 10
976.9152348637346
 20
860.4113950755526
 30
0.0
 10
976.7158223501829
 20
860.2857896527756
 30
0.0
 10
976.5629908381655
 20
860.1661592266234
 30
0.0
 10
976.4553732533043
 20
860.062418760204
 30
0.0
 10
976.3544677168068
 20
859.9489416073694
 30
0.0
 10
976.261512973635
 20
859.8245943734257
 30
0.0
 10
976.1744517549098
 20
859.6909592481248
 30
0.0
 10
976.0944951547368
 20
859.546984928753
 30
0.0
 10
976.0224555440487
 20
859.3919418105233
 30
0.0
 10
975.9559766042083
 20
859.2259613867084
 30
0.0
 10
975.8975245172912
 20
859.0440620851414
 30
0.0
 10
975.8493097441941
 20
858.843447242642
 30
0.0
 10
975.8047679084915
 20
858.6229629185525
 30
0.0
 10
975.7732358652902
 20
858.3813183289635
 30
0.0
 10
975.7452044235491
 20
858.1201019784053
 30
0.0
 10
975.727189913944
 20
857.8383252510239
 30
0.0
 10
975.7131756111572
 20
857.5364638101042
 30
0.0
 10
975.7126762640423
 20
857.3280085906696
 30
0.0
 10
975.7124190136761
 20
857.2206180001497
 30
0.0
  0
SPLINE
  5
107
330
1F
100
AcDbEntity
  8
0
  6
Continuous
 62
     7
370
    25
100
AcDbSpline
210
0.0
220
0.0
230
1.0
 70
     8
 71
     3
 72
    27
 73
    23
 74
     0
 42
0.00000001
 43
0.00000001
 40
0.0
 40
0.0
 40
0.0
 40
0.0
 40
0.0656811979906367
 40
0.1284864641740656
 40
0.1881751303280079
 40
0.2451061306699844
 40
0.2994484245294763
 40
0.3508229360093826
 40
0.3999416805337762
 40
0.4466717436323702
 40
0.4912545333734976
 40
0.5333763442704372
 40
0.5738527549682232
 40
0.6125263117194526
 40
0.6495971364453285
 40
0.68553204155385
 40
0.7201057860682002
 40
0.7538376629736507
 40
0.8189254160467137
 40
0.8804934616501641
 40
0.9403113338460578
 40
1.0
 40
1.0
 40
1.0
 40
1.0
 10
935.5072908085479
 20
857.2206180001497
 30
0.0
 10
935.5060332331584
 20
857.3167724516195
 30
0.0
 10
935.5035731468599
 20
857.5048711139751
 30
0.0
 10
935.4941697464002
 20
857.7803412412028
 30
0.0
 10
935.4698872904185
 20
858.0419818375666
 30
0.0
 10
935.4429178758711
 20
858.2909200607993
 30
0.0
 10
935.4031527990892
 20
858.5257778955524
 30
0.0
 10
935.3602778119342
 20
858.748521450424
 30
0.0
 10
935.302675040985
 20
858.9563912214397
 30
0.0
 10
935.2411441267589
 20
859.1526416939233
 30
0.0
 10
935.1707203655442
 20
859.3350431899252
 30
0.0
 10
935.0931986872412
 20
859.5044461301811
 30
0.0
 10
935.0104060957691
 20
859.6616683581966
 30
0.0
 10
934.9204809747193
 20
859.8062785103715
 30
0.0
 10
934.8244908419987
 20
859.9389243227398
 30
0.0
 10
934.7199021581187
 20
860.056946253156
 30
0.0
 10
934.6108635916937
 20
860.1640021802613
 30
0.0
 10
934.4581385955254
 20
860.2862023382536
 30
0.0
 10
934.2581973616959
 20
860.4108004993578
 30
0.0
 10
934.0094073106276
 20
860.5254650933244
 30
0.0
 10
933.7505029809107
 20
860.591312619315
 30
0.0
 10
933.575477942986
 20
860.6005964754021
 30
0.0
 10
933.4880600393171
 20
860.6052333847651
 30
0.0
  0
SPLINE
  5
108
330
1F
100
AcDbEntity
  8
0
  6
Continuous
 62
     7
370
    25
100
AcDbSpline
210
0.0
220
0.0
230
1.0
 70
     8
 71
     3
 72
    27
 73
    23
 74
     0
 42
0.00000001
 43
0.00000001
 40
0.0
 40
0.0
 40
0.0
 40
0.0
 40
0.0729510658758663
 40
0.1415836941865471
 40
0.2059264601708678
 40
0.2653013571846064
 40
0.3205972327139289
 40
0.3718165030988104
 40
0.418789769709452
 40
0.4616987286157648
 40
0.5021335821035656
 40
0.5408043152926488
 40
0.5781805253279672
 40
0.6142968652075143
 40
0.649678243264788
 40
0.6842994600896384
 40
0.718358952772361
 40
0.7520808646475975
 40
0.817652438602386
 40
0.8797220764054368
 40
0.9399655597309876
 40
1.0
 40
1.0
 40
1.0
 40
1.0
 10
931.5072908085479
 20
857.2206180001497
 30
0.0
 10
931.5075638304165
 20
857.1137638314552
 30
0.0
 10
931.5080937122528
 20
856.9063808719143
 30
0.0
 10
931.5219364564293
 20
856.6050248468263
 30
0.0
 10
931.540794129571
 20
856.32394980953
 30
0.0
 10
931.5651170945657
 20
856.0627988690384
 30
0.0
 10
931.601238119768
 20
855.8224559833016
 30
0.0
 10
931.6417107776371
 20
855.6012681362955
 30
0.0
 10
931.6909635539095
 20
855.4004058800355
 30
0.0
 10
931.7492378804626
 20
855.2184908841393
 30
0.0
 10
931.8156129590762
 20
855.0524358704357
 30
0.0
 10
931.8880835046078
 20
854.8979188072875
 30
0.0
 10
931.9659365855334
 20
854.7531143811485
 30
0.0
 10
932.0530660725116
 20
854.6193232762935
 30
0.0
 10
932.1479576456064
 20
854.4961091869841
 30
0.0
 10
932.2484679522064
 20
854.3812912845331
 30
0.0
 10
932.3583481447598
 20
854.2788981843374
 30
0.0
 10
932.5103566991443
 20
854.1560939442701
 30
0.0
 10
932.7110343549776
 20
854.0291930671739
 30
0.0
 10
932.9638811097916
 20
853.9186877189873
 30
0.0
 10
933.2236947120349
 20
853.8492421042848
 30
0.0
 10
933.4000404265194
 20
853.8404106621017
 30
0.0
 10
933.4880600393171
 20
853.8360026155343
 30
0.0
  0
SPLINE
  5
109
330
1F
100
AcDbEntity
  8
0
  6
Continuous
 62
     7
370
    25
100
AcDbSpline
210
0.0
220
0.0
230
1.0
 70
     8
 71
     3
 72
    19
 73
    15
 74
     0
 42
0.00000001
 43
0.00000001
 40
0.0
 40
0.0
 40
0.0
 40
0.0
 40
0.1128134007444572
 40
0.2253938839207276
 40
0.3395948145626994
 40
0.4596754102248647
 40
0.5217351900879328
 40
0.5839258387389143
 40
0.6481741447653692
 40
0.7138810381130626
 40
0.7810044549073875
 40
0.8514509275565524
 40
0.9240506926641744
 40
1.0
 40
1.0
 40
1.0
 40
1.0
 10
933.4880600393171
 20
853.8360026155343
 30
0.0
 10
933.5766490031017
 20
853.8396546859607
 30
0.0
 10
933.7536440275239
 20
853.8469512866511
 30
0.0
 10
934.0122355592823
 20
853.9173484006494
 30
0.0
 10
934.2632761766133
 20
854.0235644908521
 30
0.0
 10
934.4600120401078
 20
854.1491587889533
 30
0.0
 10
934.609686425254
 20
854.2687663991276
 30
0.0
 10
934.7169252597818
 20
854.3707427381286
 30
0.0
 10
934.8153527990578
 20
854.484927577686
 30
0.0
 10
934.9087061130112
 20
854.6081259683486
 30
0.0
 10
934.9943268574109
 20
854.7426916464602
 30
0.0
 10
935.0721854578571
 20
854.8879775327824
 30
0.0
 10
935.1432331093889
 20
855.044387082296
 30
0.0
 10
935.1837109287038
 20
855.1535750574179
 30
0.0
 10
935.2044061931632
 20
855.2094000514318
 30
0.0
  0
SPLINE
  5
10A
330
1F
100
AcDbEntity
  8
0
  6
Continuous
 62
     7
370
    25
100
AcDbSpline
210
0.0
220
0.0
230
1.0
 70
     8
 71
     3
 72
    15
 73
    11
 74
     0
 42
0.00000001
 43
0.00000001
 40
0.0
 40
0.0
 40
0.0
 40
0.0
 40
0.1105883385953369
 40
0.224541754053591
 40
0.3425034940501052
 40
0.464324098417359
 40
0.5907560327017657
 40
0.7222274753555104
 40
0.8588428362087219
 40
1.0
 40
1.0
 40
1.0
 40
1.0
 10
935.2044061931632
 20
855.2094000514318
 30
0.0
 10
935.2285245195491
 20
855.2807823130692
 30
0.0
 10
935.2774950654517
 20
855.4257189170542
 30
0.0
 10
935.3406076923563
 20
855.6505501218096
 30
0.0
 10
935.3903114619649
 20
855.8864421536678
 30
0.0
 10
935.4350277265349
 20
856.1319852775956
 30
0.0
 10
935.4655489971575
 20
856.3889903084778
 30
0.0
 10
935.4901154275192
 20
856.6566620431424
 30
0.0
 10
935.5045855690945
 20
856.9352022996806
 30
0.0
 10
935.506379285829
 20
857.1244479938412
 30
0.0
 10
935.5072908085479
 20
857.2206180001497
 30
0.0
  0
SPLINE
  5
10B
330
1F
100
AcDbEntity
  8
0
  6
Continuous
 62
     7
370
    25
100
AcDbSpline
210
0.0
220
0.0
230
1.0
 70
     8
 71
     3
 72
    27
 73
    23
 74
     0
 42
0.00000001
 43
0.00000001
 40
0.0
 40
0.0
 40
0.0
 40
0.0
 40
0.0603866193110626
 40
0.1208832485859964
 40
0.1827546186251401
 40
0.2478110297583505
 40
0.2812991000432497
 40
0.3150876241506567
 40
0.3497023955502757
 40
0.3848565811185573
 40
0.4209661972261024
 40
0.4585111882611395
 40
0.4971747221273131
 40
0.5376020478662706
 40
0.5805030184200131
 40
0.6274675400267061
 40
0.6783882095592453
 40
0.733983220592561
 40
0.7937467045508348
 40
0.8577136721607319
 40
0.9266978643613873
 40
1.0
 40
1.0
 40
1.0
 40
1.0
 10
933.4880600393171
 20
860.6052333847651
 30
0.0
 10
933.3995786859759
 20
860.6005900781428
 30
0.0
 10
933.2224547874499
 20
860.5912950059052
 30
0.0
 10
932.9608594623602
 20
860.5257104262672
 30
0.0
 10
932.7101066586063
 20
860.4113950755527
 30
0.0
 10
932.5106941450547
 20
860.2857896527756
 30
0.0
 10
932.3578626330374
 20
860.1661592266234
 30
0.0
 10
932.2502450481762
 20
860.0624187602041
 30
0.0
 10
932.1493395116786
 20
859.9489416073694
 30
0.0
 10
932.0563847685069
 20
859.8245943734257
 30
0.0
 10
931.9693235497817
 20
859.6909592481248
 30
0.0
 10
931.8893669496085
 20
859.546984928753
 30
0.0
 10
931.8173273389206
 20
859.3919418105233
 30
0.0
 10
931.75084839908
 20
859.2259613867084
 30
0.0
 10
931.692396312163
 20
859.0440620851414
 30
0.0
 10
931.6441815390659
 20
858.843447242642
 30
0.0
 10
931.5996397033633
 20
858.6229629185525
 30
0.0
 10
931.568107660162
 20
858.3813183289635
 30
0.0
 10
931.540076218421
 20
858.1201019784053
 30
0.0
 10
931.5220617088158
 20
857.838325251024
 30
0.0
 10
931.508047406029
 20
857.5364638101042
 30
0.0
 10
931.5075480589142
 20
857.3280085906696
 30
0.0
 10
931.5072908085479
 20
857.2206180001497
 30
0.0
  0
ENDSEC
  0
SECTION
  2
OBJECTS
  0
DICTIONARY
  5
C
330
0
100
AcDbDictionary
281
     1
  3
ACAD_DETAILVIEWSTYLE
350
113
  3
ACAD_GROUP
350
D
  3
ACAD_LAYOUT
350
1A
  3
ACAD_MATERIAL
350
43
  3
ACAD_MLEADERSTYLE
350
5B
  3
ACAD_MLINESTYLE
350
17
  3
ACAD_PLOTSETTINGS
350
19
  3
ACAD_PLOTSTYLENAME
350
E
  3
ACAD_SCALELIST
350
47
  3
ACAD_SECTIONVIEWSTYLE
350
114
  3
ACAD_TABLESTYLE
350
59
  3
ACAD_VISUALSTYLE
350
2A
  3
ACDB_RECOMPOSE_DATA
350
110
  3
AcDbVariableDictionary
350
10C
  0
SUN
  5
5D
330
29
100
AcDbSun
 90
        1
290
     0
 63
     7
421
 16777215
 40
1.0
291
     1
 91
  2455826
 92
 54000000
292
     0
 70
     2
 71
   256
280
     1
  0
DICTIONARY
  5
113
102
{ACAD_REACTORS
330
C
102
}
330
C
100
AcDbDictionary
281
     1
  0
DICTIONARY
  5
D
102
{ACAD_REACTORS
330
C
102
}
330
C
100
AcDbDictionary
281
     1
  0
DICTIONARY
  5
1A
102
{ACAD_REACTORS
330
C
102
}
330
C
100
AcDbDictionary
281
     1
  3
Layout1
350
1E
  3
Layout2
350
26
  3
Model
350
22
  0
DICTIONARY
  5
43
102
{ACAD_REACTORS
330
C
102
}
330
C
100
AcDbDictionary
281
     1
  3
ByBlock
350
45
  3
ByLayer
350
44
  3
Global
350
46
  0
DICTIONARY
  5
5B
102
{ACAD_REACTORS
330
C
102
}
330
C
100
AcDbDictionary
281
     1
  3
Standard
350
5C
  0
DICTIONARY
  5
17
102
{ACAD_REACTORS
330
C
102
}
330
C
100
AcDbDictionary
281
     1
  3
Standard
350
18
  0
DICTIONARY
  5
19
102
{ACAD_REACTORS
330
C
102
}
330
C
100
AcDbDictionary
281
     1
  0
ACDBDICTIONARYWDFLT
  5
E
102
{ACAD_REACTORS
330
C
102
}
330
C
100
AcDbDictionary
281
     1
  3
Normal
350
F
100
AcDbDictionaryWithDefault
340
F
  0
DICTIONARY
  5
47
102
{ACAD_REACTORS
330
C
102
}
330
C
100
AcDbDictionary
281
     1
  3
A0
350
48
  3
A1
350
49
  3
A2
350
4A
  3
A3
350
4B
  3
A4
350
4C
  3
A5
350
4D
  3
A6
350
4E
  3
A7
350
4F
  3
A8
350
50
  3
A9
350
51
  3
B0
350
52
  3
B1
350
53
  3
B2
350
54
  3
B3
350
55
  3
B4
350
56
  3
B5
350
57
  3
B6
350
58
  0
DICTIONARY
  5
114
102
{ACAD_REACTORS
330
C
102
}
330
C
100
AcDbDictionary
281
     1
  0
DICTIONARY
  5
59
102
{ACAD_REACTORS
330
C
102
}
330
C
100
AcDbDictionary
281
     1
  3
Standard
350
5A
  0
DICTIONARY
  5
2A
102
{ACAD_REACTORS
330
C
102
}
330
C
100
AcDbDictionary
281
     1
  3
2dWireframe
350
2F
  3
Basic
350
32
  3
Brighten
350
36
  3
ColorChange
350
3A
  3
Conceptual
350
34
  3
Dim
350
35
  3
EdgeColorOff
350
3D
  3
Facepattern
350
39
  3
Flat
350
2B
  3
FlatWithEdges
350
2C
  3
Gouraud
350
2D
  3
GouraudWithEdges
350
2E
  3
Hidden
350
31
  3
JitterOff
350
3B
  3
Linepattern
350
38
  3
OverhangOff
350
3C
  3
Realistic
350
33
  3
Shaded
350
42
  3
Shaded with edges
350
41
  3
Shades of Gray
350
3E
  3
Sketchy
350
3F
  3
Thicken
350
37
  3
Wireframe
350
30
  3
X-Ray
350
40
  0
XRECORD
  5
110
102
{ACAD_REACTORS
330
C
102
}
330
C
100
AcDbXrecord
280
     1
 90
        1
330
5A
  0
DICTIONARY
  5
10C
102
{ACAD_REACTORS
330
C
102
}
330
C
100
AcDbDictionary
281
     1
  3
CANNOSCALE
350
10D
  3
CENTEREXE
350
115
  3
CENTERLTYPEFILE
350
116
  3
CMLEADERSTYLE
350
112
  3
CTABLESTYLE
350
111
  0
LAYOUT
  5
1E
102
{ACAD_REACTORS
330
1A
102
}
330
1A
100
AcDbPlotSettings
  1

  2
none_device
  4

  6

 40
0.0
 41
0.0
 42
0.0
 43
0.0
 44
0.0
 45
0.0
 46
0.0
 47
0.0
 48
0.0
 49
0.0
140
0.0
141
0.0
142
1.0
143
1.0
 70
   688
 72
     1
 73
     0
 74
     5
  7

 75
    16
 76
     0
 77
     2
 78
   300
147
1.0
148
0.0
149
0.0
100
AcDbLayout
  1
Layout1
 70
     1
 71
     1
 10
0.0
 20
0.0
 11
420.0
 21
297.0
 12
0.0
 22
0.0
 32
0.0
 14
1.0000000000E+20
 24
1.0000000000E+20
 34
1.0000000000E+20
 15
-1.0000000000E+20
 25
-1.0000000000E+20
 35
-1.0000000000E+20
146
0.0
 13
0.0
 23
0.0
 33
0.0
 16
1.0
 26
0.0
 36
0.0
 17
0.0
 27
1.0
 37
0.0
 76
     0
330
1B
  0
LAYOUT
  5
26
102
{ACAD_REACTORS
330
1A
102
}
330
1A
100
AcDbPlotSettings
  1

  2
none_device
  4

  6

 40
0.0
 41
0.0
 42
0.0
 43
0.0
 44
0.0
 45
0.0
 46
0.0
 47
0.0
 48
0.0
 49
0.0
140
0.0
141
0.0
142
1.0
143
1.0
 70
   688
 72
     1
 73
     0
 74
     5
  7

 75
    16
 76
     0
 77
     2
 78
   300
147
1.0
148
0.0
149
0.0
100
AcDbLayout
  1
Layout2
 70
     1
 71
     2
 10
0.0
 20
0.0
 11
0.0
 21
0.0
 12
0.0
 22
0.0
 32
0.0
 14
0.0
 24
0.0
 34
0.0
 15
0.0
 25
0.0
 35
0.0
146
0.0
 13
0.0
 23
0.0
 33
0.0
 16
1.0
 26
0.0
 36
0.0
 17
0.0
 27
1.0
 37
0.0
 76
     0
330
23
  0
LAYOUT
  5
22
102
{ACAD_REACTORS
330
1A
102
}
330
1A
100
AcDbPlotSettings
  1

  2
none_device
  4
Letter_(8.50_x_11.00_Inches)
  6

 40
6.35
 41
6.35
 42
6.35000508
 43
6.35000508
 44
215.9
 45
279.4
 46
0.0
 47
0.0
 48
0.0
 49
0.0
140
0.0
141
0.0
142
1.0
143
1.0
 70
  1712
 72
     1
 73
     0
 74
     0
  7

 75
     0
 76
     0
 77
     2
 78
   300
147
1.0
148
0.0
149
0.0
100
AcDbLayout
  1
Model
 70
     1
 71
     0
 10
0.0
 20
0.0
 11
420.0
 21
297.0
 12
0.0
 22
0.0
 32
0.0
 14
0.0
 24
0.0
 34
0.0
 15
420.0
 25
297.0
 35
0.0
146
0.0
 13
0.0
 23
0.0
 33
0.0
 16
1.0
 26
0.0
 36
0.0
 17
0.0
 27
1.0
 37
0.0
 76
     0
330
1F
331
29
  0
MATERIAL
  5
45
102
{ACAD_REACTORS
330
43
102
}
330
43
100
AcDbMaterial
  1
ByBlock
 72
     1
 94
      127
  0
MATERIAL
  5
44
102
{ACAD_REACTORS
330
43
102
}
330
43
100
AcDbMaterial
  1
ByLayer
 72
     1
 94
      127
  0
MATERIAL
  5
46
102
{ACAD_REACTORS
330
43
102
}
330
43
100
AcDbMaterial
  1
Global
 72
     1
 94
      127
  0
MLEADERSTYLE
  5
5C
102
{ACAD_REACTORS
330
5B
102
}
330
5B
100
AcDbMLeaderStyle
179
     2
170
     2
171
     1
172
     0
 90
        2
 40
0.0
 41
0.0
173
     1
 91
-1056964608
340
14
 92
       -2
290
     1
 42
2.0
291
     1
 43
8.0
  3
Standard
341
0
 44
4.0
300

342
11
174
     1
178
     6
175
     1
176
     0
 93
-1056964608
 45
4.0
292
     0
297
     0
 46
4.0
343
0
 94
-1056964608
 47
1.0
 49
1.0
140
1.0
293
     1
141
0.0
294
     1
177
     0
142
1.0
295
     0
296
     0
143
3.75
271
     0
272
     9
273
     9
298
     0
  0
MLINESTYLE
  5
18
102
{ACAD_REACTORS
330
17
102
}
330
17
100
AcDbMlineStyle
  2
Standard
 70
     0
  3

 62
   256
 51
90.0
 52
90.0
 71
     2
 49
0.5
 62
   256
  6
BYLAYER
 49
-0.5
 62
   256
  6
BYLAYER
  0
ACDBPLACEHOLDER
  5
F
102
{ACAD_REACTORS
330
E
102
}
330
E
  0
SCALE
  5
48
102
{ACAD_REACTORS
330
47
102
}
330
47
100
AcDbScale
 70
     0
300
1:1
140
1.0
141
1.0
290
     1
  0
SCALE
  5
49
102
{ACAD_REACTORS
330
47
102
}
330
47
100
AcDbScale
 70
     0
300
1:2
140
1.0
141
2.0
290
     0
  0
SCALE
  5
4A
102
{ACAD_REACTORS
330
47
102
}
330
47
100
AcDbScale
 70
     0
300
1:4
140
1.0
141
4.0
290
     0
  0
SCALE
  5
4B
102
{ACAD_REACTORS
330
47
102
}
330
47
100
AcDbScale
 70
     0
300
1:5
140
1.0
141
5.0
290
     0
  0
SCALE
  5
4C
102
{ACAD_REACTORS
330
47
102
}
330
47
100
AcDbScale
 70
     0
300
1:8
140
1.0
141
8.0
290
     0
  0
SCALE
  5
4D
102
{ACAD_REACTORS
330
47
102
}
330
47
100
AcDbScale
 70
     0
300
1:10
140
1.0
141
10.0
290
     0
  0
SCALE
  5
4E
102
{ACAD_REACTORS
330
47
102
}
330
47
100
AcDbScale
 70
     0
300
1:16
140
1.0
141
16.0
290
     0
  0
SCALE
  5
4F
102
{ACAD_REACTORS
330
47
102
}
330
47
100
AcDbScale
 70
     0
300
1:20
140
1.0
141
20.0
290
     0
  0
SCALE
  5
50
102
{ACAD_REACTORS
330
47
102
}
330
47
100
AcDbScale
 70
     0
300
1:30
140
1.0
141
30.0
290
     0
  0
SCALE
  5
51
102
{ACAD_REACTORS
330
47
102
}
330
47
100
AcDbScale
 70
     0
300
1:40
140
1.0
141
40.0
290
     0
  0
SCALE
  5
52
102
{ACAD_REACTORS
330
47
102
}
330
47
100
AcDbScale
 70
     0
300
1:50
140
1.0
141
50.0
290
     0
  0
SCALE
  5
53
102
{ACAD_REACTORS
330
47
102
}
330
47
100
AcDbScale
 70
     0
300
1:100
140
1.0
141
100.0
290
     0
  0
SCALE
  5
54
102
{ACAD_REACTORS
330
47
102
}
330
47
100
AcDbScale
 70
     0
300
2:1
140
2.0
141
1.0
290
     0
  0
SCALE
  5
55
102
{ACAD_REACTORS
330
47
102
}
330
47
100
AcDbScale
 70
     0
300
4:1
140
4.0
141
1.0
290
     0
  0
SCALE
  5
56
102
{ACAD_REACTORS
330
47
102
}
330
47
100
AcDbScale
 70
     0
300
8:1
140
8.0
141
1.0
290
     0
  0
SCALE
  5
57
102
{ACAD_REACTORS
330
47
102
}
330
47
100
AcDbScale
 70
     0
300
10:1
140
10.0
141
1.0
290
     0
  0
SCALE
  5
58
102
{ACAD_REACTORS
330
47
102
}
330
47
100
AcDbScale
 70
     0
300
100:1
140
100.0
141
1.0
290
     0
  0
TABLESTYLE
  5
5A
102
{ACAD_REACTORS
330
59
102
}
102
{ACAD_XDICTIONARY
360
10E
102
}
330
59
100
AcDbTableStyle
  3
Standard
 70
     0
 71
     0
 40
0.06
 41
0.06
280
     0
281
     0
  7
Standard
140
4.5
170
     2
 62
     0
 63
   257
283
     0
 90
        4
 91
        0
  1

274
    -2
284
     1
 64
     0
275
    -2
285
     1
 65
     0
276
    -2
286
     1
 66
     0
277
    -2
287
     1
 67
     0
278
    -2
288
     1
 68
     0
279
    -2
289
     1
 69
     0
  7
Standard
140
6.0
170
     5
 62
     0
 63
   257
283
     0
 90
        4
 91
        0
  1

274
    -2
284
     1
 64
     0
275
    -2
285
     1
 65
     0
276
    -2
286
     1
 66
     0
277
    -2
287
     1
 67
     0
278
    -2
288
     1
 68
     0
279
    -2
289
     1
 69
     0
  7
Standard
140
4.5
170
     5
 62
     0
 63
   257
283
     0
 90
        4
 91
        0
  1

274
    -2
284
     1
 64
     0
275
    -2
285
     1
 65
     0
276
    -2
286
     1
 66
     0
277
    -2
287
     1
 67
     0
278
    -2
288
     1
 68
     0
279
    -2
289
     1
 69
     0
  0
VISUALSTYLE
  5
2F
102
{ACAD_REACTORS
330
2A
102
}
330
2A
100
AcDbVisualStyle
  2
2dWireframe
 70
     4
177
     3
291
     0
 70
    58
 90
        0
176
     1
 90
        2
176
     1
 90
        0
176
     1
 90
        0
176
     1
 40
0.6
176
     1
 40
30.0
176
     1
 62
     7
420
 16777215
176
     1
 90
        1
176
     1
 90
        4
176
     1
 62
     7
176
     1
 62
   257
176
     1
 90
        1
176
     1
 90
        1
176
     1
 40
1.0
176
     1
 90
        0
176
     1
 62
   257
176
     1
 40
1.0
176
     1
 90
        1
176
     1
 90
        6
176
     1
 90
        2
176
     1
 62
     7
176
     1
 90
        5
176
     1
 90
        0
176
     1
 90
        0
176
     1
290
     0
176
     1
 90
        1
176
     1
 40
0.0
176
     1
 90
        0
176
     1
290
     1
176
     1
290
     1
176
     1
290
     0
176
     1
290
     0
176
     1
290
     0
176
     1
290
     0
176
     1
290
     0
176
     1
290
     0
176
     1
290
     0
176
     1
 90
       50
176
     1
 40
0.0
176
     1
 40
1.0
176
     1
 90
        0
176
     1
 62
    18
420
        0
176
     1
 90
       50
176
     1
 90
        3
176
     1
 62
     5
420
      255
176
     1
290
     0
176
     1
 90
       50
176
     1
 90
       50
176
     1
 90
       50
176
     1
290
     0
176
     1
 90
       50
176
     1
 62
   256
176
     0
 40
1.0
176
     0
 90
        2
176
     1
  1
strokes_ogs.tif
176
     1
290
     0
176
     1
 40
1.0
176
     1
 40
1.0
176
     1
  0
VISUALSTYLE
  5
32
102
{ACAD_REACTORS
330
2A
102
}
330
2A
100
AcDbVisualStyle
  2
Basic
 70
     7
177
     3
291
     1
 70
    58
 90
        1
176
     1
 90
        0
176
     1
 90
        1
176
     1
 90
        0
176
     1
 40
0.6
176
     1
 40
30.0
176
     1
 62
     7
420
 16777215
176
     1
 90
        0
176
     1
 90
        4
176
     1
 62
     7
176
     1
 62
   257
176
     1
 90
        1
176
     1
 90
        1
176
     1
 40
1.0
176
     1
 90
        8
176
     1
 62
     7
176
     1
 40
1.0
176
     1
 90
        1
176
     1
 90
        6
176
     1
 90
        2
176
     1
 62
     7
176
     1
 90
        5
176
     1
 90
        0
176
     1
 90
        0
176
     1
290
     0
176
     1
 90
        1
176
     1
 40
0.0
176
     1
 90
        0
176
     1
290
     0
176
     1
290
     1
176
     1
290
     1
176
     1
290
     0
176
     1
290
     0
176
     1
290
     0
176
     1
290
     0
176
     1
290
     0
176
     1
290
     0
176
     1
 90
       50
176
     1
 40
0.0
176
     1
 40
1.0
176
     1
 90
        0
176
     1
 62
    18
420
        0
176
     1
 90
       50
176
     1
 90
        3
176
     1
 62
     5
420
      255
176
     1
290
     0
176
     1
 90
       50
176
     1
 90
       50
176
     1
 90
       50
176
     1
290
     0
176
     1
 90
       50
176
     1
 62
   256
176
     0
 40
1.0
176
     0
 90
        2
176
     1
  1
strokes_ogs.tif
176
     1
290
     0
176
     1
 40
1.0
176
     1
 40
1.0
176
     1
  0
VISUALSTYLE
  5
36
102
{ACAD_REACTORS
330
2A
102
}
330
2A
100
AcDbVisualStyle
  2
Brighten
 70
    12
177
     3
291
     1
 70
    58
 90
        2
176
     1
 90
        2
176
     1
 90
        0
176
     1
 90
        0
176
     1
 40
0.6
176
     1
 40
30.0
176
     1
 62
     7
420
 16777215
176
     1
 90
        1
176
     1
 90
        4
176
     1
 62
     7
176
     1
 62
   257
176
     1
 90
        1
176
     1
 90
        1
176
     1
 40
1.0
176
     1
 90
        8
176
     1
 62
     7
176
     1
 40
1.0
176
     1
 90
        1
176
     1
 90
        6
176
     1
 90
        2
176
     1
 62
     7
176
     1
 90
        5
176
     1
 90
        0
176
     1
 90
        0
176
     1
290
     0
176
     1
 90
        1
176
     1
 40
50.0
176
     1
 90
        0
176
     1
290
     0
176
     1
290
     1
176
     1
290
     1
176
     1
290
     0
176
     1
290
     0
176
     1
290
     0
176
     1
290
     0
176
     1
290
     0
176
     1
290
     0
176
     1
 90
       50
176
     1
 40
0.0
176
     1
 40
1.0
176
     1
 90
        0
176
     1
 62
    18
420
        0
176
     1
 90
       50
176
     1
 90
        3
176
     1
 62
     5
420
      255
176
     1
290
     0
176
     1
 90
       50
176
     1
 90
       50
176
     1
 90
       50
176
     1
290
     0
176
     1
 90
       50
176
     1
 62
   256
176
     0
 40
1.0
176
     0
 90
        2
176
     1
  1
strokes_ogs.tif
176
     1
290
     0
176
     1
 40
1.0
176
     1
 40
1.0
176
     1
  0
VISUALSTYLE
  5
3A
102
{ACAD_REACTORS
330
2A
102
}
330
2A
100
AcDbVisualStyle
  2
ColorChange
 70
    16
177
     3
291
     1
 70
    58
 90
        2
176
     1
 90
        2
176
     1
 90
        3
176
     1
 90
        0
176
     1
 40
0.6
176
     1
 40
30.0
176
     1
 62
     8
420
  8421504
176
     1
 90
        1
176
     1
 90
        4
176
     1
 62
     7
176
     1
 62
   257
176
     1
 90
        1
176
     1
 90
        1
176
     1
 40
1.0
176
     1
 90
        8
176
     1
 62
     8
420
  8421504
176
     1
 40
1.0
176
     1
 90
        1
176
     1
 90
        6
176
     1
 90
        2
176
     1
 62
     7
176
     1
 90
        5
176
     1
 90
        0
176
     1
 90
        0
176
     1
290
     0
176
     1
 90
        1
176
     1
 40
0.0
176
     1
 90
        0
176
     1
290
     0
176
     1
290
     1
176
     1
290
     1
176
     1
290
     0
176
     1
290
     0
176
     1
290
     0
176
     1
290
     0
176
     1
290
     0
176
     1
290
     0
176
     1
 90
       50
176
     1
 40
0.0
176
     1
 40
1.0
176
     1
 90
        0
176
     1
 62
    18
420
        0
176
     1
 90
       50
176
     1
 90
        3
176
     1
 62
     5
420
      255
176
     1
290
     0
176
     1
 90
       50
176
     1
 90
       50
176
     1
 90
       50
176
     1
290
     0
176
     1
 90
       50
176
     1
 62
   256
176
     0
 40
1.0
176
     0
 90
        2
176
     1
  1
strokes_ogs.tif
176
     1
290
     0
176
     1
 40
1.0
176
     1
 40
1.0
176
     1
  0
VISUALSTYLE
  5
34
102
{ACAD_REACTORS
330
2A
102
}
330
2A
100
AcDbVisualStyle
  2
Conceptual
 70
     9
177
     3
291
     0
 70
    58
 90
        3
176
     1
 90
        2
176
     1
 90
        0
176
     1
 90
        0
176
     1
 40
0.6
176
     1
 40
30.0
176
     1
 62
     7
420
 16777215
176
     1
 90
        2
176
     1
 90
        2
176
     1
 62
     7
176
     1
 62
   257
176
     1
 90
        1
176
     1
 90
        1
176
     1
 40
179.0
176
     1
 90
        8
176
     1
 62
     7
176
     1
 40
1.0
176
     1
 90
        1
176
     1
 90
        6
176
     1
 90
        2
176
     1
 62
     7
176
     1
 90
        3
176
     1
 90
        0
176
     1
 90
        0
176
     1
290
     0
176
     1
 90
        1
176
     1
 40
0.0
176
     1
 90
        0
176
     1
290
     0
176
     1
290
     1
176
     1
290
     1
176
     1
290
     0
176
     1
290
     0
176
     1
290
     0
176
     1
290
     0
176
     1
290
     0
176
     1
290
     0
176
     1
 90
       50
176
     1
 40
0.0
176
     1
 40
1.0
176
     1
 90
        0
176
     1
 62
    18
420
        0
176
     1
 90
       50
176
     1
 90
        3
176
     1
 62
     5
420
      255
176
     1
290
     0
176
     1
 90
       50
176
     1
 90
       50
176
     1
 90
       50
176
     1
290
     0
176
     1
 90
       50
176
     1
 62
   256
176
     0
 40
1.0
176
     0
 90
        2
176
     1
  1
strokes_ogs.tif
176
     1
290
     0
176
     1
 40
1.0
176
     1
 40
1.0
176
     1
  0
VISUALSTYLE
  5
35
102
{ACAD_REACTORS
330
2A
102
}
330
2A
100
AcDbVisualStyle
  2
Dim
 70
    11
177
     3
291
     1
 70
    58
 90
        2
176
     1
 90
        2
176
     1
 90
        0
176
     1
 90
        0
176
     1
 40
0.6
176
     1
 40
30.0
176
     1
 62
     7
420
 16777215
176
     1
 90
        1
176
     1
 90
        4
176
     1
 62
     7
176
     1
 62
   257
176
     1
 90
        1
176
     1
 90
        1
176
     1
 40
1.0
176
     1
 90
        8
176
     1
 62
     7
176
     1
 40
1.0
176
     1
 90
        1
176
     1
 90
        6
176
     1
 90
        2
176
     1
 62
     7
176
     1
 90
        5
176
     1
 90
        0
176
     1
 90
        0
176
     1
290
     0
176
     1
 90
        1
176
     1
 40
-50.0
176
     1
 90
        0
176
     1
290
     0
176
     1
290
     1
176
     1
290
     1
176
     1
290
     0
176
     1
290
     0
176
     1
290
     0
176
     1
290
     0
176
     1
290
     0
176
     1
290
     0
176
     1
 90
       50
176
     1
 40
0.0
176
     1
 40
1.0
176
     1
 90
        0
176
     1
 62
    18
420
        0
176
     1
 90
       50
176
     1
 90
        3
176
     1
 62
     5
420
      255
176
     1
290
     0
176
     1
 90
       50
176
     1
 90
       50
176
     1
 90
       50
176
     1
290
     0
176
     1
 90
       50
176
     1
 62
   256
176
     0
 40
1.0
176
     0
 90
        2
176
     1
  1
strokes_ogs.tif
176
     1
290
     0
176
     1
 40
1.0
176
     1
 40
1.0
176
     1
  0
VISUALSTYLE
  5
3D
102
{ACAD_REACTORS
330
2A
102
}
330
2A
100
AcDbVisualStyle
  2
EdgeColorOff
 70
    22
177
     3
291
     1
 70
    58
 90
        2
176
     0
 90
        2
176
     0
 90
        0
176
     0
 90
        0
176
     0
 40
0.6
176
     0
 40
30.0
176
     0
 62
     7
420
 16777215
176
     0
 90
        1
176
     0
 90
        4
176
     0
 62
     7
176
     0
 62
   257
176
     0
 90
        1
176
     0
 90
        1
176
     0
 40
1.0
176
     0
 90
        8
176
     2
 62
     7
176
     0
 40
1.0
176
     0
 90
        1
176
     0
 90
        6
176
     0
 90
        2
176
     0
 62
     7
176
     0
 90
        5
176
     0
 90
        0
176
     0
 90
        0
176
     0
290
     0
176
     0
 90
        1
176
     0
 40
0.0
176
     0
 90
        0
176
     0
290
     0
176
     0
290
     1
176
     0
290
     1
176
     0
290
     0
176
     0
290
     0
176
     0
290
     0
176
     0
290
     0
176
     0
290
     0
176
     0
290
     0
176
     0
 90
       50
176
     0
 40
0.0
176
     0
 40
1.0
176
     0
 90
        0
176
     0
 62
    18
420
        0
176
     0
 90
       50
176
     0
 90
        3
176
     0
 62
     5
420
      255
176
     0
290
     0
176
     0
 90
       50
176
     0
 90
       50
176
     0
 90
       50
176
     0
290
     0
176
     0
 90
       50
176
     0
 62
   256
176
     0
 40
1.0
176
     0
 90
        2
176
     0
  1
strokes_ogs.tif
176
     0
290
     0
176
     0
 40
1.0
176
     0
 40
1.0
176
     0
  0
VISUALSTYLE
  5
39
102
{ACAD_REACTORS
330
2A
102
}
330
2A
100
AcDbVisualStyle
  2
Facepattern
 70
    15
177
     3
291
     1
 70
    58
 90
        2
176
     1
 90
        2
176
     1
 90
        0
176
     1
 90
        0
176
     1
 40
0.6
176
     1
 40
30.0
176
     1
 62
     7
420
 16777215
176
     1
 90
        1
176
     1
 90
        4
176
     1
 62
     7
176
     1
 62
   257
176
     1
 90
        1
176
     1
 90
        1
176
     1
 40
1.0
176
     1
 90
        8
176
     1
 62
     7
176
     1
 40
1.0
176
     1
 90
        1
176
     1
 90
        6
176
     1
 90
        2
176
     1
 62
     7
176
     1
 90
        5
176
     1
 90
        0
176
     1
 90
        0
176
     1
290
     0
176
     1
 90
        1
176
     1
 40
0.0
176
     1
 90
        0
176
     1
290
     0
176
     1
290
     1
176
     1
290
     1
176
     1
290
     0
176
     1
290
     0
176
     1
290
     0
176
     1
290
     0
176
     1
290
     0
176
     1
290
     0
176
     1
 90
       50
176
     1
 40
0.0
176
     1
 40
1.0
176
     1
 90
        0
176
     1
 62
    18
420
        0
176
     1
 90
       50
176
     1
 90
        3
176
     1
 62
     5
420
      255
176
     1
290
     0
176
     1
 90
       50
176
     1
 90
       50
176
     1
 90
       50
176
     1
290
     0
176
     1
 90
       50
176
     1
 62
   256
176
     0
 40
1.0
176
     0
 90
        2
176
     1
  1
strokes_ogs.tif
176
     1
290
     0
176
     1
 40
1.0
176
     1
 40
1.0
176
     1
  0
VISUALSTYLE
  5
2B
102
{ACAD_REACTORS
330
2A
102
}
330
2A
100
AcDbVisualStyle
  2
Flat
 70
     0
177
     3
291
     1
 70
    58
 90
        2
176
     1
 90
        1
176
     1
 90
        1
176
     1
 90
        2
176
     1
 40
0.6
176
     1
 40
30.0
176
     1
 62
     7
420
 16777215
176
     1
 90
        0
176
     1
 90
        0
176
     1
 62
     7
176
     1
 62
   257
176
     1
 90
        1
176
     1
 90
        1
176
     1
 40
1.0
176
     1
 90
        8
176
     1
 62
     7
176
     1
 40
1.0
176
     1
 90
        1
176
     1
 90
        6
176
     1
 90
        2
176
     1
 62
     7
176
     1
 90
        5
176
     1
 90
        0
176
     1
 90
        0
176
     1
290
     0
176
     1
 90
       13
176
     1
 40
0.0
176
     1
 90
        0
176
     1
290
     0
176
     1
290
     1
176
     1
290
     1
176
     1
290
     0
176
     1
290
     0
176
     1
290
     0
176
     1
290
     0
176
     1
290
     0
176
     1
290
     0
176
     1
 90
       50
176
     1
 40
0.0
176
     1
 40
1.0
176
     1
 90
        0
176
     1
 62
    18
420
        0
176
     1
 90
       50
176
     1
 90
        3
176
     1
 62
     5
420
      255
176
     1
290
     0
176
     1
 90
       50
176
     1
 90
       50
176
     1
 90
       50
176
     1
290
     0
176
     1
 90
       50
176
     1
 62
   256
176
     0
 40
1.0
176
     0
 90
        2
176
     1
  1
strokes_ogs.tif
176
     1
290
     0
176
     1
 40
1.0
176
     1
 40
1.0
176
     1
  0
VISUALSTYLE
  5
2C
102
{ACAD_REACTORS
330
2A
102
}
330
2A
100
AcDbVisualStyle
  2
FlatWithEdges
 70
     1
177
     3
291
     1
 70
    58
 90
        2
176
     1
 90
        1
176
     1
 90
        1
176
     1
 90
        2
176
     1
 40
0.6
176
     1
 40
30.0
176
     1
 62
     7
420
 16777215
176
     1
 90
        1
176
     1
 90
        0
176
     1
 62
     7
176
     1
 62
   257
176
     1
 90
        1
176
     1
 90
        1
176
     1
 40
1.0
176
     1
 90
        0
176
     1
 62
   257
176
     1
 40
1.0
176
     1
 90
        1
176
     1
 90
        6
176
     1
 90
        2
176
     1
 62
     7
176
     1
 90
        5
176
     1
 90
        0
176
     1
 90
        0
176
     1
290
     0
176
     1
 90
       13
176
     1
 40
0.0
176
     1
 90
        0
176
     1
290
     0
176
     1
290
     1
176
     1
290
     1
176
     1
290
     0
176
     1
290
     0
176
     1
290
     0
176
     1
290
     0
176
     1
290
     0
176
     1
290
     0
176
     1
 90
       50
176
     1
 40
0.0
176
     1
 40
1.0
176
     1
 90
        0
176
     1
 62
    18
420
        0
176
     1
 90
       50
176
     1
 90
        3
176
     1
 62
     5
420
      255
176
     1
290
     0
176
     1
 90
       50
176
     1
 90
       50
176
     1
 90
       50
176
     1
290
     0
176
     1
 90
       50
176
     1
 62
   256
176
     0
 40
1.0
176
     0
 90
        2
176
     1
  1
strokes_ogs.tif
176
     1
290
     0
176
     1
 40
1.0
176
     1
 40
1.0
176
     1
  0
VISUALSTYLE
  5
2D
102
{ACAD_REACTORS
330
2A
102
}
330
2A
100
AcDbVisualStyle
  2
Gouraud
 70
     2
177
     3
291
     1
 70
    58
 90
        2
176
     1
 90
        2
176
     1
 90
        1
176
     1
 90
        2
176
     1
 40
0.6
176
     1
 40
30.0
176
     1
 62
     7
420
 16777215
176
     1
 90
        0
176
     1
 90
        0
176
     1
 62
     7
176
     1
 62
   257
176
     1
 90
        1
176
     1
 90
        1
176
     1
 40
1.0
176
     1
 90
        0
176
     1
 62
     7
176
     1
 40
1.0
176
     1
 90
        1
176
     1
 90
        6
176
     1
 90
        2
176
     1
 62
     7
176
     1
 90
        5
176
     1
 90
        0
176
     1
 90
        0
176
     1
290
     0
176
     1
 90
       13
176
     1
 40
0.0
176
     1
 90
        0
176
     1
290
     0
176
     1
290
     1
176
     1
290
     1
176
     1
290
     0
176
     1
290
     0
176
     1
290
     0
176
     1
290
     0
176
     1
290
     0
176
     1
290
     0
176
     1
 90
       50
176
     1
 40
0.0
176
     1
 40
1.0
176
     1
 90
        0
176
     1
 62
    18
420
        0
176
     1
 90
       50
176
     1
 90
        3
176
     1
 62
     5
420
      255
176
     1
290
     0
176
     1
 90
       50
176
     1
 90
       50
176
     1
 90
       50
176
     1
290
     0
176
     1
 90
       50
176
     1
 62
   256
176
     0
 40
1.0
176
     0
 90
        2
176
     1
  1
strokes_ogs.tif
176
     1
290
     0
176
     1
 40
1.0
176
     1
 40
1.0
176
     1
  0
VISUALSTYLE
  5
2E
102
{ACAD_REACTORS
330
2A
102
}
330
2A
100
AcDbVisualStyle
  2
GouraudWithEdges
 70
     3
177
     3
291
     1
 70
    58
 90
        2
176
     1
 90
        2
176
     1
 90
        1
176
     1
 90
        2
176
     1
 40
0.6
176
     1
 40
30.0
176
     1
 62
     7
420
 16777215
176
     1
 90
        1
176
     1
 90
        0
176
     1
 62
     7
176
     1
 62
   257
176
     1
 90
        1
176
     1
 90
        1
176
     1
 40
1.0
176
     1
 90
        0
176
     1
 62
   257
176
     1
 40
1.0
176
     1
 90
        1
176
     1
 90
        6
176
     1
 90
        2
176
     1
 62
     7
176
     1
 90
        5
176
     1
 90
        0
176
     1
 90
        0
176
     1
290
     0
176
     1
 90
       13
176
     1
 40
0.0
176
     1
 90
        0
176
     1
290
     0
176
     1
290
     1
176
     1
290
     1
176
     1
290
     0
176
     1
290
     0
176
     1
290
     0
176
     1
290
     0
176
     1
290
     0
176
     1
290
     0
176
     1
 90
       50
176
     1
 40
0.0
176
     1
 40
1.0
176
     1
 90
        0
176
     1
 62
    18
420
        0
176
     1
 90
       50
176
     1
 90
        3
176
     1
 62
     5
420
      255
176
     1
290
     0
176
     1
 90
       50
176
     1
 90
       50
176
     1
 90
       50
176
     1
290
     0
176
     1
 90
       50
176
     1
 62
   256
176
     0
 40
1.0
176
     0
 90
        2
176
     1
  1
strokes_ogs.tif
176
     1
290
     0
176
     1
 40
1.0
176
     1
 40
1.0
176
     1
  0
VISUALSTYLE
  5
31
102
{ACAD_REACTORS
330
2A
102
}
330
2A
100
AcDbVisualStyle
  2
Hidden
 70
     6
177
     3
291
     0
 70
    58
 90
        1
176
     1
 90
        2
176
     1
 90
        2
176
     1
 90
        0
176
     1
 40
0.6
176
     1
 40
30.0
176
     1
 62
     7
420
 16777215
176
     1
 90
        2
176
     1
 90
        2
176
     1
 62
     7
176
     1
 62
   257
176
     1
 90
        2
176
     1
 90
        1
176
     1
 40
40.0
176
     1
 90
        0
176
     1
 62
   257
176
     1
 40
1.0
176
     1
 90
        1
176
     1
 90
        6
176
     1
 90
        2
176
     1
 62
     7
176
     1
 90
        3
176
     1
 90
        0
176
     1
 90
        0
176
     1
290
     0
176
     1
 90
        1
176
     1
 40
0.0
176
     1
 90
        0
176
     1
290
     0
176
     1
290
     1
176
     1
290
     1
176
     1
290
     0
176
     1
290
     0
176
     1
290
     0
176
     1
290
     0
176
     1
290
     0
176
     1
290
     0
176
     1
 90
       50
176
     1
 40
0.0
176
     1
 40
1.0
176
     1
 90
        0
176
     1
 62
    18
420
        0
176
     1
 90
       50
176
     1
 90
        3
176
     1
 62
     5
420
      255
176
     1
290
     0
176
     1
 90
       50
176
     1
 90
       50
176
     1
 90
       50
176
     1
290
     0
176
     1
 90
       50
176
     1
 62
   256
176
     0
 40
1.0
176
     0
 90
        2
176
     1
  1
strokes_ogs.tif
176
     1
290
     0
176
     1
 40
1.0
176
     1
 40
1.0
176
     1
  0
VISUALSTYLE
  5
3B
102
{ACAD_REACTORS
330
2A
102
}
330
2A
100
AcDbVisualStyle
  2
JitterOff
 70
    20
177
     3
291
     1
 70
    58
 90
        2
176
     0
 90
        2
176
     0
 90
        0
176
     0
 90
        0
176
     0
 40
0.6
176
     0
 40
30.0
176
     0
 62
     7
420
 16777215
176
     0
 90
        1
176
     0
 90
        4
176
     0
 62
     7
176
     0
 62
   257
176
     0
 90
        1
176
     0
 90
        1
176
     0
 40
1.0
176
     0
 90
       10
176
     2
 62
     7
176
     0
 40
1.0
176
     0
 90
        1
176
     0
 90
        6
176
     0
 90
        2
176
     0
 62
     7
176
     0
 90
        5
176
     0
 90
        0
176
     0
 90
        0
176
     0
290
     0
176
     0
 90
        1
176
     0
 40
0.0
176
     0
 90
        0
176
     0
290
     0
176
     0
290
     1
176
     0
290
     1
176
     0
290
     0
176
     0
290
     0
176
     0
290
     0
176
     0
290
     0
176
     0
290
     0
176
     0
290
     0
176
     0
 90
       50
176
     0
 40
0.0
176
     0
 40
1.0
176
     0
 90
        0
176
     0
 62
    18
420
        0
176
     0
 90
       50
176
     0
 90
        3
176
     0
 62
     5
420
      255
176
     0
290
     0
176
     0
 90
       50
176
     0
 90
       50
176
     0
 90
       50
176
     0
290
     0
176
     0
 90
       50
176
     0
 62
   256
176
     0
 40
1.0
176
     0
 90
        2
176
     0
  1
strokes_ogs.tif
176
     0
290
     0
176
     0
 40
1.0
176
     0
 40
1.0
176
     0
  0
VISUALSTYLE
  5
38
102
{ACAD_REACTORS
330
2A
102
}
330
2A
100
AcDbVisualStyle
  2
Linepattern
 70
    14
177
     3
291
     1
 70
    58
 90
        2
176
     1
 90
        2
176
     1
 90
        0
176
     1
 90
        0
176
     1
 40
0.6
176
     1
 40
30.0
176
     1
 62
     7
420
 16777215
176
     1
 90
        1
176
     1
 90
        4
176
     1
 62
     7
176
     1
 62
   257
176
     1
 90
        7
176
     1
 90
        7
176
     1
 40
1.0
176
     1
 90
        8
176
     1
 62
     7
176
     1
 40
1.0
176
     1
 90
        1
176
     1
 90
        6
176
     1
 90
        2
176
     1
 62
     7
176
     1
 90
        5
176
     1
 90
        0
176
     1
 90
        0
176
     1
290
     0
176
     1
 90
        1
176
     1
 40
0.0
176
     1
 90
        0
176
     1
290
     0
176
     1
290
     1
176
     1
290
     1
176
     1
290
     0
176
     1
290
     0
176
     1
290
     0
176
     1
290
     0
176
     1
290
     0
176
     1
290
     0
176
     1
 90
       50
176
     1
 40
0.0
176
     1
 40
1.0
176
     1
 90
        0
176
     1
 62
    18
420
        0
176
     1
 90
       50
176
     1
 90
        3
176
     1
 62
     5
420
      255
176
     1
290
     0
176
     1
 90
       50
176
     1
 90
       50
176
     1
 90
       50
176
     1
290
     0
176
     1
 90
       50
176
     1
 62
   256
176
     0
 40
1.0
176
     0
 90
        2
176
     1
  1
strokes_ogs.tif
176
     1
290
     0
176
     1
 40
1.0
176
     1
 40
1.0
176
     1
  0
VISUALSTYLE
  5
3C
102
{ACAD_REACTORS
330
2A
102
}
330
2A
100
AcDbVisualStyle
  2
OverhangOff
 70
    21
177
     3
291
     1
 70
    58
 90
        2
176
     0
 90
        2
176
     0
 90
        0
176
     0
 90
        0
176
     0
 40
0.6
176
     0
 40
30.0
176
     0
 62
     7
420
 16777215
176
     0
 90
        1
176
     0
 90
        4
176
     0
 62
     7
176
     0
 62
   257
176
     0
 90
        1
176
     0
 90
        1
176
     0
 40
1.0
176
     0
 90
        9
176
     2
 62
     7
176
     0
 40
1.0
176
     0
 90
        1
176
     0
 90
        6
176
     0
 90
        2
176
     0
 62
     7
176
     0
 90
        5
176
     0
 90
        0
176
     0
 90
        0
176
     0
290
     0
176
     0
 90
        1
176
     0
 40
0.0
176
     0
 90
        0
176
     0
290
     0
176
     0
290
     1
176
     0
290
     1
176
     0
290
     0
176
     0
290
     0
176
     0
290
     0
176
     0
290
     0
176
     0
290
     0
176
     0
290
     0
176
     0
 90
       50
176
     0
 40
0.0
176
     0
 40
1.0
176
     0
 90
        0
176
     0
 62
    18
420
        0
176
     0
 90
       50
176
     0
 90
        3
176
     0
 62
     5
420
      255
176
     0
290
     0
176
     0
 90
       50
176
     0
 90
       50
176
     0
 90
       50
176
     0
290
     0
176
     0
 90
       50
176
     0
 62
   256
176
     0
 40
1.0
176
     0
 90
        2
176
     0
  1
strokes_ogs.tif
176
     0
290
     0
176
     0
 40
1.0
176
     0
 40
1.0
176
     0
  0
VISUALSTYLE
  5
33
102
{ACAD_REACTORS
330
2A
102
}
330
2A
100
AcDbVisualStyle
  2
Realistic
 70
     8
177
     3
291
     0
 70
    58
 90
        2
176
     1
 90
        3
176
     1
 90
        0
176
     1
 90
        2
176
     1
 40
0.6
176
     1
 40
30.0
176
     1
 62
     7
420
 16777215
176
     1
 90
        0
176
     1
 90
        0
176
     1
 62
     7
176
     1
 62
   257
176
     1
 90
        1
176
     1
 90
        1
176
     1
 40
1.0
176
     1
 90
        8
176
     1
 62
   257
176
     1
 40
1.0
176
     1
 90
        1
176
     1
 90
        6
176
     1
 90
        2
176
     1
 62
     7
176
     1
 90
        3
176
     1
 90
        0
176
     1
 90
        0
176
     1
290
     0
176
     1
 90
       13
176
     1
 40
0.0
176
     1
 90
        0
176
     1
290
     0
176
     1
290
     1
176
     1
290
     1
176
     1
290
     0
176
     1
290
     0
176
     1
290
     0
176
     1
290
     0
176
     1
290
     0
176
     1
290
     0
176
     1
 90
       50
176
     1
 40
0.0
176
     1
 40
1.0
176
     1
 90
        0
176
     1
 62
    18
420
        0
176
     1
 90
       50
176
     1
 90
        3
176
     1
 62
     5
420
      255
176
     1
290
     0
176
     1
 90
       50
176
     1
 90
       50
176
     1
 90
       50
176
     1
290
     0
176
     1
 90
       50
176
     1
 62
   256
176
     0
 40
1.0
176
     0
 90
        2
176
     1
  1
strokes_ogs.tif
176
     1
290
     0
176
     1
 40
1.0
176
     1
 40
1.0
176
     1
  0
VISUALSTYLE
  5
42
102
{ACAD_REACTORS
330
2A
102
}
330
2A
100
AcDbVisualStyle
  2
Shaded
 70
    27
177
     3
291
     0
 70
    58
 90
        2
176
     1
 90
        2
176
     1
 90
        1
176
     1
 90
        2
176
     1
 40
0.6
176
     1
 40
30.0
176
     1
 62
     7
420
 16777215
176
     1
 90
        0
176
     1
 90
        4
176
     1
 62
     7
176
     1
 62
   257
176
     1
 90
        1
176
     1
 90
        1
176
     1
 40
1.0
176
     1
 90
        8
176
     1
 62
   257
176
     1
 40
1.0
176
     1
 90
        1
176
     1
 90
        6
176
     1
 90
        2
176
     1
 62
     8
420
  7895160
176
     1
 90
        3
176
     1
 90
        0
176
     1
 90
        0
176
     1
290
     0
176
     1
 90
        5
176
     1
 40
0.0
176
     1
 90
        0
176
     1
290
     0
176
     1
290
     1
176
     1
290
     1
176
     1
290
     0
176
     1
290
     0
176
     1
290
     0
176
     1
290
     0
176
     1
290
     0
176
     1
290
     0
176
     1
 90
       50
176
     1
 40
0.0
176
     1
 40
1.0
176
     1
 90
        0
176
     1
 62
    18
420
        0
176
     1
 90
       50
176
     1
 90
        3
176
     1
 62
     5
420
      255
176
     1
290
     0
176
     1
 90
       50
176
     1
 90
       50
176
     1
 90
       50
176
     1
290
     0
176
     1
 90
       50
176
     1
 62
   256
176
     0
 40
1.0
176
     0
 90
        2
176
     1
  1
strokes_ogs.tif
176
     1
290
     0
176
     1
 40
1.0
176
     1
 40
1.0
176
     1
  0
VISUALSTYLE
  5
41
102
{ACAD_REACTORS
330
2A
102
}
330
2A
100
AcDbVisualStyle
  2
Shaded with edges
 70
    26
177
     3
291
     0
 70
    58
 90
        2
176
     1
 90
        2
176
     1
 90
        1
176
     1
 90
        2
176
     1
 40
0.6
176
     1
 40
30.0
176
     1
 62
     7
420
 16777215
176
     1
 90
        1
176
     1
 90
       10
176
     1
 62
     7
176
     1
 62
   257
176
     1
 90
        2
176
     1
 90
        1
176
     1
 40
1.0
176
     1
 90
        8
176
     1
 62
   257
176
     1
 40
1.0
176
     1
 90
        1
176
     1
 90
        6
176
     1
 90
        2
176
     1
 62
     7
176
     1
 90
        3
176
     1
 90
        0
176
     1
 90
        0
176
     1
290
     0
176
     1
 90
        5
176
     1
 40
0.0
176
     1
 90
        0
176
     1
290
     0
176
     1
290
     1
176
     1
290
     1
176
     1
290
     0
176
     1
290
     0
176
     1
290
     0
176
     1
290
     0
176
     1
290
     0
176
     1
290
     0
176
     1
 90
       50
176
     1
 40
0.0
176
     1
 40
1.0
176
     1
 90
        0
176
     1
 62
    18
420
        0
176
     1
 90
       50
176
     1
 90
        3
176
     1
 62
     5
420
      255
176
     1
290
     0
176
     1
 90
       50
176
     1
 90
       50
176
     1
 90
       50
176
     1
290
     0
176
     1
 90
       50
176
     1
 62
   256
176
     0
 40
1.0
176
     0
 90
        2
176
     1
  1
strokes_ogs.tif
176
     1
290
     0
176
     1
 40
1.0
176
     1
 40
1.0
176
     1
  0
VISUALSTYLE
  5
3E
102
{ACAD_REACTORS
330
2A
102
}
330
2A
100
AcDbVisualStyle
  2
Shades of Gray
 70
    23
177
     3
291
     0
 70
    58
 90
        2
176
     1
 90
        2
176
     1
 90
        3
176
     1
 90
        0
176
     1
 40
0.6
176
     1
 40
30.0
176
     1
 62
     7
420
 16777215
176
     1
 90
        2
176
     1
 90
        2
176
     1
 62
     7
176
     1
 62
     7
176
     1
 90
        1
176
     1
 90
        1
176
     1
 40
40.0
176
     1
 90
        8
176
     1
 62
     7
176
     1
 40
1.0
176
     1
 90
        1
176
     1
 90
        6
176
     1
 90
        2
176
     1
 62
     7
176
     1
 90
        3
176
     1
 90
        0
176
     1
 90
        0
176
     1
290
     0
176
     1
 90
        1
176
     1
 40
0.0
176
     1
 90
        0
176
     1
290
     0
176
     1
290
     1
176
     1
290
     1
176
     1
290
     0
176
     1
290
     0
176
     1
290
     0
176
     1
290
     0
176
     1
290
     0
176
     1
290
     0
176
     1
 90
       50
176
     1
 40
0.0
176
     1
 40
1.0
176
     1
 90
        0
176
     1
 62
    18
420
        0
176
     1
 90
       50
176
     1
 90
        3
176
     1
 62
     5
420
      255
176
     1
290
     0
176
     1
 90
       50
176
     1
 90
       50
176
     1
 90
       50
176
     1
290
     0
176
     1
 90
       50
176
     1
 62
   256
176
     0
 40
1.0
176
     0
 90
        2
176
     1
  1
strokes_ogs.tif
176
     1
290
     0
176
     1
 40
1.0
176
     1
 40
1.0
176
     1
  0
VISUALSTYLE
  5
3F
102
{ACAD_REACTORS
330
2A
102
}
330
2A
100
AcDbVisualStyle
  2
Sketchy
 70
    24
177
     3
291
     0
 70
    58
 90
        1
176
     1
 90
        2
176
     1
 90
        2
176
     1
 90
        0
176
     1
 40
0.6
176
     1
 40
30.0
176
     1
 62
     7
420
 16777215
176
     1
 90
        2
176
     1
 90
        2
176
     1
 62
     7
176
     1
 62
     7
176
     1
 90
        1
176
     1
 90
        1
176
     1
 40
40.0
176
     1
 90
       11
176
     1
 62
     7
176
     1
 40
1.0
176
     1
 90
        1
176
     1
 90
        6
176
     1
 90
        2
176
     1
 62
     7
176
     1
 90
        6
176
     1
 90
        0
176
     1
 90
        0
176
     1
290
     0
176
     1
 90
        1
176
     1
 40
0.0
176
     1
 90
        0
176
     1
290
     0
176
     1
290
     1
176
     1
290
     1
176
     1
290
     0
176
     1
290
     0
176
     1
290
     0
176
     1
290
     0
176
     1
290
     0
176
     1
290
     0
176
     1
 90
       50
176
     1
 40
0.0
176
     1
 40
1.0
176
     1
 90
        0
176
     1
 62
    18
420
        0
176
     1
 90
       50
176
     1
 90
        3
176
     1
 62
     5
420
      255
176
     1
290
     0
176
     1
 90
       50
176
     1
 90
       50
176
     1
 90
       50
176
     1
290
     0
176
     1
 90
       50
176
     1
 62
   256
176
     0
 40
1.0
176
     0
 90
        2
176
     1
  1
strokes_ogs.tif
176
     1
290
     0
176
     1
 40
1.0
176
     1
 40
1.0
176
     1
  0
VISUALSTYLE
  5
37
102
{ACAD_REACTORS
330
2A
102
}
330
2A
100
AcDbVisualStyle
  2
Thicken
 70
    13
177
     3
291
     1
 70
    58
 90
        2
176
     1
 90
        2
176
     1
 90
        0
176
     1
 90
        0
176
     1
 40
0.6
176
     1
 40
30.0
176
     1
 62
     7
420
 16777215
176
     1
 90
        1
176
     1
 90
        4
176
     1
 62
     7
176
     1
 62
   257
176
     1
 90
        1
176
     1
 90
        1
176
     1
 40
1.0
176
     1
 90
       12
176
     1
 62
     7
176
     1
 40
1.0
176
     1
 90
        1
176
     1
 90
        6
176
     1
 90
        2
176
     1
 62
     7
176
     1
 90
        5
176
     1
 90
        0
176
     1
 90
        0
176
     1
290
     0
176
     1
 90
        1
176
     1
 40
0.0
176
     1
 90
        0
176
     1
290
     0
176
     1
290
     1
176
     1
290
     1
176
     1
290
     0
176
     1
290
     0
176
     1
290
     0
176
     1
290
     0
176
     1
290
     0
176
     1
290
     0
176
     1
 90
       50
176
     1
 40
0.0
176
     1
 40
1.0
176
     1
 90
        0
176
     1
 62
    18
420
        0
176
     1
 90
       50
176
     1
 90
        3
176
     1
 62
     5
420
      255
176
     1
290
     0
176
     1
 90
       50
176
     1
 90
       50
176
     1
 90
       50
176
     1
290
     0
176
     1
 90
       50
176
     1
 62
   256
176
     0
 40
1.0
176
     0
 90
        2
176
     1
  1
strokes_ogs.tif
176
     1
290
     0
176
     1
 40
1.0
176
     1
 40
1.0
176
     1
  0
VISUALSTYLE
  5
30
102
{ACAD_REACTORS
330
2A
102
}
330
2A
100
AcDbVisualStyle
  2
Wireframe
 70
     5
177
     3
291
     0
 70
    58
 90
        0
176
     1
 90
        2
176
     1
 90
        0
176
     1
 90
        0
176
     1
 40
0.6
176
     1
 40
30.0
176
     1
 62
     7
420
 16777215
176
     1
 90
        1
176
     1
 90
        4
176
     1
 62
     7
176
     1
 62
   257
176
     1
 90
        1
176
     1
 90
        1
176
     1
 40
1.0
176
     1
 90
        0
176
     1
 62
   257
176
     1
 40
1.0
176
     1
 90
        1
176
     1
 90
        6
176
     1
 90
        2
176
     1
 62
     7
176
     1
 90
        3
176
     1
 90
        0
176
     1
 90
        0
176
     1
290
     0
176
     1
 90
        1
176
     1
 40
0.0
176
     1
 90
        0
176
     1
290
     0
176
     1
290
     1
176
     1
290
     1
176
     1
290
     0
176
     1
290
     0
176
     1
290
     0
176
     1
290
     0
176
     1
290
     0
176
     1
290
     0
176
     1
 90
       50
176
     1
 40
0.0
176
     1
 40
1.0
176
     1
 90
        0
176
     1
 62
    18
420
        0
176
     1
 90
       50
176
     1
 90
        3
176
     1
 62
     5
420
      255
176
     1
290
     0
176
     1
 90
       50
176
     1
 90
       50
176
     1
 90
       50
176
     1
290
     0
176
     1
 90
       50
176
     1
 62
   256
176
     0
 40
1.0
176
     0
 90
        2
176
     1
  1
strokes_ogs.tif
176
     1
290
     0
176
     1
 40
1.0
176
     1
 40
1.0
176
     1
  0
VISUALSTYLE
  5
40
102
{ACAD_REACTORS
330
2A
102
}
330
2A
100
AcDbVisualStyle
  2
X-Ray
 70
    25
177
     3
291
     0
 70
    58
 90
        2
176
     1
 90
        2
176
     1
 90
        1
176
     1
 90
        1
176
     1
 40
0.5
176
     1
 40
30.0
176
     1
 62
     7
420
 16777215
176
     1
 90
        1
176
     1
 90
        0
176
     1
 62
     7
176
     1
 62
   257
176
     1
 90
        1
176
     1
 90
        1
176
     1
 40
1.0
176
     1
 90
        8
176
     1
 62
     7
176
     1
 40
1.0
176
     1
 90
        1
176
     1
 90
        6
176
     1
 90
        2
176
     1
 62
     7
176
     1
 90
        3
176
     1
 90
        0
176
     1
 90
        0
176
     1
290
     0
176
     1
 90
       13
176
     1
 40
0.0
176
     1
 90
        0
176
     1
290
     0
176
     1
290
     1
176
     1
290
     1
176
     1
290
     0
176
     1
290
     0
176
     1
290
     0
176
     1
290
     0
176
     1
290
     0
176
     1
290
     0
176
     1
 90
       50
176
     1
 40
0.0
176
     1
 40
1.0
176
     1
 90
        0
176
     1
 62
    18
420
        0
176
     1
 90
       50
176
     1
 90
        3
176
     1
 62
     5
420
      255
176
     1
290
     0
176
     1
 90
       50
176
     1
 90
       50
176
     1
 90
       50
176
     1
290
     0
176
     1
 90
       50
176
     1
 62
   256
176
     0
 40
1.0
176
     0
 90
        2
176
     1
  1
strokes_ogs.tif
176
     1
290
     0
176
     1
 40
1.0
176
     1
 40
1.0
176
     1
  0
DICTIONARYVAR
  5
10D
102
{ACAD_REACTORS
330
10C
102
}
330
10C
100
DictionaryVariables
280
     0
  1
1:1
  0
DICTIONARYVAR
  5
115
102
{ACAD_REACTORS
330
10C
102
}
330
10C
100
DictionaryVariables
280
     0
  1
3.500000
  0
DICTIONARYVAR
  5
116
102
{ACAD_REACTORS
330
10C
102
}
330
10C
100
DictionaryVariables
280
     0
  1
acadiso.lin
  0
DICTIONARYVAR
  5
112
102
{ACAD_REACTORS
330
10C
102
}
330
10C
100
DictionaryVariables
280
     0
  1
Standard
  0
DICTIONARYVAR
  5
111
102
{ACAD_REACTORS
330
10C
102
}
330
10C
100
DictionaryVariables
280
     0
  1
Standard
  0
DICTIONARY
  5
10E
330
5A
100
AcDbDictionary
280
     1
281
     1
  3
ACAD_ROUNDTRIP_2008_TABLESTYLE_CELLSTYLEMAP
360
10F
  0
CELLSTYLEMAP
  5
10F
102
{ACAD_REACTORS
330
10E
102
}
330
10E
100
AcDbCellStyleMap
 90
        3
300
CELLSTYLE
  1
TABLEFORMAT_BEGIN
 90
        5
170
     1
 91
        0
 92
    32768
 62
   257
 93
        1
300
CONTENTFORMAT
  1
CONTENTFORMAT_BEGIN
 90
        0
 91
        0
 92
        4
 93
        0
300

 40
0.0
140
1.0
 94
        5
 62
     0
340
11
144
6.0
309
CONTENTFORMAT_END
171
     1
301
MARGIN
  1
CELLMARGIN_BEGIN
 40
1.5
 40
1.5
 40
1.5
 40
1.5
 40
1.5
 40
1.5
309
CELLMARGIN_END
 94
        6
 95
        1
302
GRIDFORMAT
  1
GRIDFORMAT_BEGIN
 90
        0
 91
        1
 62
     0
 92
       -2
340
14
 93
        0
 40
0.045
309
GRIDFORMAT_END
 95
        2
302
GRIDFORMAT
  1
GRIDFORMAT_BEGIN
 90
        0
 91
        1
 62
     0
 92
       -2
340
14
 93
        0
 40
0.045
309
GRIDFORMAT_END
 95
        4
302
GRIDFORMAT
  1
GRIDFORMAT_BEGIN
 90
        0
 91
        1
 62
     0
 92
       -2
340
14
 93
        0
 40
0.045
309
GRIDFORMAT_END
 95
        8
302
GRIDFORMAT
  1
GRIDFORMAT_BEGIN
 90
        0
 91
        1
 62
     0
 92
       -2
340
14
 93
        0
 40
0.045
309
GRIDFORMAT_END
 95
       16
302
GRIDFORMAT
  1
GRIDFORMAT_BEGIN
 90
        0
 91
        1
 62
     0
 92
       -2
340
14
 93
        0
 40
0.045
309
GRIDFORMAT_END
 95
       32
302
GRIDFORMAT
  1
GRIDFORMAT_BEGIN
 90
        0
 91
        1
 62
     0
 92
       -2
340
14
 93
        0
 40
0.045
309
GRIDFORMAT_END
309
TABLEFORMAT_END
  1
CELLSTYLE_BEGIN
 90
        1
 91
        1
300
_TITLE
309
CELLSTYLE_END
300
CELLSTYLE
  1
TABLEFORMAT_BEGIN
 90
        5
170
     1
 91
        0
 92
        0
 62
   257
 93
        1
300
CONTENTFORMAT
  1
CONTENTFORMAT_BEGIN
 90
        0
 91
        0
 92
        4
 93
        0
300

 40
0.0
140
1.0
 94
        5
 62
     0
340
11
144
4.5
309
CONTENTFORMAT_END
171
     1
301
MARGIN
  1
CELLMARGIN_BEGIN
 40
1.5
 40
1.5
 40
1.5
 40
1.5
 40
1.5
 40
1.5
309
CELLMARGIN_END
 94
        6
 95
        1
302
GRIDFORMAT
  1
GRIDFORMAT_BEGIN
 90
        0
 91
        1
 62
     0
 92
       -2
340
14
 93
        0
 40
0.045
309
GRIDFORMAT_END
 95
        2
302
GRIDFORMAT
  1
GRIDFORMAT_BEGIN
 90
        0
 91
        1
 62
     0
 92
       -2
340
14
 93
        0
 40
0.045
309
GRIDFORMAT_END
 95
        4
302
GRIDFORMAT
  1
GRIDFORMAT_BEGIN
 90
        0
 91
        1
 62
     0
 92
       -2
340
14
 93
        0
 40
0.045
309
GRIDFORMAT_END
 95
        8
302
GRIDFORMAT
  1
GRIDFORMAT_BEGIN
 90
        0
 91
        1
 62
     0
 92
       -2
340
14
 93
        0
 40
0.045
309
GRIDFORMAT_END
 95
       16
302
GRIDFORMAT
  1
GRIDFORMAT_BEGIN
 90
        0
 91
        1
 62
     0
 92
       -2
340
14
 93
        0
 40
0.045
309
GRIDFORMAT_END
 95
       32
302
GRIDFORMAT
  1
GRIDFORMAT_BEGIN
 90
        0
 91
        1
 62
     0
 92
       -2
340
14
 93
        0
 40
0.045
309
GRIDFORMAT_END
309
TABLEFORMAT_END
  1
CELLSTYLE_BEGIN
 90
        2
 91
        1
300
_HEADER
309
CELLSTYLE_END
300
CELLSTYLE
  1
TABLEFORMAT_BEGIN
 90
        5
170
     1
 91
        0
 92
        0
 62
   257
 93
        1
300
CONTENTFORMAT
  1
CONTENTFORMAT_BEGIN
 90
        0
 91
        0
 92
        4
 93
        0
300

 40
0.0
140
1.0
 94
        2
 62
     0
340
11
144
4.5
309
CONTENTFORMAT_END
171
     1
301
MARGIN
  1
CELLMARGIN_BEGIN
 40
1.5
 40
1.5
 40
1.5
 40
1.5
 40
1.5
 40
1.5
309
CELLMARGIN_END
 94
        6
 95
        1
302
GRIDFORMAT
  1
GRIDFORMAT_BEGIN
 90
        0
 91
        1
 62
     0
 92
       -2
340
14
 93
        0
 40
0.045
309
GRIDFORMAT_END
 95
        2
302
GRIDFORMAT
  1
GRIDFORMAT_BEGIN
 90
        0
 91
        1
 62
     0
 92
       -2
340
14
 93
        0
 40
0.045
309
GRIDFORMAT_END
 95
        4
302
GRIDFORMAT
  1
GRIDFORMAT_BEGIN
 90
        0
 91
        1
 62
     0
 92
       -2
340
14
 93
        0
 40
0.045
309
GRIDFORMAT_END
 95
        8
302
GRIDFORMAT
  1
GRIDFORMAT_BEGIN
 90
        0
 91
        1
 62
     0
 92
       -2
340
14
 93
        0
 40
0.045
309
GRIDFORMAT_END
 95
       16
302
GRIDFORMAT
  1
GRIDFORMAT_BEGIN
 90
        0
 91
        1
 62
     0
 92
       -2
340
14
 93
        0
 40
0.045
309
GRIDFORMAT_END
 95
       32
302
GRIDFORMAT
  1
GRIDFORMAT_BEGIN
 90
        0
 91
        1
 62
     0
 92
       -2
340
14
 93
        0
 40
0.045
309
GRIDFORMAT_END
309
TABLEFORMAT_END
  1
CELLSTYLE_BEGIN
 90
        3
 91
        2
300
_DATA
309
CELLSTYLE_END
  0
ENDSEC
  0
EOF
