  0
SECTION
  2
HEADER
  9
$ACADVER
  1
AC1027
  9
$ACADMAINTVER
 70
   105
  9
$DWGCODEPAGE
  3
ANSI_1252
  9
$LASTSAVEDBY
  1
Nick
  9
$REQUIREDVERSIONS
160
                 0
  9
$INSBASE
 10
0.0
 20
0.0
 30
0.0
  9
$EXTMIN
 10
0.0
 20
0.0
 30
0.0
  9
$EXTMAX
 10
420.0
 20
297.0
 30
0.0
  9
$LIMMIN
 10
0.0
 20
0.0
  9
$LIMMAX
 10
420.0
 20
297.0
  9
$ORTHOMODE
 70
     0
  9
$REGENMODE
 70
     1
  9
$FILLMODE
 70
     1
  9
$QTEXTMODE
 70
     0
  9
$MIRRTEXT
 70
     1
  9
$LTSCALE
 40
1.0
  9
$ATTMODE
 70
     1
  9
$TEXTSIZE
 40
4.2333333333
  9
$TRACEWID
 40
1.0
  9
$TEXTSTYLE
  7
Standard
  9
$CLAYER
  8
0
  9
$CELTYPE
  6
ByLayer
  9
$CECOLOR
 62
   256
  9
$CELTSCALE
 40
1.0
  9
$DISPSILH
 70
     0
  9
$DIMSCALE
 40
1.0
  9
$DIMASZ
 40
3.302
  9
$DIMEXO
 40
1.0
  9
$DIMDLI
 40
3.75
  9
$DIMRND
 40
0.0
  9
$DIMDLE
 40
0.0
  9
$DIMEXE
 40
1.0
  9
$DIMTP
 40
0.0
  9
$DIMTM
 40
0.0
  9
$DIMTXT
 40
4.2333333333
  9
$DIMCEN
 40
2.5
  9
$DIMTSZ
 40
0.0
  9
$DIMTOL
 70
     0
  9
$DIMLIM
 70
     0
  9
$DIMTIH
 70
     1
  9
$DIMTOH
 70
     1
  9
$DIMSE1
 70
     0
  9
$DIMSE2
 70
     0
  9
$DIMTAD
 70
     1
  9
$DIMZIN
 70
     1
  9
$DIMBLK
  1

  9
$DIMASO
 70
     1
  9
$DIMSHO
 70
     1
  9
$DIMPOST
  1

  9
$DIMAPOST
  1

  9
$DIMALT
 70
     0
  9
$DIMALTD
 70
     3
  9
$DIMALTF
 40
0.0393700787
  9
$DIMLFAC
 40
1.0
  9
$DIMTOFL
 70
     1
  9
$DIMTVP
 40
0.0
  9
$DIMTIX
 70
     0
  9
$DIMSOXD
 70
     0
  9
$DIMSAH
 70
     0
  9
$DIMBLK1
  1

  9
$DIMBLK2
  1

  9
$DIMSTYLE
  2
ISO-25
  9
$DIMCLRD
 70
     0
  9
$DIMCLRE
 70
     0
  9
$DIMCLRT
 70
     0
  9
$DIMTFAC
 40
1.0
  9
$DIMGAP
 40
1.524
  9
$DIMJUST
 70
     0
  9
$DIMSD1
 70
     0
  9
$DIMSD2
 70
     0
  9
$DIMTOLJ
 70
     0
  9
$DIMTZIN
 70
     1
  9
$DIMALTZ
 70
     0
  9
$DIMALTTZ
 70
     0
  9
$DIMUPT
 70
     0
  9
$DIMDEC
 70
     0
  9
$DIMTDEC
 70
     0
  9
$DIMALTU
 70
     2
  9
$DIMALTTD
 70
     3
  9
$DIMTXSTY
  7
Standard
  9
$DIMAUNIT
 70
     0
  9
$DIMADEC
 70
     2
  9
$DIMALTRND
 40
0.0
  9
$DIMAZIN
 70
     0
  9
$DIMDSEP
 70
    44
  9
$DIMATFIT
 70
     3
  9
$DIMFRAC
 70
     0
  9
$DIMLDRBLK
  1

  9
$DIMLUNIT
 70
     2
  9
$DIMLWD
 70
    -2
  9
$DIMLWE
 70
    -2
  9
$DIMTMOVE
 70
     0
  9
$DIMFXL
 40
1.0
  9
$DIMFXLON
 70
     0
  9
$DIMJOGANG
 40
0.7853981634
  9
$DIMTFILL
 70
     0
  9
$DIMTFILLCLR
 70
     0
  9
$DIMARCSYM
 70
     0
  9
$DIMLTYPE
  6

  9
$DIMLTEX1
  6

  9
$DIMLTEX2
  6

  9
$DIMTXTDIRECTION
 70
     0
  9
$LUNITS
 70
     2
  9
$LUPREC
 70
     0
  9
$SKETCHINC
 40
1.0
  9
$FILLETRAD
 40
0.0
  9
$AUNITS
 70
     0
  9
$AUPREC
 70
     2
  9
$MENU
  1
.
  9
$ELEVATION
 40
0.0
  9
$PELEVATION
 40
0.0
  9
$THICKNESS
 40
0.0
  9
$LIMCHECK
 70
     0
  9
$CHAMFERA
 40
0.0
  9
$CHAMFERB
 40
0.0
  9
$CHAMFERC
 40
0.0
  9
$CHAMFERD
 40
0.0
  9
$SKPOLY
 70
     0
  9
$TDCREATE
 40
2460934.571707778
  9
$TDUCREATE
 40
2460934.155041111
  9
$TDUPDATE
 40
2460934.571707963
  9
$TDUUPDATE
 40
2460934.155041297
  9
$TDINDWG
 40
0.0000000116
  9
$TDUSRTIMER
 40
0.0000000116
  9
$USRTIMER
 70
     1
  9
$ANGBASE
 50
0.0
  9
$ANGDIR
 70
     0
  9
$PDMODE
 70
     0
  9
$PDSIZE
 40
-1.0
  9
$PLINEWID
 40
0.0
  9
$SPLFRAME
 70
     0
  9
$SPLINETYPE
 70
     6
  9
$SPLINESEGS
 70
     8
  9
$HANDSEED
  5
117
  9
$SURFTAB1
 70
     6
  9
$SURFTAB2
 70
     6
  9
$SURFTYPE
 70
     6
  9
$SURFU
 70
     6
  9
$SURFV
 70
     6
  9
$UCSBASE
  2

  9
$UCSNAME
  2

  9
$UCSORG
 10
0.0
 20
0.0
 30
0.0
  9
$UCSXDIR
 10
1.0
 20
0.0
 30
0.0
  9
$UCSYDIR
 10
0.0
 20
1.0
 30
0.0
  9
$UCSORTHOREF
  2

  9
$UCSORTHOVIEW
 70
     0
  9
$UCSORGTOP
 10
0.0
 20
0.0
 30
0.0
  9
$UCSORGBOTTOM
 10
0.0
 20
0.0
 30
0.0
  9
$UCSORGLEFT
 10
0.0
 20
0.0
 30
0.0
  9
$UCSORGRIGHT
 10
0.0
 20
0.0
 30
0.0
  9
$UCSORGFRONT
 10
0.0
 20
0.0
 30
0.0
  9
$UCSORGBACK
 10
0.0
 20
0.0
 30
0.0
  9
$PUCSBASE
  2

  9
$PUCSNAME
  2

  9
$PUCSORG
 10
0.0
 20
0.0
 30
0.0
  9
$PUCSXDIR
 10
1.0
 20
0.0
 30
0.0
  9
$PUCSYDIR
 10
0.0
 20
1.0
 30
0.0
  9
$PUCSORTHOREF
  2

  9
$PUCSORTHOVIEW
 70
     0
  9
$PUCSORGTOP
 10
0.0
 20
0.0
 30
0.0
  9
$PUCSORGBOTTOM
 10
0.0
 20
0.0
 30
0.0
  9
$PUCSORGLEFT
 10
0.0
 20
0.0
 30
0.0
  9
$PUCSORGRIGHT
 10
0.0
 20
0.0
 30
0.0
  9
$PUCSORGFRONT
 10
0.0
 20
0.0
 30
0.0
  9
$PUCSORGBACK
 10
0.0
 20
0.0
 30
0.0
  9
$USERI1
 70
     0
  9
$USERI2
 70
     0
  9
$USERI3
 70
     0
  9
$USERI4
 70
     0
  9
$USERI5
 70
     0
  9
$USERR1
 40
0.0
  9
$USERR2
 40
0.0
  9
$USERR3
 40
0.0
  9
$USERR4
 40
0.0
  9
$USERR5
 40
0.0
  9
$WORLDVIEW
 70
     1
  9
$SHADEDGE
 70
     3
  9
$SHADEDIF
 70
    70
  9
$TILEMODE
 70
     1
  9
$MAXACTVP
 70
    64
  9
$PINSBASE
 10
0.0
 20
0.0
 30
0.0
  9
$PLIMCHECK
 70
     0
  9
$PEXTMIN
 10
1.0000000000E+20
 20
1.0000000000E+20
 30
1.0000000000E+20
  9
$PEXTMAX
 10
-1.0000000000E+20
 20
-1.0000000000E+20
 30
-1.0000000000E+20
  9
$PLIMMIN
 10
0.0
 20
0.0
  9
$PLIMMAX
 10
420.0
 20
297.0
  9
$UNITMODE
 70
     0
  9
$VISRETAIN
 70
     1
  9
$PLINEGEN
 70
     0
  9
$PSLTSCALE
 70
     1
  9
$TREEDEPTH
 70
  3020
  9
$CMLSTYLE
  2
Standard
  9
$CMLJUST
 70
     0
  9
$CMLSCALE
 40
20.0
  9
$PROXYGRAPHICS
 70
     1
  9
$MEASUREMENT
 70
     1
  9
$CELWEIGHT
370
    -1
  9
$ENDCAPS
280
     0
  9
$JOINSTYLE
280
     0
  9
$LWDISPLAY
290
     1
  9
$INSUNITS
 70
     4
  9
$HYPERLINKBASE
  1

  9
$STYLESHEET
  1

  9
$XEDIT
290
     1
  9
$CEPSNTYPE
380
     0
  9
$PSTYLEMODE
290
     1
  9
$FINGERPRINTGUID
  2
{b32d088a-de6b-4895-aff6-2b70a51b6e3c}
  9
$VERSIONGUID
  2
{FAEB1C32-E019-11D5-929B-00C0DF256EC4}
  9
$EXTNAMES
290
     1
  9
$PSVPSCALE
 40
0.0
  9
$OLESTARTUP
290
     0
  9
$SORTENTS
280
   127
  9
$INDEXCTL
280
     0
  9
$HIDETEXT
280
     1
  9
$XCLIPFRAME
280
     2
  9
$HALOGAP
280
     0
  9
$OBSCOLOR
 70
   257
  9
$OBSLTYPE
280
     0
  9
$INTERSECTIONDISPLAY
280
     0
  9
$INTERSECTIONCOLOR
 70
   257
  9
$DIMASSOC
280
     2
  9
$PROJECTNAME
  1

  9
$CAMERADISPLAY
290
     0
  9
$LENSLENGTH
 40
50.0
  9
$CAMERAHEIGHT
 40
0.0
  9
$STEPSPERSEC
 40
2.0
  9
$STEPSIZE
 40
6.0
  9
$3DDWFPREC
 40
2.0
  9
$PSOLWIDTH
 40
5.0
  9
$PSOLHEIGHT
 40
80.0
  9
$LOFTANG1
 40
1.5707963268
  9
$LOFTANG2
 40
1.5707963268
  9
$LOFTMAG1
 40
0.0
  9
$LOFTMAG2
 40
0.0
  9
$LOFTPARAM
 70
     7
  9
$LOFTNORMALS
280
     1
  9
$LATITUDE
 40
37.795
  9
$LONGITUDE
 40
-122.394
  9
$NORTHDIRECTION
 40
0.0
  9
$TIMEZONE
 70
 -8000
  9
$LIGHTGLYPHDISPLAY
280
     1
  9
$TILEMODELIGHTSYNCH
280
     1
  9
$CMATERIAL
347
44
  9
$SOLIDHIST
280
     0
  9
$SHOWHIST
280
     1
  9
$DWFFRAME
280
     2
  9
$DGNFRAME
280
     2
  9
$REALWORLDSCALE
290
     1
  9
$INTERFERECOLOR
 62
   256
  9
$CSHADOW
280
     0
  9
$SHADOWPLANELOCATION
 40
0.0
  0
ENDSEC
  0
SECTION
  2
CLASSES
  0
CLASS
  1
ACDBDICTIONARYWDFLT
  2
AcDbDictionaryWithDefault
  3
ObjectDBX Classes
 90
        0
 91
        3
280
     0
281
     0
  0
CLASS
  1
VISUALSTYLE
  2
AcDbVisualStyle
  3
ObjectDBX Classes
 90
     4095
 91
        3
280
     0
281
     0
  0
CLASS
  1
MATERIAL
  2
AcDbMaterial
  3
ObjectDBX Classes
 90
     1153
 91
        3
280
     0
281
     0
  0
CLASS
  1
SCALE
  2
AcDbScale
  3
ObjectDBX Classes
 90
     1153
 91
        3
280
     0
281
     0
  0
CLASS
  1
TABLESTYLE
  2
AcDbTableStyle
  3
ObjectDBX Classes
 90
     4095
 91
        3
280
     0
281
     0
  0
CLASS
  1
MLEADERSTYLE
  2
AcDbMLeaderStyle
  3
ACDB_MLEADERSTYLE_CLASS
 90
     4095
 91
        3
280
     0
281
     0
  0
CLASS
  1
SUN
  2
AcDbSun
  3
SCENEOE
 90
     1153
 91
        3
280
     0
281
     0
  0
CLASS
  1
DICTIONARYVAR
  2
AcDbDictionaryVar
  3
ObjectDBX Classes
 90
        0
 91
        3
280
     0
281
     0
  0
CLASS
  1
CELLSTYLEMAP
  2
AcDbCellStyleMap
  3
ObjectDBX Classes
 90
     1152
 91
        3
280
     0
281
     0
  0
ENDSEC
  0
SECTION
  2
TABLES
  0
TABLE
  2
VPORT
  5
8
330
0
100
AcDbSymbolTable
 70
     1
  0
VPORT
  5
29
330
8
100
AcDbSymbolTableRecord
100
AcDbViewportTableRecord
  2
*Active
 70
     0
 10
0.0
 20
0.0
 11
1.0
 21
1.0
 12
210.0
 22
148.5
 13
0.0
 23
0.0
 14
10.0
 24
10.0
 15
10.0
 25
10.0
 16
0.0
 26
0.0
 36
1.0
 17
0.0
 27
0.0
 37
0.0
 40
297.0
 41
1.4141414141
 42
50.0
 43
0.0
 44
0.0
 50
0.0
 51
0.0
 71
     0
 72
  2000
 73
     1
 74
     3
 75
     0
 76
     0
 77
     0
 78
     0
281
     0
 65
     1
110
0.0
120
0.0
130
0.0
111
1.0
121
0.0
131
0.0
112
0.0
122
1.0
132
0.0
 79
     0
146
0.0
348
2F
 60
     3
 61
     5
292
     1
282
     1
141
0.0
142
0.0
 63
   250
361
5D
  0
ENDTAB
  0
TABLE
  2
LTYPE
  5
5
330
0
100
AcDbSymbolTable
 70
     6
  0
LTYPE
  5
14
330
5
100
AcDbSymbolTableRecord
100
AcDbLinetypeTableRecord
  2
ByBlock
 70
     0
  3

 72
    65
 73
     0
 40
0.0
  0
LTYPE
  5
15
330
5
100
AcDbSymbolTableRecord
100
AcDbLinetypeTableRecord
  2
ByLayer
 70
     0
  3

 72
    65
 73
     0
 40
0.0
  0
LTYPE
  5
16
330
5
100
AcDbSymbolTableRecord
100
AcDbLinetypeTableRecord
  2
Continuous
 70
     0
  3
Solid line
 72
    65
 73
     0
 40
0.0
  0
LTYPE
  5
5E
330
5
100
AcDbSymbolTableRecord
100
AcDbLinetypeTableRecord
  2
HIDDEN
 70
     0
  3
Hidden __ __ __ __ __ __ __ __ __ __ __ __ __ __
 72
    65
 73
     2
 40
1.905
 49
1.27
 74
     0
 49
-0.635
 74
     0
  0
LTYPE
  5
5F
330
5
100
AcDbSymbolTableRecord
100
AcDbLinetypeTableRecord
  2
PHANTOM
 70
     0
  3
Phantom ______  __  __  ______  __  __  ______
 72
    65
 73
     6
 40
12.7
 49
6.35
 74
     0
 49
-1.27
 74
     0
 49
1.27
 74
     0
 49
-1.27
 74
     0
 49
1.27
 74
     0
 49
-1.27
 74
     0
  0
LTYPE
  5
60
330
5
100
AcDbSymbolTableRecord
100
AcDbLinetypeTableRecord
  2
CENTER
 70
     0
  3
Center ____ _ ____ _ ____ _ ____ _ ____ _ ____
 72
    65
 73
     4
 40
10.16
 49
6.35
 74
     0
 49
-1.27
 74
     0
 49
1.27
 74
     0
 49
-1.27
 74
     0
  0
LTYPE
  5
61
330
5
100
AcDbSymbolTableRecord
100
AcDbLinetypeTableRecord
  2
CENTERX2
 70
     0
  3
Center (2x) ________  __  ________  __  _____
 72
    65
 73
     4
 40
20.32
 49
12.7
 74
     0
 49
-2.54
 74
     0
 49
2.54
 74
     0
 49
-2.54
 74
     0
  0
LTYPE
  5
62
330
5
100
AcDbSymbolTableRecord
100
AcDbLinetypeTableRecord
  2
DOT2
 70
     0
  3
Dot (.5x) ........................................
 72
    65
 73
     2
 40
0.635
 49
0.0
 74
     0
 49
-0.635
 74
     0
  0
ENDTAB
  0
TABLE
  2
LAYER
  5
2
330
0
100
AcDbSymbolTable
 70
    13
  0
LAYER
  5
10
330
2
100
AcDbSymbolTableRecord
100
AcDbLayerTableRecord
  2
0
 70
     0
 62
     7
  6
Continuous
370
    -3
390
F
347
46
348
0
  0
LAYER
  5
63
330
2
100
AcDbSymbolTableRecord
100
AcDbLayerTableRecord
  2
DRAWING-SHEET
 70
     0
 62
   179
  6
Continuous
370
    -3
390
F
347
46
348
0
  0
LAYER
  5
64
330
2
100
AcDbSymbolTableRecord
100
AcDbLayerTableRecord
  2
BORDER
 70
     0
 62
   179
  6
Continuous
370
    -3
390
F
347
46
348
0
  0
LAYER
  5
65
330
2
100
AcDbSymbolTableRecord
100
AcDbLayerTableRecord
  2
DIMENSIONS
 70
     0
 62
     7
  6
Continuous
370
    -3
390
F
347
46
348
0
  0
LAYER
  5
66
330
2
100
AcDbSymbolTableRecord
100
AcDbLayerTableRecord
  2
CENTRE_LINES
 70
     0
 62
     7
  6
Continuous
370
    -3
390
F
347
46
348
0
  0
LAYER
  5
67
330
2
100
AcDbSymbolTableRecord
100
AcDbLayerTableRecord
  2
FORMAT
 70
     0
 62
     7
  6
Continuous
370
    -3
390
F
347
46
348
0
  0
LAYER
  5
68
330
2
100
AcDbSymbolTableRecord
100
AcDbLayerTableRecord
  2
SLD-0
 70
     0
 62
   179
  6
Continuous
370
    -3
390
F
347
46
348
0
  0
LAYER
  5
69
330
2
100
AcDbSymbolTableRecord
100
AcDbLayerTableRecord
  2
OUTLINE
 70
     0
 62
     4
  6
Continuous
370
    -3
390
F
347
46
348
0
  0
LAYER
  5
6A
330
2
100
AcDbSymbolTableRecord
100
AcDbLayerTableRecord
  2
4
 70
     0
 62
     7
  6
Continuous
370
    70
390
F
347
46
348
0
  0
LAYER
  5
6B
330
2
100
AcDbSymbolTableRecord
100
AcDbLayerTableRecord
  2
TEXT25
 70
     0
 62
   179
  6
Continuous
370
    -3
390
F
347
46
348
0
  0
LAYER
  5
6C
330
2
100
AcDbSymbolTableRecord
100
AcDbLayerTableRecord
  2
TEXT35
 70
     0
 62
     7
  6
Continuous
370
    -3
390
F
347
46
348
0
  0
LAYER
  5
6D
330
2
100
AcDbSymbolTableRecord
100
AcDbLayerTableRecord
  2
TEXT5
 70
     0
 62
     7
  6
Continuous
370
    -3
390
F
347
46
348
0
  0
LAYER
  5
6E
330
2
100
AcDbSymbolTableRecord
100
AcDbLayerTableRecord
  2
5
 70
     0
 62
     7
  6
Continuous
370
    35
390
F
347
46
348
0
  0
ENDTAB
  0
TABLE
  2
STYLE
  5
3
330
0
100
AcDbSymbolTable
 70
     3
  0
STYLE
  5
11
330
3
100
AcDbSymbolTableRecord
100
AcDbTextStyleTableRecord
  2
Standard
 70
     0
 40
0.0
 41
1.0
 50
0.0
 71
     0
 42
4.2333333333
  3
txt
  4

  0
STYLE
  5
75
330
3
100
AcDbSymbolTableRecord
100
AcDbTextStyleTableRecord
  2
SLDTEXTSTYLE0
 70
     0
 40
0.0
 41
0.75
 50
0.0
 71
     0
 42
4.2333333333
  3
TXT
  4

  0
STYLE
  5
7B
330
3
100
AcDbSymbolTableRecord
100
AcDbTextStyleTableRecord
  2
SLDTEXTSTYLE1
 70
     0
 40
0.0
 41
0.6
 50
0.0
 71
     0
 42
4.2333333333
  3
TXT
  4

  0
ENDTAB
  0
TABLE
  2
VIEW
  5
6
330
0
100
AcDbSymbolTable
 70
     0
  0
ENDTAB
  0
TABLE
  2
UCS
  5
7
330
0
100
AcDbSymbolTable
 70
     0
  0
ENDTAB
  0
TABLE
  2
APPID
  5
9
330
0
100
AcDbSymbolTable
 70
     1
  0
APPID
  5
12
330
9
100
AcDbSymbolTableRecord
100
AcDbRegAppTableRecord
  2
ACAD
 70
     0
  0
ENDTAB
  0
TABLE
  2
DIMSTYLE
  5
A
330
0
100
AcDbSymbolTable
 70
     1
100
AcDbDimStyleTable
  0
DIMSTYLE
105
27
330
A
100
AcDbSymbolTableRecord
100
AcDbDimStyleTableRecord
  2
ISO-25
 70
     0
 41
2.5
 42
0.625
 43
3.75
 44
1.25
 73
     0
 74
     0
 77
     1
 78
     8
140
2.5
141
2.5
143
0.0393700787
147
0.625
171
     3
172
     1
178
     0
271
     2
272
     2
274
     3
278
    44
283
     0
284
     8
340
11
  0
ENDTAB
  0
TABLE
  2
BLOCK_RECORD
  5
1
330
0
100
AcDbSymbolTable
 70
     6
  0
BLOCK_RECORD
  5
1F
330
1
100
AcDbSymbolTableRecord
100
AcDbBlockTableRecord
  2
*Model_Space
340
22
 70
     0
280
     1
281
     0
  0
BLOCK_RECORD
  5
1B
330
1
100
AcDbSymbolTableRecord
100
AcDbBlockTableRecord
  2
*Paper_Space
340
1E
 70
     0
280
     1
281
     0
  0
BLOCK_RECORD
  5
23
330
1
100
AcDbSymbolTableRecord
100
AcDbBlockTableRecord
  2
*Paper_Space0
340
26
 70
     0
280
     1
281
     0
  0
BLOCK_RECORD
  5
6F
330
1
100
AcDbSymbolTableRecord
100
AcDbBlockTableRecord
  2
Block1
340
0
 70
     0
280
     1
281
     0
  0
BLOCK_RECORD
  5
72
330
1
100
AcDbSymbolTableRecord
100
AcDbBlockTableRecord
  2
SW_NOTE_0
340
0
102
{BLKREFS
331
77
102
}
 70
     0
280
     1
281
     0
  0
BLOCK_RECORD
  5
78
330
1
100
AcDbSymbolTableRecord
100
AcDbBlockTableRecord
  2
SW_NOTE_0_1
340
0
102
{BLKREFS
331
7D
102
}
 70
     0
280
     1
281
     0
  0
BLOCK_RECORD
  5
7E
330
1
100
AcDbSymbolTableRecord
100
AcDbBlockTableRecord
  2
SW_NOTE_0_2
340
0
102
{BLKREFS
331
82
102
}
 70
     0
280
     1
281
     0
  0
BLOCK_RECORD
  5
83
330
1
100
AcDbSymbolTableRecord
100
AcDbBlockTableRecord
  2
SW_NOTE_0_3
340
0
102
{BLKREFS
331
87
102
}
 70
     0
280
     1
281
     0
  0
ENDTAB
  0
ENDSEC
  0
SECTION
  2
BLOCKS
  0
BLOCK
  5
20
330
1F
100
AcDbEntity
  8
0
100
AcDbBlockBegin
  2
*Model_Space
 70
     0
 10
0.0
 20
0.0
 30
0.0
  3
*Model_Space
  1

  0
ENDBLK
  5
21
330
1F
100
AcDbEntity
  8
0
100
AcDbBlockEnd
  0
BLOCK
  5
1C
330
1B
100
AcDbEntity
 67
     1
  8
0
100
AcDbBlockBegin
  2
*Paper_Space
 70
     0
 10
0.0
 20
0.0
 30
0.0
  3
*Paper_Space
  1

  0
ENDBLK
  5
1D
330
1B
100
AcDbEntity
 67
     1
  8
0
100
AcDbBlockEnd
  0
BLOCK
  5
24
330
23
100
AcDbEntity
  8
0
100
AcDbBlockBegin
  2
*Paper_Space0
 70
     0
 10
0.0
 20
0.0
 30
0.0
  3
*Paper_Space0
  1

  0
ENDBLK
  5
25
330
23
100
AcDbEntity
  8
0
100
AcDbBlockEnd
  0
BLOCK
  5
70
330
6F
100
AcDbEntity
  8
0
100
AcDbBlockBegin
  2
Block1
 70
     0
 10
0.0
 20
0.0
 30
0.0
  3
Block1
  1

  0
INSERT
  5
77
330
6F
100
AcDbEntity
  8
0
  6
Continuous
 62
     7
370
     0
100
AcDbBlockReference
  2
SW_NOTE_0
 10
40.5248655077
 20
20.5912386523
 30
0.0
  0
INSERT
  5
7D
330
6F
100
AcDbEntity
  8
DRAWING-SHEET
 62
     7
100
AcDbBlockReference
  2
SW_NOTE_0_1
 10
3.556761253
 20
-0.3611706024
 30
0.0
  0
INSERT
  5
82
330
6F
100
AcDbEntity
  8
DRAWING-SHEET
 62
     7
100
AcDbBlockReference
  2
SW_NOTE_0_2
 10
7.9590819428
 20
3.0109637777
 30
0.0
  0
INSERT
  5
87
330
6F
100
AcDbEntity
  8
DRAWING-SHEET
 62
     7
100
AcDbBlockReference
  2
SW_NOTE_0_3
 10
0.0721004934
 20
6.5234823937
 30
0.0
  0
ENDBLK
  5
71
330
6F
100
AcDbEntity
  8
0
100
AcDbBlockEnd
  0
BLOCK
  5
73
330
72
100
AcDbEntity
  8
0
100
AcDbBlockBegin
  2
SW_NOTE_0
 70
     0
 10
0.0
 20
0.0
 30
0.0
  3
SW_NOTE_0
  1

  0
MTEXT
  5
76
330
72
100
AcDbEntity
  8
0
  6
Continuous
 62
     0
370
     0
100
AcDbMText
 10
0.0
 20
1.9336016097
 30
0.0
 40
1.5
 41
0.0
 46
0.0
 71
     1
 72
     1
  1
TITLE:
  7
SLDTEXTSTYLE0
 73
     1
 44
1.0
  0
ENDBLK
  5
74
330
72
100
AcDbEntity
  8
0
100
AcDbBlockEnd
  0
BLOCK
  5
79
330
78
100
AcDbEntity
  8
0
100
AcDbBlockBegin
  2
SW_NOTE_0_1
 70
     0
 10
0.0
 20
0.0
 30
0.0
  3
SW_NOTE_0_1
  1

  0
MTEXT
  5
7C
330
78
100
AcDbEntity
  8
DRAWING-SHEET
 62
     0
100
AcDbMText
 10
0.0
 20
2.7285267159
 30
0.0
 40
2.1166666667
 41
0.0
 46
0.0
 71
     1
 72
     1
  1
Email: roddyeng.com.au
  7
SLDTEXTSTYLE1
 73
     1
 44
1.0
  0
ENDBLK
  5
7A
330
78
100
AcDbEntity
  8
0
100
AcDbBlockEnd
  0
BLOCK
  5
7F
330
7E
100
AcDbEntity
  8
0
100
AcDbBlockBegin
  2
SW_NOTE_0_2
 70
     0
 10
0.0
 20
0.0
 30
0.0
  3
SW_NOTE_0_2
  1

  0
MTEXT
  5
81
330
7E
100
AcDbEntity
  8
DRAWING-SHEET
 62
     0
100
AcDbMText
 10
0.0
 20
2.7285267159
 30
0.0
 40
2.1166666667
 41
0.0
 46
0.0
 71
     1
 72
     1
  1
Ph: - 02 6947 4039
  7
SLDTEXTSTYLE1
 73
     1
 44
1.0
  0
ENDBLK
  5
80
330
7E
100
AcDbEntity
  8
0
100
AcDbBlockEnd
  0
BLOCK
  5
84
330
83
100
AcDbEntity
  8
0
100
AcDbBlockBegin
  2
SW_NOTE_0_3
 70
     0
 10
0.0
 20
0.0
 30
0.0
  3
SW_NOTE_0_3
  1

  0
MTEXT
  5
86
330
83
100
AcDbEntity
  8
DRAWING-SHEET
 62
     0
100
AcDbMText
 10
0.0
 20
2.7285267159
 30
0.0
 40
2.1166666667
 41
0.0
 46
0.0
 71
     1
 72
     1
  1
14 Waratah St TUMUT NSW 2720
  7
SLDTEXTSTYLE1
 73
     1
 44
1.0
  0
ENDBLK
  5
85
330
83
100
AcDbEntity
  8
0
100
AcDbBlockEnd
  0
ENDSEC
  0
SECTION
  2
ENTITIES
  0
LINE
  5
88
330
1F
100
AcDbEntity
  8
0
  6
Continuous
 62
     7
370
    25
100
AcDbLine
 10
915.2046224096
 20
842.6135469705
 30
0.0
 11
915.2046224096
 21
849.79303415
 31
0.0
  0
LINE
  5
89
330
1F
100
AcDbEntity
  8
0
  6
Continuous
 62
     7
370
    25
100
AcDbLine
 10
915.9225711275
 20
842.6135469705
 30
0.0
 11
915.2046224096
 21
842.6135469705
 31
0.0
  0
LINE
  5
8A
330
1F
100
AcDbEntity
  8
0
  6
Continuous
 62
     7
370
    25
100
AcDbLine
 10
915.9225711275
 20
850.6135469705
 30
0.0
 11
915.9225711275
 21
842.6135469705
 31
0.0
  0
LINE
  5
8B
330
1F
100
AcDbEntity
  8
0
  6
Continuous
 62
     7
370
    25
100
AcDbLine
 10
914.4434044609
 20
850.6135469705
 30
0.0
 11
915.9225711275
 21
850.6135469705
 31
0.0
  0
LINE
  5
8C
330
1F
100
AcDbEntity
  8
0
  6
Continuous
 62
     7
370
    25
100
AcDbLine
 10
913.9738531788
 20
849.79303415
 30
0.0
 11
914.4434044609
 21
850.6135469705
 31
0.0
  0
LINE
  5
8D
330
1F
100
AcDbEntity
  8
0
  6
Continuous
 62
     7
370
    25
100
AcDbLine
 10
915.2046224096
 20
849.79303415
 30
0.0
 11
913.9738531788
 21
849.79303415
 31
0.0
  0
SPLINE
  5
8E
330
1F
100
AcDbEntity
  8
0
  6
Continuous
 62
     7
370
    25
100
AcDbSpline
210
0.0
220
0.0
230
1.0
 70
     8
 71
     3
 72
    31
 73
    27
 74
     0
 42
0.00000001
 43
0.00000001
 40
0.0
 40
0.0
 40
0.0
 40
0.0
 40
0.0337881161627107
 40
0.0671939323738803
 40
0.0998624108568249
 40
0.1325666121262579
 40
0.1651511732547859
 40
0.1979131873557925
 40
0.2313190035669618
 40
0.2650832782673727
 40
0.2992553087581147
 40
0.3343985665049785
 40
0.3699428235093072
 40
0.4062835607000601
 40
0.4440638196985089
 40
0.4829977068727745
 40
0.5233544466133041
 40
0.5655365896041497
 40
0.6096129240658182
 40
0.6563908113764166
 40
0.7058854949364557
 40
0.7583245002617313
 40
0.8138317829411498
 40
0.87279455903939
 40
0.9347222295400733
 40
1.0
 40
1.0
 40
1.0
 40
1.0
 10
921.571609589086
 20
850.8186751756457
 30
0.0
 10
921.6352335399073
 20
850.8175601695299
 30
0.0
 10
921.7617615602403
 20
850.8153427731772
 30
0.0
 10
921.9488252750881
 20
850.7940309045266
 30
0.0
 10
922.1315674047214
 20
850.7586683374481
 30
0.0
 10
922.3092088646152
 20
850.7085632526877
 30
0.0
 10
922.4832088336844
 20
850.6464017060375
 30
0.0
 10
922.6522063368744
 20
850.5684882955022
 30
0.0
 10
922.8172510949134
 20
850.4777937415721
 30
0.0
 10
922.9757203235303
 20
850.3712248791569
 30
0.0
 10
923.1293537300356
 20
850.2524082478501
 30
0.0
 10
923.2743776454005
 20
850.1180935762995
 30
0.0
 10
923.410805270309
 20
849.9696370751141
 30
0.0
 10
923.5403488254774
 20
849.8086271005161
 30
0.0
 10
923.6593330476471
 20
849.6319754780394
 30
0.0
 10
923.7726437498995
 20
849.442754655607
 30
0.0
 10
923.8740655462461
 20
849.2376555360784
 30
0.0
 10
923.9717448037973
 20
849.020100181013
 30
0.0
 10
924.0560579163441
 20
848.7840689608836
 30
0.0
 10
924.1320950483951
 20
848.5308923654137
 30
0.0
 10
924.1935326908522
 20
848.2575799383203
 30
0.0
 10
924.2447081704822
 20
847.96556566336
 30
0.0
 10
924.2843536469293
 20
847.6537771302397
 30
0.0
 10
924.3132282573945
 20
847.3228826947842
 30
0.0
 10
924.3284810232033
 20
846.9726646590339
 30
0.0
 10
924.3313534831043
 20
846.7332181466289
 30
0.0
 10
924.3328275378038
 20
846.6103418423123
 30
0.0
  0
SPLINE
  5
8F
330
1F
100
AcDbEntity
  8
0
  6
Continuous
 62
     7
370
    25
100
AcDbSpline
210
0.0
220
0.0
230
1.0
 70
     8
 71
     3
 72
    31
 73
    27
 74
     0
 42
0.00000001
 43
0.00000001
 40
0.0
 40
0.0
 40
0.0
 40
0.0
 40
0.0685946222587427
 40
0.1332460424433013
 40
0.1943125864682559
 40
0.2512792231169661
 40
0.3045134392563466
 40
0.3542349066533261
 40
0.4004805887739902
 40
0.4434107549384918
 40
0.4840148686163449
 40
0.523252300773202
 40
0.56104237272836
 40
0.5979002393643991
 40
0.6335184888561964
 40
0.6683143511696521
 40
0.7024956712863812
 40
0.7366853535134582
 40
0.7702931693607892
 40
0.8034372550192488
 40
0.8359129516660292
 40
0.8684602457892907
 40
0.9008465382431827
 40
0.9334665246307081
 40
0.9662575752981233
 40
1.0
 40
1.0
 40
1.0
 40
1.0
 10
918.8969301019064
 20
846.6103418423123
 30
0.0
 10
918.897679857695
 20
846.7385644428477
 30
0.0
 10
918.8991362691208
 20
846.9876386925563
 30
0.0
 10
918.9153383741318
 20
847.3505750172804
 30
0.0
 10
918.9422534422761
 20
847.6910556778408
 30
0.0
 10
918.9791388659339
 20
848.009096971643
 30
0.0
 10
919.0240256778735
 20
848.3047810048263
 30
0.0
 10
919.0839467901051
 20
848.5773175925664
 30
0.0
 10
919.1520903389393
 20
848.8279681219677
 30
0.0
 10
919.2310673579348
 20
849.0575499470557
 30
0.0
 10
919.3201823042624
 20
849.269156125392
 30
0.0
 10
919.4171749001986
 20
849.466699442635
 30
0.0
 10
919.5258944303097
 20
849.6498810022688
 30
0.0
 10
919.640127374143
 20
849.8216245232286
 30
0.0
 10
919.7644978235779
 20
849.979118682754
 30
0.0
 10
919.8954664875031
 20
850.1245876256535
 30
0.0
 10
920.038145061828
 20
850.2546693409993
 30
0.0
 10
920.1876833664529
 20
850.3731751750223
 30
0.0
 10
920.3454352850626
 20
850.4770596817011
 30
0.0
 10
920.5069042362471
 20
850.5685630842514
 30
0.0
 10
920.6732016210607
 20
850.6467342094116
 30
0.0
 10
920.8447814676846
 20
850.7081980628049
 30
0.0
 10
921.0201016000038
 20
850.7589657125708
 30
0.0
 10
921.1997748952981
 20
850.7936833071915
 30
0.0
 10
921.384098012867
 20
850.815527669453
 30
0.0
 10
921.508512720977
 20
850.8176160528591
 30
0.0
 10
921.571609589086
 20
850.8186751756457
 30
0.0
  0
SPLINE
  5
90
330
1F
100
AcDbEntity
  8
0
  6
Continuous
 62
     7
370
    25
100
AcDbSpline
210
0.0
220
0.0
230
1.0
 70
     8
 71
     3
 72
    31
 73
    27
 74
     0
 42
0.00000001
 43
0.00000001
 40
0.0
 40
0.0
 40
0.0
 40
0.0
 40
0.033787146346991
 40
0.0666216577242937
 40
0.0992848780959723
 40
0.1313611650426504
 40
0.1635851875953433
 40
0.1961039269870678
 40
0.2289022543238166
 40
0.262158055905007
 40
0.2959912222583165
 40
0.3302178457247998
 40
0.3650598258919545
 40
0.4009507373401076
 40
0.4376203820767375
 40
0.4757075294370923
 40
0.5153806916250483
 40
0.5564135414931648
 40
0.5997648298727308
 40
0.6464241555840874
 40
0.6964314445175674
 40
0.7497815178015573
 40
0.806573306975533
 40
0.8674355315654003
 40
0.9318867532508747
 40
1.0
 40
1.0
 40
1.0
 40
1.0
 10
921.571609589086
 20
842.4084187653893
 30
0.0
 10
921.5085144714053
 20
842.4094847207238
 30
0.0
 10
921.3841032147984
 20
842.4115865765807
 30
0.0
 10
921.199754813794
 20
842.4333322485537
 30
0.0
 10
921.0208235145028
 20
842.4682933987533
 30
0.0
 10
920.8464263624168
 20
842.5172456366759
 30
0.0
 10
920.6756686136541
 20
842.5771652625397
 30
0.0
 10
920.510877101298
 20
842.6552308250608
 30
0.0
 10
920.3502195385764
 20
842.7451372683887
 30
0.0
 10
920.1941245533923
 20
842.8475268031049
 30
0.0
 10
920.0455253281583
 20
842.9648335073982
 30
0.0
 10
919.9035856588696
 20
843.0945804529674
 30
0.0
 10
919.7718713295051
 20
843.2400053930758
 30
0.0
 10
919.6492791109512
 20
843.3988120744648
 30
0.0
 10
919.5327669093609
 20
843.5695394855111
 30
0.0
 10
919.4255911989169
 20
843.7545186239006
 30
0.0
 10
919.3264578181899
 20
843.9530160193056
 30
0.0
 10
919.2358441252333
 20
844.1663141008486
 30
0.0
 10
919.1555043229134
 20
844.3975253645281
 30
0.0
 10
919.08453813294
 20
844.6492949153909
 30
0.0
 10
919.0285057730083
 20
844.9238449407944
 30
0.0
 10
918.9805447322475
 20
845.218970351321
 30
0.0
 10
918.9418604281481
 20
845.5359393350601
 30
0.0
 10
918.915450541706
 20
845.8749239709158
 30
0.0
 10
918.8991275359101
 20
846.2357130198899
 30
0.0
 10
918.8976759463784
 20
846.4831867897565
 30
0.0
 10
918.8969301019065
 20
846.6103418423123
 30
0.0
  0
SPLINE
  5
91
330
1F
100
AcDbEntity
  8
0
  6
Continuous
 62
     7
370
    25
100
AcDbSpline
210
0.0
220
0.0
230
1.0
 70
     8
 71
     3
 72
    31
 73
    27
 74
     0
 42
0.00000001
 43
0.00000001
 40
0.0
 40
0.0
 40
0.0
 40
0.0
 40
0.0650632896172782
 40
0.1267731664665232
 40
0.1855157632260794
 40
0.2407646791677144
 40
0.2929797960235976
 40
0.3422503727797679
 40
0.3889192861856606
 40
0.4327756640583105
 40
0.4746284326311174
 40
0.5147746906379533
 40
0.5536058934984429
 40
0.591426406431173
 40
0.6280281199460673
 40
0.6638036341103205
 40
0.6989843361316641
 40
0.7335914893067057
 40
0.7676284691511398
 40
0.801208347786592
 40
0.8342638397266234
 40
0.8669806947287765
 40
0.8997197415181604
 40
0.932701912498538
 40
0.9661758834327493
 40
0.9999999999999999
 40
0.9999999999999999
 40
0.9999999999999999
 40
0.9999999999999999
 10
924.3328275378038
 20
846.6103418423123
 30
0.0
 10
924.3313382017036
 20
846.4880014813045
 30
0.0
 10
924.3284362910487
 20
846.2496262770558
 30
0.0
 10
924.3133992470082
 20
845.9009840477535
 30
0.0
 10
924.2837795185997
 20
845.571845663071
 30
0.0
 10
924.246728116751
 20
845.2614217488797
 30
0.0
 10
924.1954116299547
 20
844.9710043344043
 30
0.0
 10
924.1323141070945
 20
844.699588452192
 30
0.0
 10
924.0622562263591
 20
844.4460020026711
 30
0.0
 10
923.9757766969653
 20
844.2123224332768
 30
0.0
 10
923.881123644743
 20
843.9952899238716
 30
0.0
 10
923.7781403391992
 20
843.7926221562608
 30
0.0
 10
923.6678093081463
 20
843.6025277729931
 30
0.0
 10
923.547606462425
 20
843.4265283514362
 30
0.0
 10
923.419484375119
 20
843.2633771352697
 30
0.0
 10
923.2807008578778
 20
843.1159539977804
 30
0.0
 10
923.1351680919304
 20
842.980706747579
 30
0.0
 10
922.9810825700243
 20
842.8603601705225
 30
0.0
 10
922.8201418814937
 20
842.7550234742108
 30
0.0
 10
922.6556639913797
 20
842.6608203876101
 30
0.0
 10
922.4847305437287
 20
842.5848599417819
 30
0.0
 10
922.3112152232042
 20
842.5196369909756
 30
0.0
 10
922.1326361006556
 20
842.4698073866645
 30
0.0
 10
921.9492157790797
 20
842.4353528597602
 30
0.0
 10
921.7618872398142
 20
842.4111886347207
 30
0.0
 10
921.635255091057
 20
842.4093452521486
 30
0.0
 10
921.571609589086
 20
842.4084187653893
 30
0.0
  0
LINE
  5
92
330
1F
100
AcDbEntity
  8
0
  6
Continuous
 62
     7
370
    25
100
AcDbLine
 10
937.9129557429
 20
842.6135469705
 30
0.0
 11
932.6405198455
 21
848.8955982526
 31
0.0
  0
LINE
  5
93
330
1F
100
AcDbEntity
  8
0
  6
Continuous
 62
     7
370
    25
100
AcDbLine
 10
938.0764172814
 20
842.6135469705
 30
0.0
 11
937.9129557429
 21
842.6135469705
 31
0.0
  0
LINE
  5
94
330
1F
100
AcDbEntity
  8
0
  6
Continuous
 62
     7
370
    25
100
AcDbLine
 10
938.0764172814
 20
850.6135469705
 30
0.0
 11
938.0764172814
 21
842.6135469705
 31
0.0
  0
LINE
  5
95
330
1F
100
AcDbEntity
  8
0
  6
Continuous
 62
     7
370
    25
100
AcDbLine
 10
937.3584685634
 20
850.6135469705
 30
0.0
 11
938.0764172814
 21
850.6135469705
 31
0.0
  0
LINE
  5
96
330
1F
100
AcDbEntity
  8
0
  6
Continuous
 62
     7
370
    25
100
AcDbLine
 10
937.3584685634
 20
844.3170726115
 30
0.0
 11
937.3584685634
 21
850.6135469705
 31
0.0
  0
LINE
  5
97
330
1F
100
AcDbEntity
  8
0
  6
Continuous
 62
     7
370
    25
100
AcDbLine
 10
932.0732121532
 20
850.6135469705
 30
0.0
 11
937.3584685634
 21
844.3170726115
 31
0.0
  0
LINE
  5
98
330
1F
100
AcDbEntity
  8
0
  6
Continuous
 62
     7
370
    25
100
AcDbLine
 10
931.9225711275
 20
850.6135469705
 30
0.0
 11
932.0732121532
 21
850.6135469705
 31
0.0
  0
LINE
  5
99
330
1F
100
AcDbEntity
  8
0
  6
Continuous
 62
     7
370
    25
100
AcDbLine
 10
931.9225711275
 20
842.6135469705
 30
0.0
 11
931.9225711275
 21
850.6135469705
 31
0.0
  0
LINE
  5
9A
330
1F
100
AcDbEntity
  8
0
  6
Continuous
 62
     7
370
    25
100
AcDbLine
 10
932.6405198455
 20
842.6135469705
 30
0.0
 11
931.9225711275
 21
842.6135469705
 31
0.0
  0
LINE
  5
9B
330
1F
100
AcDbEntity
  8
0
  6
Continuous
 62
     7
370
    25
100
AcDbLine
 10
932.6405198455
 20
848.8955982526
 30
0.0
 11
932.6405198455
 21
842.6135469705
 31
0.0
  0
SPLINE
  5
9C
330
1F
100
AcDbEntity
  8
0
  6
Continuous
 62
     7
370
    25
100
AcDbSpline
210
0.0
220
0.0
230
1.0
 70
     8
 71
     3
 72
    23
 73
    19
 74
     0
 42
0.00000001
 43
0.00000001
 40
0.0
 40
0.0
 40
0.0
 40
0.0
 40
0.0611602766365182
 40
0.1203345577262017
 40
0.1781802550631247
 40
0.2352351259863637
 40
0.2926829614441804
 40
0.3511862482150802
 40
0.4104566095096936
 40
0.471719854462996
 40
0.5337612027725894
 40
0.5957390238870951
 40
0.6578875151248847
 40
0.7212951802914618
 40
0.7868225145418899
 40
0.8546861538286843
 40
0.9254779862699963
 40
1.0
 40
1.0
 40
1.0
 40
1.0
 10
944.8456480506244
 20
844.8843803038508
 30
0.0
 10
944.843415259714
 20
844.8062845961437
 30
0.0
 10
944.8390221810446
 20
844.6526291033292
 30
0.0
 10
944.8066108169377
 20
844.4269030814995
 30
0.0
 10
944.7517328581014
 20
844.211188917813
 30
0.0
 10
944.6761416664107
 20
844.0040913573462
 30
0.0
 10
944.5774849473287
 20
843.8060110499847
 30
0.0
 10
944.4574210288569
 20
843.6167235894441
 30
0.0
 10
944.3142631691476
 20
843.4381308337571
 30
0.0
 10
944.154119468686
 20
843.2682482666645
 30
0.0
 10
943.9729488504262
 20
843.1154990384592
 30
0.0
 10
943.7774842677461
 20
842.9794631374734
 30
0.0
 10
943.5652641079892
 20
842.8675864240666
 30
0.0
 10
943.3397738359516
 20
842.7736069463458
 30
0.0
 10
943.0984839705476
 20
842.70181906414
 30
0.0
 10
942.842478010868
 20
842.6515960380844
 30
0.0
 10
942.571976749531
 20
842.6177559535162
 30
0.0
 10
942.386354461276
 20
842.6149737708993
 30
0.0
 10
942.2911608711373
 20
842.6135469705175
 30
0.0
  0
SPLINE
  5
9D
330
1F
100
AcDbEntity
  8
0
  6
Continuous
 62
     7
370
    25
100
AcDbSpline
210
0.0
220
0.0
230
1.0
 70
     8
 71
     3
 72
    19
 73
    15
 74
     0
 42
0.00000001
 43
0.00000001
 40
0.0
 40
0.0
 40
0.0
 40
0.0
 40
0.1060574933033971
 40
0.2029142570846091
 40
0.2903001653958375
 40
0.3702225656250405
 40
0.4463837207709694
 40
0.521396899964827
 40
0.5982910828464567
 40
0.6761424688569282
 40
0.7555286995560226
 40
0.8348871724576566
 40
0.9166460487466405
 40
1.0
 40
1.0
 40
1.0
 40
1.0
 10
943.3055839480603
 20
846.9292520987226
 30
0.0
 10
943.3964649254199
 20
846.8943606725726
 30
0.0
 10
943.5703427480012
 20
846.8276047310985
 30
0.0
 10
943.8096250621314
 20
846.709580813391
 30
0.0
 10
944.0157847078368
 20
846.5812102753536
 30
0.0
 10
944.190406755803
 20
846.4410231893108
 30
0.0
 10
944.339749967041
 20
846.2899173360763
 30
0.0
 10
944.4701566906361
 20
846.1256770749371
 30
0.0
 10
944.581428403004
 20
845.9461599140745
 30
0.0
 10
944.6767722282967
 20
845.753237547532
 30
0.0
 10
944.7511693849281
 20
845.5488799055734
 30
0.0
 10
944.8068857377733
 20
845.3350038459222
 30
0.0
 10
944.8388113357979
 20
845.1123762911923
 30
0.0
 10
944.8433545158624
 20
844.9608668527044
 30
0.0
 10
944.8456480506244
 20
844.8843803038508
 30
0.0
  0
SPLINE
  5
9E
330
1F
100
AcDbEntity
  8
0
  6
Continuous
 62
     7
370
    25
100
AcDbSpline
210
0.0
220
0.0
230
1.0
 70
     8
 71
     3
 72
    15
 73
    11
 74
     0
 42
0.00000001
 43
0.00000001
 40
0.0
 40
0.0
 40
0.0
 40
0.0
 40
0.1305691070873113
 40
0.2565806086940818
 40
0.3805516168036833
 40
0.5036229172007082
 40
0.6257393231697888
 40
0.7475485819596254
 40
0.8717661185648738
 40
1.0
 40
1.0
 40
1.0
 40
1.0
 10
944.2302634352399
 20
848.6311751756457
 30
0.0
 10
944.2277646502283
 20
848.5428264769532
 30
0.0
 10
944.2228543020335
 20
848.3692129523338
 30
0.0
 10
944.1758994235587
 20
848.1152835596855
 30
0.0
 10
944.1023893242684
 20
847.8735664880801
 30
0.0
 10
944.0002058976079
 20
847.6449438928414
 30
0.0
 10
943.8674013348694
 20
847.4345813485086
 30
0.0
 10
943.7100108922062
 20
847.2407818832627
 30
0.0
 10
943.5201210579412
 20
847.0717508958456
 30
0.0
 10
943.3778507951117
 20
846.9772528328726
 30
0.0
 10
943.3055839480603
 20
846.9292520987226
 30
0.0
  0
SPLINE
  5
9F
330
1F
100
AcDbEntity
  8
0
  6
Continuous
 62
     7
370
    25
100
AcDbSpline
210
0.0
220
0.0
230
1.0
 70
     8
 71
     3
 72
    23
 73
    19
 74
     0
 42
0.00000001
 43
0.00000001
 40
0.0
 40
0.0
 40
0.0
 40
0.0
 40
0.0625940971873315
 40
0.1213229386347493
 40
0.1766801421977652
 40
0.2283650957096748
 40
0.2768684458368067
 40
0.3218791276660453
 40
0.3640986251098912
 40
0.4033556962427007
 40
0.4779679481633707
 40
0.5505354613647757
 40
0.6235844567403224
 40
0.698174882264205
 40
0.7733536703408738
 40
0.8472811254977323
 40
0.9228183395566674
 40
1.0
 40
1.0
 40
1.0
 40
1.0
 10
941.6885967685732
 20
850.6135469705175
 30
0.0
 10
941.7650047187167
 20
850.6131452553135
 30
0.0
 10
941.9131023423428
 20
850.61236663127
 30
0.0
 10
942.1284610665228
 20
850.6002909029341
 30
0.0
 10
942.3301726337011
 20
850.583825371783
 30
0.0
 10
942.518295541931
 20
850.557699445739
 30
0.0
 10
942.6927428616821
 20
850.5261753836926
 30
0.0
 10
942.8540403182257
 20
850.4879998040574
 30
0.0
 10
943.001674997696
 20
850.4422246871226
 30
0.0
 10
943.1779326809101
 20
850.3694331871626
 30
0.0
 10
943.3788941914903
 20
850.2612659452204
 30
0.0
 10
943.5964905176686
 20
850.1014292248799
 30
0.0
 10
943.7825573504899
 20
849.9059264520333
 30
0.0
 10
943.9429832184692
 20
849.6853946682063
 30
0.0
 10
944.0705286347234
 20
849.4427986184897
 30
0.0
 10
944.1628013143022
 20
849.1839204727125
 30
0.0
 10
944.221219315122
 20
848.912099348325
 30
0.0
 10
944.2272271647582
 20
848.7254863703159
 30
0.0
 10
944.2302634352399
 20
848.6311751756457
 30
0.0
  0
LINE
  5
A0
330
1F
100
AcDbEntity
  8
0
  6
Continuous
 62
     7
370
    25
100
AcDbLine
 10
940.1276993327
 20
850.6135469705
 30
0.0
 11
941.6885967686
 21
850.6135469705
 31
0.0
  0
LINE
  5
A1
330
1F
100
AcDbEntity
  8
0
  6
Continuous
 62
     7
370
    25
100
AcDbLine
 10
940.1276993327
 20
842.6135469705
 30
0.0
 11
940.1276993327
 21
850.6135469705
 31
0.0
  0
LINE
  5
A2
330
1F
100
AcDbEntity
  8
0
  6
Continuous
 62
     7
370
    25
100
AcDbLine
 10
942.2911608711
 20
842.6135469705
 30
0.0
 11
940.1276993327
 21
842.6135469705
 31
0.0
  0
SPLINE
  5
A3
330
1F
100
AcDbEntity
  8
0
  6
Continuous
 62
     7
370
    25
100
AcDbSpline
210
0.0
220
0.0
230
1.0
 70
     8
 71
     3
 72
    23
 73
    19
 74
     0
 42
0.00000001
 43
0.00000001
 40
0.0
 40
0.0
 40
0.0
 40
0.0
 40
0.0611602766365182
 40
0.1203345577262017
 40
0.1781802550631247
 40
0.2352351259863637
 40
0.2926829614441804
 40
0.3511862482150802
 40
0.4104566095096936
 40
0.471719854462996
 40
0.5337612027725894
 40
0.5957390238870951
 40
0.6578875151248855
 40
0.7212951802914609
 40
0.7868225145418889
 40
0.8546861538286834
 40
0.9254779862699963
 40
1.0
 40
1.0
 40
1.0
 40
1.0
 10
967.8200070249834
 20
844.8843803038508
 30
0.0
 10
967.8177742340729
 20
844.8062845961437
 30
0.0
 10
967.8133811554035
 20
844.6526291033292
 30
0.0
 10
967.7809697912967
 20
844.4269030814995
 30
0.0
 10
967.7260918324604
 20
844.211188917813
 30
0.0
 10
967.6505006407697
 20
844.0040913573462
 30
0.0
 10
967.5518439216878
 20
843.8060110499847
 30
0.0
 10
967.431780003216
 20
843.6167235894441
 30
0.0
 10
967.2886221435065
 20
843.4381308337571
 30
0.0
 10
967.1284784430451
 20
843.2682482666645
 30
0.0
 10
966.9473078247851
 20
843.1154990384592
 30
0.0
 10
966.7518432421051
 20
842.9794631374734
 30
0.0
 10
966.5396230823482
 20
842.8675864240666
 30
0.0
 10
966.3141328103105
 20
842.7736069463458
 30
0.0
 10
966.0728429449066
 20
842.70181906414
 30
0.0
 10
965.816836985227
 20
842.6515960380844
 30
0.0
 10
965.5463357238899
 20
842.6177559535162
 30
0.0
 10
965.360713435635
 20
842.6149737708993
 30
0.0
 10
965.2655198454962
 20
842.6135469705175
 30
0.0
  0
SPLINE
  5
A4
330
1F
100
AcDbEntity
  8
0
  6
Continuous
 62
     7
370
    25
100
AcDbSpline
210
0.0
220
0.0
230
1.0
 70
     8
 71
     3
 72
    19
 73
    15
 74
     0
 42
0.00000001
 43
0.00000001
 40
0.0
 40
0.0
 40
0.0
 40
0.0
 40
0.1060574933033961
 40
0.2029142570846082
 40
0.2903001653958366
 40
0.3702225656250397
 40
0.4463837207709687
 40
0.5213968999648279
 40
0.5982910828464564
 40
0.676142468856928
 40
0.7555286995560223
 40
0.8348871724576564
 40
0.9166460487466404
 40
1.0
 40
1.0
 40
1.0
 40
1.0
 10
966.2799429224194
 20
846.9292520987226
 30
0.0
 10
966.3708238997788
 20
846.8943606725726
 30
0.0
 10
966.5447017223602
 20
846.8276047310985
 30
0.0
 10
966.7839840364903
 20
846.709580813391
 30
0.0
 10
966.9901436821958
 20
846.5812102753536
 30
0.0
 10
967.164765730162
 20
846.4410231893108
 30
0.0
 10
967.3141089414
 20
846.2899173360763
 30
0.0
 10
967.4445156649953
 20
846.1256770749372
 30
0.0
 10
967.5557873773629
 20
845.9461599140745
 30
0.0
 10
967.6511312026557
 20
845.753237547532
 30
0.0
 10
967.7255283592872
 20
845.5488799055734
 30
0.0
 10
967.7812447121322
 20
845.3350038459222
 30
0.0
 10
967.8131703101569
 20
845.1123762911923
 30
0.0
 10
967.8177134902214
 20
844.9608668527043
 30
0.0
 10
967.8200070249834
 20
844.8843803038508
 30
0.0
  0
SPLINE
  5
A5
330
1F
100
AcDbEntity
  8
0
  6
Continuous
 62
     7
370
    25
100
AcDbSpline
210
0.0
220
0.0
230
1.0
 70
     8
 71
     3
 72
    15
 73
    11
 74
     0
 42
0.00000001
 43
0.00000001
 40
0.0
 40
0.0
 40
0.0
 40
0.0
 40
0.1305691070873112
 40
0.2565806086940824
 40
0.3805516168036839
 40
0.5036229172007088
 40
0.6257393231697878
 40
0.7475485819596266
 40
0.8717661185648738
 40
1.0
 40
1.0
 40
1.0
 40
1.0
 10
967.2046224095989
 20
848.6311751756457
 30
0.0
 10
967.2021236245872
 20
848.5428264769532
 30
0.0
 10
967.1972132763926
 20
848.3692129523337
 30
0.0
 10
967.1502583979177
 20
848.1152835596855
 30
0.0
 10
967.0767482986273
 20
847.8735664880801
 30
0.0
 10
966.9745648719669
 20
847.6449438928414
 30
0.0
 10
966.8417603092284
 20
847.4345813485085
 30
0.0
 10
966.6843698665652
 20
847.2407818832627
 30
0.0
 10
966.4944800323002
 20
847.0717508958456
 30
0.0
 10
966.3522097694706
 20
846.9772528328726
 30
0.0
 10
966.2799429224194
 20
846.9292520987226
 30
0.0
  0
SPLINE
  5
A6
330
1F
100
AcDbEntity
  8
0
  6
Continuous
 62
     7
370
    25
100
AcDbSpline
210
0.0
220
0.0
230
1.0
 70
     8
 71
     3
 72
    23
 73
    19
 74
     0
 42
0.00000001
 43
0.00000001
 40
0.0
 40
0.0
 40
0.0
 40
0.0
 40
0.0625940971873324
 40
0.1213229386347483
 40
0.1766801421977651
 40
0.2283650957096747
 40
0.2768684458368066
 40
0.3218791276660453
 40
0.3640986251098911
 40
0.4033556962427007
 40
0.4779679481633698
 40
0.5505354613647764
 40
0.6235844567403223
 40
0.6981748822642049
 40
0.7733536703408737
 40
0.8472811254977322
 40
0.9228183395566673
 40
1.0
 40
1.0
 40
1.0
 40
1.0
 10
964.6629557429321
 20
850.6135469705175
 30
0.0
 10
964.7393636930757
 20
850.6131452553134
 30
0.0
 10
964.8874613167018
 20
850.61236663127
 30
0.0
 10
965.1028200408817
 20
850.6002909029341
 30
0.0
 10
965.3045316080602
 20
850.583825371783
 30
0.0
 10
965.4926545162899
 20
850.557699445739
 30
0.0
 10
965.667101836041
 20
850.5261753836926
 30
0.0
 10
965.8283992925845
 20
850.4879998040574
 30
0.0
 10
965.976033972055
 20
850.4422246871226
 30
0.0
 10
966.1522916552691
 20
850.3694331871627
 30
0.0
 10
966.3532531658493
 20
850.2612659452204
 30
0.0
 10
966.5708494920275
 20
850.1014292248799
 30
0.0
 10
966.7569163248488
 20
849.9059264520333
 30
0.0
 10
966.9173421928281
 20
849.6853946682063
 30
0.0
 10
967.0448876090824
 20
849.4427986184897
 30
0.0
 10
967.1371602886611
 20
849.1839204727125
 30
0.0
 10
967.1955782894809
 20
848.9120993483249
 30
0.0
 10
967.2015861391172
 20
848.7254863703159
 30
0.0
 10
967.2046224095989
 20
848.6311751756457
 30
0.0
  0
LINE
  5
A7
330
1F
100
AcDbEntity
  8
0
  6
Continuous
 62
     7
370
    25
100
AcDbLine
 10
963.102058307
 20
850.6135469705
 30
0.0
 11
964.6629557429
 21
850.6135469705
 31
0.0
  0
LINE
  5
A8
330
1F
100
AcDbEntity
  8
0
  6
Continuous
 62
     7
370
    25
100
AcDbLine
 10
963.102058307
 20
842.6135469705
 30
0.0
 11
963.102058307
 21
850.6135469705
 31
0.0
  0
LINE
  5
A9
330
1F
100
AcDbEntity
  8
0
  6
Continuous
 62
     7
370
    25
100
AcDbLine
 10
965.2655198455
 20
842.6135469705
 30
0.0
 11
963.102058307
 21
842.6135469705
 31
0.0
  0
CIRCLE
  5
AA
330
1F
100
AcDbEntity
  8
0
  6
Continuous
 62
     7
370
    25
100
AcDbCircle
 10
917.428454363
 20
867.8612862213
 30
0.0
 40
9.000000000000073
  0
CIRCLE
  5
AB
330
1F
100
AcDbEntity
  8
0
  6
Continuous
 62
     7
370
    25
100
AcDbCircle
 10
869.2620014499
 20
819.6948333083
 30
0.0
 40
9.0
  0
CIRCLE
  5
AC
330
1F
100
AcDbEntity
  8
0
  6
Continuous
 62
     7
370
    25
100
AcDbCircle
 10
869.2620014499
 20
751.5771823473
 30
0.0
 40
8.999999999999993
  0
CIRCLE
  5
AD
330
1F
100
AcDbEntity
  8
0
  6
Continuous
 62
     7
370
    25
100
AcDbCircle
 10
917.428454363
 20
703.4107294343
 30
0.0
 40
9.0
  0
CIRCLE
  5
AE
330
1F
100
AcDbEntity
  8
0
  6
Continuous
 62
     7
370
    25
100
AcDbCircle
 10
985.5461053239
 20
703.4107294343
 30
0.0
 40
8.999999999999993
  0
CIRCLE
  5
AF
330
1F
100
AcDbEntity
  8
0
  6
Continuous
 62
     7
370
    25
100
AcDbCircle
 10
1033.7125582369
 20
751.5771823473
 30
0.0
 40
9.0
  0
CIRCLE
  5
B0
330
1F
100
AcDbEntity
  8
0
  6
Continuous
 62
     7
370
    25
100
AcDbCircle
 10
1033.7125582369
 20
819.6948333083
 30
0.0
 40
9.000000000000234
  0
CIRCLE
  5
B1
330
1F
100
AcDbEntity
  8
0
  6
Continuous
 62
     7
370
    25
100
AcDbCircle
 10
985.5461053239
 20
867.8612862213
 30
0.0
 40
9.0
  0
CIRCLE
  5
B2
330
1F
100
AcDbEntity
  8
0
  6
Continuous
 62
     7
370
    25
100
AcDbCircle
 10
951.4872798434
 20
785.6360078278
 30
0.0
 40
107.5
  0
LINE
  5
B3
330
1F
100
AcDbEntity
  8
0
  6
Continuous
 62
     7
370
    25
100
AcDbLine
 10
988.1276993327
 20
843.434059791
 30
0.0
 11
988.1276993327
 21
842.6135469705
 31
0.0
  0
LINE
  5
B4
330
1F
100
AcDbEntity
  8
0
  6
Continuous
 62
     7
370
    25
100
AcDbLine
 10
984.3328275378
 20
843.434059791
 30
0.0
 11
988.1276993327
 21
843.434059791
 31
0.0
  0
LINE
  5
B5
330
1F
100
AcDbEntity
  8
0
  6
Continuous
 62
     7
370
    25
100
AcDbLine
 10
984.3328275378
 20
846.510982868
 30
0.0
 11
984.3328275378
 21
843.434059791
 31
0.0
  0
LINE
  5
B6
330
1F
100
AcDbEntity
  8
0
  6
Continuous
 62
     7
370
    25
100
AcDbLine
 10
988.1276993327
 20
846.510982868
 30
0.0
 11
984.3328275378
 21
846.510982868
 31
0.0
  0
LINE
  5
B7
330
1F
100
AcDbEntity
  8
0
  6
Continuous
 62
     7
370
    25
100
AcDbLine
 10
988.1276993327
 20
847.3314956885
 30
0.0
 11
988.1276993327
 21
846.510982868
 31
0.0
  0
LINE
  5
B8
330
1F
100
AcDbEntity
  8
0
  6
Continuous
 62
     7
370
    25
100
AcDbLine
 10
984.3328275378
 20
847.3314956885
 30
0.0
 11
988.1276993327
 21
847.3314956885
 31
0.0
  0
LINE
  5
B9
330
1F
100
AcDbEntity
  8
0
  6
Continuous
 62
     7
370
    25
100
AcDbLine
 10
984.3328275378
 20
849.79303415
 30
0.0
 11
984.3328275378
 21
847.3314956885
 31
0.0
  0
LINE
  5
BA
330
1F
100
AcDbEntity
  8
0
  6
Continuous
 62
     7
370
    25
100
AcDbLine
 10
988.1276993327
 20
849.79303415
 30
0.0
 11
984.3328275378
 21
849.79303415
 31
0.0
  0
LINE
  5
BB
330
1F
100
AcDbEntity
  8
0
  6
Continuous
 62
     7
370
    25
100
AcDbLine
 10
988.1276993327
 20
850.6135469705
 30
0.0
 11
988.1276993327
 21
849.79303415
 31
0.0
  0
LINE
  5
BC
330
1F
100
AcDbEntity
  8
0
  6
Continuous
 62
     7
370
    25
100
AcDbLine
 10
983.6148788199
 20
850.6135469705
 30
0.0
 11
988.1276993327
 21
850.6135469705
 31
0.0
  0
LINE
  5
BD
330
1F
100
AcDbEntity
  8
0
  6
Continuous
 62
     7
370
    25
100
AcDbLine
 10
983.6148788199
 20
842.6135469705
 30
0.0
 11
983.6148788199
 21
850.6135469705
 31
0.0
  0
LINE
  5
BE
330
1F
100
AcDbEntity
  8
0
  6
Continuous
 62
     7
370
    25
100
AcDbLine
 10
988.1276993327
 20
842.6135469705
 30
0.0
 11
983.6148788199
 21
842.6135469705
 31
0.0
  0
LINE
  5
BF
330
1F
100
AcDbEntity
  8
0
  6
Continuous
 62
     7
370
    25
100
AcDbLine
 10
979.102058307
 20
843.434059791
 30
0.0
 11
979.102058307
 21
842.6135469705
 31
0.0
  0
LINE
  5
C0
330
1F
100
AcDbEntity
  8
0
  6
Continuous
 62
     7
370
    25
100
AcDbLine
 10
975.3071865122
 20
843.434059791
 30
0.0
 11
979.102058307
 21
843.434059791
 31
0.0
  0
LINE
  5
C1
330
1F
100
AcDbEntity
  8
0
  6
Continuous
 62
     7
370
    25
100
AcDbLine
 10
975.3071865122
 20
846.510982868
 30
0.0
 11
975.3071865122
 21
843.434059791
 31
0.0
  0
LINE
  5
C2
330
1F
100
AcDbEntity
  8
0
  6
Continuous
 62
     7
370
    25
100
AcDbLine
 10
979.102058307
 20
846.510982868
 30
0.0
 11
975.3071865122
 21
846.510982868
 31
0.0
  0
LINE
  5
C3
330
1F
100
AcDbEntity
  8
0
  6
Continuous
 62
     7
370
    25
100
AcDbLine
 10
979.102058307
 20
847.3314956885
 30
0.0
 11
979.102058307
 21
846.510982868
 31
0.0
  0
LINE
  5
C4
330
1F
100
AcDbEntity
  8
0
  6
Continuous
 62
     7
370
    25
100
AcDbLine
 10
975.3071865122
 20
847.3314956885
 30
0.0
 11
979.102058307
 21
847.3314956885
 31
0.0
  0
LINE
  5
C5
330
1F
100
AcDbEntity
  8
0
  6
Continuous
 62
     7
370
    25
100
AcDbLine
 10
975.3071865122
 20
849.79303415
 30
0.0
 11
975.3071865122
 21
847.3314956885
 31
0.0
  0
LINE
  5
C6
330
1F
100
AcDbEntity
  8
0
  6
Continuous
 62
     7
370
    25
100
AcDbLine
 10
979.102058307
 20
849.79303415
 30
0.0
 11
975.3071865122
 21
849.79303415
 31
0.0
  0
LINE
  5
C7
330
1F
100
AcDbEntity
  8
0
  6
Continuous
 62
     7
370
    25
100
AcDbLine
 10
979.102058307
 20
850.6135469705
 30
0.0
 11
979.102058307
 21
849.79303415
 31
0.0
  0
LINE
  5
C8
330
1F
100
AcDbEntity
  8
0
  6
Continuous
 62
     7
370
    25
100
AcDbLine
 10
974.5892377942
 20
850.6135469705
 30
0.0
 11
979.102058307
 21
850.6135469705
 31
0.0
  0
LINE
  5
C9
330
1F
100
AcDbEntity
  8
0
  6
Continuous
 62
     7
370
    25
100
AcDbLine
 10
974.5892377942
 20
842.6135469705
 30
0.0
 11
974.5892377942
 21
850.6135469705
 31
0.0
  0
LINE
  5
CA
330
1F
100
AcDbEntity
  8
0
  6
Continuous
 62
     7
370
    25
100
AcDbLine
 10
979.102058307
 20
842.6135469705
 30
0.0
 11
974.5892377942
 21
842.6135469705
 31
0.0
  0
LINE
  5
CB
330
1F
100
AcDbEntity
  8
0
  6
Continuous
 62
     7
370
    25
100
AcDbLine
 10
973.2559044609
 20
843.434059791
 30
0.0
 11
973.2559044609
 21
842.6135469705
 31
0.0
  0
LINE
  5
CC
330
1F
100
AcDbEntity
  8
0
  6
Continuous
 62
     7
370
    25
100
AcDbLine
 10
970.178981384
 20
843.434059791
 30
0.0
 11
973.2559044609
 21
843.434059791
 31
0.0
  0
LINE
  5
CD
330
1F
100
AcDbEntity
  8
0
  6
Continuous
 62
     7
370
    25
100
AcDbLine
 10
970.178981384
 20
850.6135469705
 30
0.0
 11
970.178981384
 21
843.434059791
 31
0.0
  0
LINE
  5
CE
330
1F
100
AcDbEntity
  8
0
  6
Continuous
 62
     7
370
    25
100
AcDbLine
 10
969.461032666
 20
850.6135469705
 30
0.0
 11
970.178981384
 21
850.6135469705
 31
0.0
  0
LINE
  5
CF
330
1F
100
AcDbEntity
  8
0
  6
Continuous
 62
     7
370
    25
100
AcDbLine
 10
969.461032666
 20
842.6135469705
 30
0.0
 11
969.461032666
 21
850.6135469705
 31
0.0
  0
LINE
  5
D0
330
1F
100
AcDbEntity
  8
0
  6
Continuous
 62
     7
370
    25
100
AcDbLine
 10
973.2559044609
 20
842.6135469705
 30
0.0
 11
969.461032666
 21
842.6135469705
 31
0.0
  0
LINE
  5
D1
330
1F
100
AcDbEntity
  8
0
  6
Continuous
 62
     7
370
    25
100
AcDbLine
 10
954.8600711275
 20
842.6135469705
 30
0.0
 11
954.0764172814
 21
842.6135469705
 31
0.0
  0
LINE
  5
D2
330
1F
100
AcDbEntity
  8
0
  6
Continuous
 62
     7
370
    25
100
AcDbLine
 10
956.0764172814
 20
845.1776495346
 30
0.0
 11
954.8600711275
 21
842.6135469705
 31
0.0
  0
LINE
  5
D3
330
1F
100
AcDbEntity
  8
0
  6
Continuous
 62
     7
370
    25
100
AcDbLine
 10
959.7030198455
 20
845.1776495346
 30
0.0
 11
956.0764172814
 21
845.1776495346
 31
0.0
  0
LINE
  5
D4
330
1F
100
AcDbEntity
  8
0
  6
Continuous
 62
     7
370
    25
100
AcDbLine
 10
960.8857121532
 20
842.6135469705
 30
0.0
 11
959.7030198455
 21
845.1776495346
 31
0.0
  0
LINE
  5
D5
330
1F
100
AcDbEntity
  8
0
  6
Continuous
 62
     7
370
    25
100
AcDbLine
 10
961.6661608711
 20
842.6135469705
 30
0.0
 11
960.8857121532
 21
842.6135469705
 31
0.0
  0
LINE
  5
D6
330
1F
100
AcDbEntity
  8
0
  6
Continuous
 62
     7
370
    25
100
AcDbLine
 10
957.9738531788
 20
850.6135469705
 30
0.0
 11
961.6661608711
 21
842.6135469705
 31
0.0
  0
LINE
  5
D7
330
1F
100
AcDbEntity
  8
0
  6
Continuous
 62
     7
370
    25
100
AcDbLine
 10
957.8712890763
 20
850.6135469705
 30
0.0
 11
957.9738531788
 21
850.6135469705
 31
0.0
  0
LINE
  5
D8
330
1F
100
AcDbEntity
  8
0
  6
Continuous
 62
     7
370
    25
100
AcDbLine
 10
954.0764172814
 20
842.6135469705
 30
0.0
 11
957.8712890763
 21
850.6135469705
 31
0.0
  0
LINE
  5
D9
330
1F
100
AcDbEntity
  8
0
  6
Continuous
 62
     7
370
    25
100
AcDbLine
 10
951.7174429224
 20
842.6135469705
 30
0.0
 11
950.9994942045
 21
842.6135469705
 31
0.0
  0
LINE
  5
DA
330
1F
100
AcDbEntity
  8
0
  6
Continuous
 62
     7
370
    25
100
AcDbLine
 10
951.7174429224
 20
849.79303415
 30
0.0
 11
951.7174429224
 21
842.6135469705
 31
0.0
  0
LINE
  5
DB
330
1F
100
AcDbEntity
  8
0
  6
Continuous
 62
     7
370
    25
100
AcDbLine
 10
953.461032666
 20
849.79303415
 30
0.0
 11
951.7174429224
 21
849.79303415
 31
0.0
  0
LINE
  5
DC
330
1F
100
AcDbEntity
  8
0
  6
Continuous
 62
     7
370
    25
100
AcDbLine
 10
953.461032666
 20
850.6135469705
 30
0.0
 11
953.461032666
 21
849.79303415
 31
0.0
  0
LINE
  5
DD
330
1F
100
AcDbEntity
  8
0
  6
Continuous
 62
     7
370
    25
100
AcDbLine
 10
949.2559044609
 20
850.6135469705
 30
0.0
 11
953.461032666
 21
850.6135469705
 31
0.0
  0
LINE
  5
DE
330
1F
100
AcDbEntity
  8
0
  6
Continuous
 62
     7
370
    25
100
AcDbLine
 10
949.2559044609
 20
849.79303415
 30
0.0
 11
949.2559044609
 21
850.6135469705
 31
0.0
  0
LINE
  5
DF
330
1F
100
AcDbEntity
  8
0
  6
Continuous
 62
     7
370
    25
100
AcDbLine
 10
950.9994942045
 20
849.79303415
 30
0.0
 11
949.2559044609
 21
849.79303415
 31
0.0
  0
LINE
  5
E0
330
1F
100
AcDbEntity
  8
0
  6
Continuous
 62
     7
370
    25
100
AcDbLine
 10
950.9994942045
 20
842.6135469705
 30
0.0
 11
950.9994942045
 21
849.79303415
 31
0.0
  0
LINE
  5
E1
330
1F
100
AcDbEntity
  8
0
  6
Continuous
 62
     7
370
    25
100
AcDbLine
 10
948.8456480506
 20
846.1007264577
 30
0.0
 11
948.8456480506
 21
845.2802136372
 31
0.0
  0
LINE
  5
E2
330
1F
100
AcDbEntity
  8
0
  6
Continuous
 62
     7
370
    25
100
AcDbLine
 10
945.7687249737
 20
846.1007264577
 30
0.0
 11
948.8456480506
 21
846.1007264577
 31
0.0
  0
LINE
  5
E3
330
1F
100
AcDbEntity
  8
0
  6
Continuous
 62
     7
370
    25
100
AcDbLine
 10
945.7687249737
 20
845.2802136372
 30
0.0
 11
945.7687249737
 21
846.1007264577
 31
0.0
  0
LINE
  5
E4
330
1F
100
AcDbEntity
  8
0
  6
Continuous
 62
     7
370
    25
100
AcDbLine
 10
948.8456480506
 20
845.2802136372
 30
0.0
 11
945.7687249737
 21
845.2802136372
 31
0.0
  0
SPLINE
  5
E5
330
1F
100
AcDbEntity
  8
0
  6
Continuous
 62
     7
370
    25
100
AcDbSpline
210
0.0
220
0.0
230
1.0
 70
     8
 71
     3
 72
    31
 73
    27
 74
     0
 42
0.00000001
 43
0.00000001
 40
0.0
 40
0.0
 40
0.0
 40
0.0
 40
0.0337881161627106
 40
0.0671939323738803
 40
0.0998624108568254
 40
0.1325666121262584
 40
0.1651511732547858
 40
0.1979131873557924
 40
0.2313190035669617
 40
0.265083278267373
 40
0.2992553087581151
 40
0.3343985665049788
 40
0.3699428235093071
 40
0.4062835607000603
 40
0.4440638196985091
 40
0.4829977068727747
 40
0.5233544466133042
 40
0.5655365896041499
 40
0.6096129240658184
 40
0.6563908113764169
 40
0.7058854949364558
 40
0.7583245002617313
 40
0.8138317829411499
 40
0.8727945590393901
 40
0.9347222295400733
 40
1.0
 40
1.0
 40
1.0
 40
1.0
 10
927.7254557429321
 20
850.8186751756457
 30
0.0
 10
927.7890796937535
 20
850.8175601695299
 30
0.0
 10
927.9156077140864
 20
850.8153427731772
 30
0.0
 10
928.1026714289343
 20
850.7940309045267
 30
0.0
 10
928.2854135585676
 20
850.7586683374481
 30
0.0
 10
928.4630550184613
 20
850.7085632526877
 30
0.0
 10
928.6370549875305
 20
850.6464017060375
 30
0.0
 10
928.8060524907206
 20
850.5684882955022
 30
0.0
 10
928.9710972487595
 20
850.4777937415722
 30
0.0
 10
929.1295664773764
 20
850.3712248791569
 30
0.0
 10
929.2831998838817
 20
850.2524082478501
 30
0.0
 10
929.4282237992467
 20
850.1180935762995
 30
0.0
 10
929.564651424155
 20
849.9696370751141
 30
0.0
 10
929.6941949793236
 20
849.8086271005161
 30
0.0
 10
929.8131792014933
 20
849.6319754780394
 30
0.0
 10
929.9264899037457
 20
849.442754655607
 30
0.0
 10
930.0279117000923
 20
849.2376555360784
 30
0.0
 10
930.1255909576435
 20
849.020100181013
 30
0.0
 10
930.2099040701903
 20
848.7840689608836
 30
0.0
 10
930.2859412022412
 20
848.5308923654136
 30
0.0
 10
930.3473788446984
 20
848.2575799383203
 30
0.0
 10
930.3985543243283
 20
847.96556566336
 30
0.0
 10
930.4381998007754
 20
847.6537771302397
 30
0.0
 10
930.4670744112407
 20
847.3228826947842
 30
0.0
 10
930.4823271770495
 20
846.9726646590339
 30
0.0
 10
930.4851996369504
 20
846.7332181466289
 30
0.0
 10
930.48667369165
 20
846.6103418423123
 30
0.0
  0
SPLINE
  5
E6
330
1F
100
AcDbEntity
  8
0
  6
Continuous
 62
     7
370
    25
100
AcDbSpline
210
0.0
220
0.0
230
1.0
 70
     8
 71
     3
 72
    31
 73
    27
 74
     0
 42
0.00000001
 43
0.00000001
 40
0.0
 40
0.0
 40
0.0
 40
0.0
 40
0.0685946222587427
 40
0.1332460424433014
 40
0.194312586468256
 40
0.2512792231169663
 40
0.3045134392563468
 40
0.3542349066533263
 40
0.4004805887739903
 40
0.4434107549384921
 40
0.4840148686163453
 40
0.5232523007732024
 40
0.5610423727283604
 40
0.5979002393643995
 40
0.6335184888561969
 40
0.6683143511696527
 40
0.7024956712863815
 40
0.7366853535134588
 40
0.7702931693607898
 40
0.8034372550192489
 40
0.8359129516660292
 40
0.8684602457892913
 40
0.9008465382431833
 40
0.9334665246307081
 40
0.9662575752981233
 40
1.0
 40
1.0
 40
1.0
 40
1.0
 10
925.0507762557526
 20
846.6103418423123
 30
0.0
 10
925.0515260115411
 20
846.7385644428477
 30
0.0
 10
925.052982422967
 20
846.9876386925563
 30
0.0
 10
925.0691845279779
 20
847.3505750172804
 30
0.0
 10
925.0960995961223
 20
847.6910556778407
 30
0.0
 10
925.13298501978
 20
848.009096971643
 30
0.0
 10
925.1778718317197
 20
848.3047810048263
 30
0.0
 10
925.2377929439513
 20
848.5773175925664
 30
0.0
 10
925.3059364927855
 20
848.8279681219677
 30
0.0
 10
925.384913511781
 20
849.0575499470557
 30
0.0
 10
925.4740284581086
 20
849.2691561253921
 30
0.0
 10
925.5710210540448
 20
849.466699442635
 30
0.0
 10
925.6797405841558
 20
849.6498810022688
 30
0.0
 10
925.7939735279892
 20
849.8216245232286
 30
0.0
 10
925.9183439774241
 20
849.979118682754
 30
0.0
 10
926.0493126413493
 20
850.1245876256535
 30
0.0
 10
926.1919912156742
 20
850.2546693409993
 30
0.0
 10
926.3415295202991
 20
850.3731751750223
 30
0.0
 10
926.4992814389088
 20
850.4770596817011
 30
0.0
 10
926.6607503900932
 20
850.5685630842513
 30
0.0
 10
926.8270477749069
 20
850.6467342094116
 30
0.0
 10
926.9986276215308
 20
850.7081980628049
 30
0.0
 10
927.17394775385
 20
850.7589657125708
 30
0.0
 10
927.3536210491443
 20
850.7936833071915
 30
0.0
 10
927.5379441667131
 20
850.815527669453
 30
0.0
 10
927.6623588748232
 20
850.8176160528591
 30
0.0
 10
927.7254557429321
 20
850.8186751756457
 30
0.0
  0
SPLINE
  5
E7
330
1F
100
AcDbEntity
  8
0
  6
Continuous
 62
     7
370
    25
100
AcDbSpline
210
0.0
220
0.0
230
1.0
 70
     8
 71
     3
 72
    31
 73
    27
 74
     0
 42
0.00000001
 43
0.00000001
 40
0.0
 40
0.0
 40
0.0
 40
0.0
 40
0.033787146346991
 40
0.0666216577242937
 40
0.0992848780959717
 40
0.1313611650426503
 40
0.1635851875953427
 40
0.1961039269870671
 40
0.2289022543238165
 40
0.2621580559050069
 40
0.2959912222583159
 40
0.3302178457247996
 40
0.365059825891954
 40
0.4009507373401074
 40
0.4376203820767374
 40
0.475707529437092
 40
0.5153806916250478
 40
0.5564135414931644
 40
0.5997648298727304
 40
0.6464241555840872
 40
0.6964314445175672
 40
0.749781517801557
 40
0.8065733069755328
 40
0.8674355315654001
 40
0.9318867532508747
 40
1.0
 40
1.0
 40
1.0
 40
1.0
 10
927.7254557429321
 20
842.4084187653893
 30
0.0
 10
927.6623606252515
 20
842.4094847207238
 30
0.0
 10
927.5379493686446
 20
842.4115865765807
 30
0.0
 10
927.3536009676402
 20
842.4333322485537
 30
0.0
 10
927.1746696683489
 20
842.4682933987534
 30
0.0
 10
927.000272516263
 20
842.5172456366757
 30
0.0
 10
926.8295147675002
 20
842.5771652625397
 30
0.0
 10
926.6647232551442
 20
842.6552308250608
 30
0.0
 10
926.5040656924226
 20
842.7451372683887
 30
0.0
 10
926.3479707072383
 20
842.8475268031049
 30
0.0
 10
926.1993714820045
 20
842.9648335073982
 30
0.0
 10
926.0574318127157
 20
843.0945804529674
 30
0.0
 10
925.9257174833511
 20
843.2400053930758
 30
0.0
 10
925.8031252647974
 20
843.3988120744648
 30
0.0
 10
925.6866130632071
 20
843.5695394855112
 30
0.0
 10
925.5794373527631
 20
843.7545186239006
 30
0.0
 10
925.480303972036
 20
843.9530160193054
 30
0.0
 10
925.3896902790794
 20
844.1663141008486
 30
0.0
 10
925.3093504767596
 20
844.3975253645281
 30
0.0
 10
925.2383842867861
 20
844.6492949153909
 30
0.0
 10
925.1823519268545
 20
844.9238449407944
 30
0.0
 10
925.1343908860936
 20
845.218970351321
 30
0.0
 10
925.0957065819942
 20
845.53593933506
 30
0.0
 10
925.0692966955522
 20
845.8749239709158
 30
0.0
 10
925.0529736897563
 20
846.2357130198899
 30
0.0
 10
925.0515221002246
 20
846.4831867897565
 30
0.0
 10
925.0507762557526
 20
846.6103418423123
 30
0.0
  0
SPLINE
  5
E8
330
1F
100
AcDbEntity
  8
0
  6
Continuous
 62
     7
370
    25
100
AcDbSpline
210
0.0
220
0.0
230
1.0
 70
     8
 71
     3
 72
    31
 73
    27
 74
     0
 42
0.00000001
 43
0.00000001
 40
0.0
 40
0.0
 40
0.0
 40
0.0
 40
0.0650632896172782
 40
0.1267731664665232
 40
0.1855157632260793
 40
0.2407646791677144
 40
0.2929797960235975
 40
0.3422503727797677
 40
0.3889192861856604
 40
0.4327756640583105
 40
0.4746284326311171
 40
0.5147746906379531
 40
0.5536058934984427
 40
0.5914264064311727
 40
0.6280281199460671
 40
0.6638036341103207
 40
0.6989843361316638
 40
0.7335914893067053
 40
0.7676284691511394
 40
0.8012083477865916
 40
0.8342638397266231
 40
0.8669806947287767
 40
0.8997197415181605
 40
0.9327019124985381
 40
0.9661758834327494
 40
1.0
 40
1.0
 40
1.0
 40
1.0
 10
930.48667369165
 20
846.6103418423123
 30
0.0
 10
930.4851843555497
 20
846.4880014813045
 30
0.0
 10
930.4822824448948
 20
846.2496262770558
 30
0.0
 10
930.4672454008544
 20
845.9009840477535
 30
0.0
 10
930.4376256724458
 20
845.571845663071
 30
0.0
 10
930.4005742705972
 20
845.2614217488797
 30
0.0
 10
930.3492577838008
 20
844.9710043344043
 30
0.0
 10
930.2861602609407
 20
844.699588452192
 30
0.0
 10
930.2161023802053
 20
844.4460020026711
 30
0.0
 10
930.1296228508113
 20
844.2123224332768
 30
0.0
 10
930.0349697985891
 20
843.9952899238716
 30
0.0
 10
929.9319864930454
 20
843.7926221562608
 30
0.0
 10
929.8216554619925
 20
843.6025277729932
 30
0.0
 10
929.7014526162712
 20
843.4265283514362
 30
0.0
 10
929.5733305289651
 20
843.2633771352697
 30
0.0
 10
929.434547011724
 20
843.1159539977804
 30
0.0
 10
929.2890142457766
 20
842.980706747579
 30
0.0
 10
929.1349287238705
 20
842.8603601705225
 30
0.0
 10
928.9739880353399
 20
842.7550234742108
 30
0.0
 10
928.8095101452259
 20
842.6608203876101
 30
0.0
 10
928.6385766975749
 20
842.5848599417819
 30
0.0
 10
928.4650613770503
 20
842.5196369909756
 30
0.0
 10
928.2864822545018
 20
842.4698073866645
 30
0.0
 10
928.1030619329259
 20
842.4353528597602
 30
0.0
 10
927.9157333936603
 20
842.4111886347207
 30
0.0
 10
927.7891012449032
 20
842.4093452521486
 30
0.0
 10
927.7254557429321
 20
842.4084187653893
 30
0.0
  0
LINE
  5
E9
330
1F
100
AcDbEntity
  8
0
  6
Continuous
 62
     7
370
    25
100
AcDbLine
 10
963.820007025
 20
849.79303415
 30
0.0
 11
963.820007025
 21
847.2289315859
 31
0.0
  0
LINE
  5
EA
330
1F
100
AcDbEntity
  8
0
  6
Continuous
 62
     7
370
    25
100
AcDbLine
 10
963.820007025
 20
847.2289315859
 30
0.0
 11
964.3023788199
 21
847.2289315859
 31
0.0
  0
SPLINE
  5
EB
330
1F
100
AcDbEntity
  8
0
  6
Continuous
 62
     7
370
    25
100
AcDbSpline
210
0.0
220
0.0
230
1.0
 70
     8
 71
     3
 72
    23
 73
    19
 74
     0
 42
0.00000001
 43
0.00000001
 40
0.0
 40
0.0
 40
0.0
 40
0.0
 40
0.0723010339955039
 40
0.1397003317393853
 40
0.2022885114847722
 40
0.2605995332222004
 40
0.3131903291553323
 40
0.3617389329854287
 40
0.4057064756322237
 40
0.445539984894872
 40
0.5188319558616071
 40
0.589778239583577
 40
0.6588674786561463
 40
0.7284304780610633
 40
0.7972827036081008
 40
0.8648153774014442
 40
0.9313637528792686
 40
1.0
 40
1.0
 40
1.0
 40
1.0
 10
964.3023788198552
 20
847.228931585902
 30
0.0
 10
964.3728903521213
 20
847.2298456956312
 30
0.0
 10
964.5091330018413
 20
847.2316119419122
 30
0.0
 10
964.7064356225471
 20
847.2366714094825
 30
0.0
 10
964.8895785212811
 20
847.2508383658641
 30
0.0
 10
965.0582455683074
 20
847.2650012505603
 30
0.0
 10
965.2121711545168
 20
847.2880288795063
 30
0.0
 10
965.3510142665217
 20
847.315439446163
 30
0.0
 10
965.4769539166667
 20
847.3444289435264
 30
0.0
 10
965.6221871636072
 20
847.39373062787
 30
0.0
 10
965.7869253315115
 20
847.4665938854332
 30
0.0
 10
965.962543855293
 20
847.5796723679932
 30
0.0
 10
966.1173655000675
 20
847.7143566038769
 30
0.0
 10
966.2481019291401
 20
847.8697645164598
 30
0.0
 10
966.3550995760627
 20
848.0408872269927
 30
0.0
 10
966.4294166392724
 20
848.224994382272
 30
0.0
 10
966.4798104316898
 20
848.4174975412104
 30
0.0
 10
966.4843625033633
 20
848.5496535475871
 30
0.0
 10
966.4866736916501
 20
848.6167520987227
 30
0.0
  0
SPLINE
  5
EC
330
1F
100
AcDbEntity
  8
0
  6
Continuous
 62
     7
370
    25
100
AcDbSpline
210
0.0
220
0.0
230
1.0
 70
     8
 71
     3
 72
    23
 73
    19
 74
     0
 42
0.00000001
 43
0.00000001
 40
0.0
 40
0.0
 40
0.0
 40
0.0
 40
0.0570031325129263
 40
0.1118178691207244
 40
0.1644023722182132
 40
0.2158698048987945
 40
0.2668411100818674
 40
0.3174789632053572
 40
0.3699021362727585
 40
0.4234004494436371
 40
0.4797183982994508
 40
0.5392414966442962
 40
0.6024306889434223
 40
0.6710295461473335
 40
0.744484797560847
 40
0.8234539713786839
 40
0.9087403127306637
 40
1.0
 40
1.0
 40
1.0
 40
1.0
 10
966.4866736916501
 20
848.6167520987227
 30
0.0
 10
966.4854709940871
 20
848.6611538621821
 30
0.0
 10
966.4831117714837
 20
848.7482527698452
 30
0.0
 10
966.4637899369582
 20
848.8752227222027
 30
0.0
 10
966.4309497668196
 20
848.9946370136591
 30
0.0
 10
966.3887685251281
 20
849.1081321229717
 30
0.0
 10
966.3298229509192
 20
849.2121592091896
 30
0.0
 10
966.260420749086
 20
849.3103150850634
 30
0.0
 10
966.1765677427095
 20
849.3992570701993
 30
0.0
 10
966.0811224566387
 20
849.4823873520627
 30
0.0
 10
965.9713884615338
 20
849.5560891298869
 30
0.0
 10
965.8474312230896
 20
849.6206394457122
 30
0.0
 10
965.7075736755086
 20
849.6726183638377
 30
0.0
 10
965.5541728641224
 20
849.7181409980722
 30
0.0
 10
965.3848675212683
 20
849.7501142410853
 30
0.0
 10
965.2016113991916
 20
849.77675055573
 30
0.0
 10
965.002903469987
 20
849.7903111088833
 30
0.0
 10
964.8654289499283
 20
849.7921062240255
 30
0.0
 10
964.7943659993424
 20
849.7930341500046
 30
0.0
  0
LINE
  5
ED
330
1F
100
AcDbEntity
  8
0
  6
Continuous
 62
     7
370
    25
100
AcDbLine
 10
964.7943659993
 20
849.79303415
 30
0.0
 11
963.820007025
 21
849.79303415
 31
0.0
  0
LINE
  5
EE
330
1F
100
AcDbEntity
  8
0
  6
Continuous
 62
     7
370
    25
100
AcDbLine
 10
963.820007025
 20
846.4084187654
 30
0.0
 11
963.820007025
 21
843.434059791
 31
0.0
  0
LINE
  5
EF
330
1F
100
AcDbEntity
  8
0
  6
Continuous
 62
     7
370
    25
100
AcDbLine
 10
963.820007025
 20
843.434059791
 30
0.0
 11
964.8424429224
 21
843.434059791
 31
0.0
  0
SPLINE
  5
F0
330
1F
100
AcDbEntity
  8
0
  6
Continuous
 62
     7
370
    25
100
AcDbSpline
210
0.0
220
0.0
230
1.0
 70
     8
 71
     3
 72
    23
 73
    19
 74
     0
 42
0.00000001
 43
0.00000001
 40
0.0
 40
0.0
 40
0.0
 40
0.0
 40
0.0725024889330323
 40
0.1397389892678939
 40
0.2017951348259222
 40
0.2598219344148627
 40
0.3122059893845979
 40
0.360773434124337
 40
0.4045403426007478
 40
0.4436980985527618
 40
0.5168407942439686
 40
0.58787433594428
 40
0.6579654175616314
 40
0.7289693886473123
 40
0.7993077199548835
 40
0.8666357778344713
 40
0.9331163290572736
 40
1.0
 40
1.0
 40
1.0
 40
1.0
 10
964.8424429224193
 20
843.4340597910303
 30
0.0
 10
964.915629038792
 20
843.4349369279371
 30
0.0
 10
965.0566856298256
 20
843.4366274936904
 30
0.0
 10
965.2603455843877
 20
843.4421464755437
 30
0.0
 10
965.4491069645045
 20
843.4547002485701
 30
0.0
 10
965.6221084176003
 20
843.4744621906586
 30
0.0
 10
965.7812180236134
 20
843.4958986459093
 30
0.0
 10
965.924527059108
 20
843.5247244308731
 30
0.0
 10
966.0531972155914
 20
843.5577506263598
 30
0.0
 10
966.2023956332813
 20
843.6088001628971
 30
0.0
 10
966.3704036522091
 20
843.6881063821367
 30
0.0
 10
966.5514570382334
 20
843.8076817568068
 30
0.0
 10
966.712431251134
 20
843.9501350317162
 30
0.0
 10
966.8491289864635
 20
844.1150056926845
 30
0.0
 10
966.9611586745685
 20
844.2942772970919
 30
0.0
 10
967.0426568576167
 20
844.4843238112694
 30
0.0
 10
967.0929216729747
 20
844.6820050167972
 30
0.0
 10
967.0990066313516
 20
844.8167860740383
 30
0.0
 10
967.1020583070347
 20
844.8843803038508
 30
0.0
  0
SPLINE
  5
F1
330
1F
100
AcDbEntity
  8
0
  6
Continuous
 62
     7
370
    25
100
AcDbSpline
210
0.0
220
0.0
230
1.0
 70
     8
 71
     3
 72
    19
 73
    15
 74
     0
 42
0.00000001
 43
0.00000001
 40
0.0
 40
0.0
 40
0.0
 40
0.0
 40
0.0602873979279726
 40
0.119602354707522
 40
0.1775033710185402
 40
0.2351426637323315
 40
0.2921325932269335
 40
0.350871208641567
 40
0.4100978625665946
 40
0.4707315215304489
 40
0.5948287040804161
 40
0.7225788240942895
 40
0.8566913895440171
 40
0.9999999999999999
 40
0.9999999999999999
 40
0.9999999999999999
 40
0.9999999999999999
 10
967.1020583070347
 20
844.8843803038508
 30
0.0
 10
967.1014272114063
 20
844.9266507964567
 30
0.0
 10
967.1001751997787
 20
845.0105099548226
 30
0.0
 10
967.0812937942391
 20
845.1337461129664
 30
0.0
 10
967.0538335204246
 20
845.2531195376732
 30
0.0
 10
967.0183331001217
 20
845.368954373067
 30
0.0
 10
966.9666314610564
 20
845.4791563761478
 30
0.0
 10
966.9062736438744
 20
845.5859050836604
 30
0.0
 10
966.8355047258295
 20
845.6893416080575
 30
0.0
 10
966.7252323467036
 20
845.8201124730847
 30
0.0
 10
966.5648392392293
 20
845.9707799311495
 30
0.0
 10
966.336938038217
 20
846.1182942220448
 30
0.0
 10
966.0778013571444
 20
846.2372606382448
 30
0.0
 10
965.8898528019533
 20
846.2877737270184
 30
0.0
 10
965.7927634352397
 20
846.3138674833381
 30
0.0
  0
SPLINE
  5
F2
330
1F
100
AcDbEntity
  8
0
  6
Continuous
 62
     7
370
    25
100
AcDbSpline
210
0.0
220
0.0
230
1.0
 70
     8
 71
     3
 72
    15
 73
    11
 74
     0
 42
0.00000001
 43
0.00000001
 40
0.0
 40
0.0
 40
0.0
 40
0.0
 40
0.0793064855230001
 40
0.1719528189279315
 40
0.2770565073915907
 40
0.394730575864474
 40
0.5261773212767571
 40
0.6713447665976098
 40
0.8292852571892494
 40
1.0
 40
1.0
 40
1.0
 40
1.0
 10
965.7927634352397
 20
846.3138674833381
 30
0.0
 10
965.7538397875775
 20
846.3217648180932
 30
0.0
 10
965.6694452907798
 20
846.3388878688025
 30
0.0
 10
965.5318279640854
 20
846.3569626194069
 30
0.0
 10
965.3747174065945
 20
846.373065613446
 30
0.0
 10
965.1977508300778
 20
846.3849768309631
 30
0.0
 10
965.0007043361036
 20
846.3972889305014
 30
0.0
 10
964.7831570933937
 20
846.4020770930666
 30
0.0
 10
964.5459975170297
 20
846.4077896875658
 30
0.0
 10
964.3814435229733
 20
846.4082037086899
 30
0.0
 10
964.295968563445
 20
846.4084187653893
 30
0.0
  0
LINE
  5
F3
330
1F
100
AcDbEntity
  8
0
  6
Continuous
 62
     7
370
    25
100
AcDbLine
 10
964.2959685634
 20
846.4084187654
 30
0.0
 11
963.820007025
 21
846.4084187654
 31
0.0
  0
LINE
  5
F4
330
1F
100
AcDbEntity
  8
0
  6
Continuous
 62
     7
370
    25
100
AcDbLine
 10
940.8456480506
 20
849.79303415
 30
0.0
 11
940.8456480506
 21
847.2289315859
 31
0.0
  0
LINE
  5
F5
330
1F
100
AcDbEntity
  8
0
  6
Continuous
 62
     7
370
    25
100
AcDbLine
 10
940.8456480506
 20
847.2289315859
 30
0.0
 11
941.3280198455
 21
847.2289315859
 31
0.0
  0
SPLINE
  5
F6
330
1F
100
AcDbEntity
  8
0
  6
Continuous
 62
     7
370
    25
100
AcDbSpline
210
0.0
220
0.0
230
1.0
 70
     8
 71
     3
 72
    23
 73
    19
 74
     0
 42
0.00000001
 43
0.00000001
 40
0.0
 40
0.0
 40
0.0
 40
0.0
 40
0.0723010339955062
 40
0.1397003317393863
 40
0.2022885114847732
 40
0.2605995332222012
 40
0.3131903291553332
 40
0.3617389329854283
 40
0.4057064756322232
 40
0.4455399848948726
 40
0.5188319558616077
 40
0.5897782395835776
 40
0.6588674786561467
 40
0.7284304780610644
 40
0.7972827036081005
 40
0.8648153774014443
 40
0.9313637528792689
 40
1.0
 40
1.0
 40
1.0
 40
1.0
 10
941.3280198454962
 20
847.228931585902
 30
0.0
 10
941.3985313777624
 20
847.2298456956312
 30
0.0
 10
941.5347740274823
 20
847.2316119419122
 30
0.0
 10
941.7320766481881
 20
847.2366714094825
 30
0.0
 10
941.9152195469221
 20
847.2508383658641
 30
0.0
 10
942.0838865939484
 20
847.2650012505604
 30
0.0
 10
942.2378121801578
 20
847.2880288795063
 30
0.0
 10
942.3766552921626
 20
847.315439446163
 30
0.0
 10
942.5025949423078
 20
847.3444289435264
 30
0.0
 10
942.6478281892483
 20
847.39373062787
 30
0.0
 10
942.8125663571525
 20
847.4665938854332
 30
0.0
 10
942.988184880934
 20
847.5796723679932
 30
0.0
 10
943.1430065257086
 20
847.7143566038769
 30
0.0
 10
943.2737429547811
 20
847.8697645164598
 30
0.0
 10
943.3807406017038
 20
848.0408872269927
 30
0.0
 10
943.4550576649134
 20
848.224994382272
 30
0.0
 10
943.5054514573308
 20
848.4174975412104
 30
0.0
 10
943.5100035290044
 20
848.5496535475871
 30
0.0
 10
943.5123147172911
 20
848.6167520987227
 30
0.0
  0
LINE
  5
F7
330
1F
100
AcDbEntity
  8
0
  6
Continuous
 62
     7
370
    25
100
AcDbLine
 10
941.820007025
 20
849.79303415
 30
0.0
 11
940.8456480506
 21
849.79303415
 31
0.0
  0
SPLINE
  5
F8
330
1F
100
AcDbEntity
  8
0
  6
Continuous
 62
     7
370
    25
100
AcDbSpline
210
0.0
220
0.0
230
1.0
 70
     8
 71
     3
 72
    23
 73
    19
 74
     0
 42
0.00000001
 43
0.00000001
 40
0.0
 40
0.0
 40
0.0
 40
0.0
 40
0.0570031325129265
 40
0.1118178691207245
 40
0.1644023722182133
 40
0.2158698048987947
 40
0.2668411100818684
 40
0.3174789632053574
 40
0.3699021362727589
 40
0.4234004494436375
 40
0.4797183982994501
 40
0.5392414966442969
 40
0.6024306889434231
 40
0.6710295461473359
 40
0.7444847975608481
 40
0.8234539713786851
 40
0.9087403127306665
 40
1.0
 40
1.0
 40
1.0
 40
1.0
 10
943.5123147172911
 20
848.6167520987227
 30
0.0
 10
943.5111120197281
 20
848.6611538621822
 30
0.0
 10
943.5087527971248
 20
848.7482527698452
 30
0.0
 10
943.4894309625992
 20
848.8752227222027
 30
0.0
 10
943.4565907924607
 20
848.9946370136591
 30
0.0
 10
943.4144095507689
 20
849.1081321229717
 30
0.0
 10
943.3554639765603
 20
849.2121592091896
 30
0.0
 10
943.286061774727
 20
849.3103150850634
 30
0.0
 10
943.2022087683505
 20
849.3992570701992
 30
0.0
 10
943.1067634822797
 20
849.4823873520628
 30
0.0
 10
942.9970294871749
 20
849.5560891298869
 30
0.0
 10
942.8730722487308
 20
849.6206394457122
 30
0.0
 10
942.7332147011496
 20
849.6726183638376
 30
0.0
 10
942.5798138897634
 20
849.7181409980722
 30
0.0
 10
942.4105085469095
 20
849.7501142410853
 30
0.0
 10
942.2272524248326
 20
849.7767505557301
 30
0.0
 10
942.0285444956281
 20
849.7903111088833
 30
0.0
 10
941.8910699755694
 20
849.7921062240255
 30
0.0
 10
941.8200070249834
 20
849.7930341500046
 30
0.0
  0
LINE
  5
F9
330
1F
100
AcDbEntity
  8
0
  6
Continuous
 62
     7
370
    25
100
AcDbLine
 10
940.8456480506
 20
843.434059791
 30
0.0
 11
941.8680839481
 21
843.434059791
 31
0.0
  0
SPLINE
  5
FA
330
1F
100
AcDbEntity
  8
0
  6
Continuous
 62
     7
370
    25
100
AcDbSpline
210
0.0
220
0.0
230
1.0
 70
     8
 71
     3
 72
    19
 73
    15
 74
     0
 42
0.00000001
 43
0.00000001
 40
0.0
 40
0.0
 40
0.0
 40
0.0
 40
0.0602873979279725
 40
0.1196023547075218
 40
0.1775033710185399
 40
0.2351426637323311
 40
0.2921325932269331
 40
0.3508712086415664
 40
0.410097862566594
 40
0.4707315215304482
 40
0.5948287040804139
 40
0.7225788240942899
 40
0.8566913895440157
 40
1.0
 40
1.0
 40
1.0
 40
1.0
 10
944.1276993326757
 20
844.8843803038508
 30
0.0
 10
944.1270682370473
 20
844.9266507964567
 30
0.0
 10
944.1258162254198
 20
845.0105099548226
 30
0.0
 10
944.1069348198799
 20
845.1337461129664
 30
0.0
 10
944.0794745460656
 20
845.2531195376733
 30
0.0
 10
944.0439741257627
 20
845.368954373067
 30
0.0
 10
943.9922724866975
 20
845.4791563761478
 30
0.0
 10
943.9319146695155
 20
845.5859050836604
 30
0.0
 10
943.8611457514706
 20
845.6893416080575
 30
0.0
 10
943.7508733723447
 20
845.8201124730847
 30
0.0
 10
943.5904802648704
 20
845.9707799311495
 30
0.0
 10
943.362579063858
 20
846.1182942220448
 30
0.0
 10
943.1034423827854
 20
846.2372606382448
 30
0.0
 10
942.9154938275944
 20
846.2877737270184
 30
0.0
 10
942.8184044608809
 20
846.3138674833381
 30
0.0
  0
SPLINE
  5
FB
330
1F
100
AcDbEntity
  8
0
  6
Continuous
 62
     7
370
    25
100
AcDbSpline
210
0.0
220
0.0
230
1.0
 70
     8
 71
     3
 72
    15
 73
    11
 74
     0
 42
0.00000001
 43
0.00000001
 40
0.0
 40
0.0
 40
0.0
 40
0.0
 40
0.079306485522998
 40
0.1719528189279297
 40
0.277056507391589
 40
0.3947305758644749
 40
0.5261773212767583
 40
0.6713447665976114
 40
0.8292852571892514
 40
1.0
 40
1.0
 40
1.0
 40
1.0
 10
942.8184044608809
 20
846.3138674833381
 30
0.0
 10
942.7794808132185
 20
846.3217648180932
 30
0.0
 10
942.6950863164209
 20
846.3388878688025
 30
0.0
 10
942.5574689897264
 20
846.3569626194069
 30
0.0
 10
942.4003584322354
 20
846.373065613446
 30
0.0
 10
942.2233918557188
 20
846.3849768309631
 30
0.0
 10
942.0263453617447
 20
846.3972889305014
 30
0.0
 10
941.8087981190346
 20
846.4020770930666
 30
0.0
 10
941.5716385426708
 20
846.4077896875658
 30
0.0
 10
941.4070845486143
 20
846.4082037086899
 30
0.0
 10
941.3216095890859
 20
846.4084187653893
 30
0.0
  0
LINE
  5
FC
330
1F
100
AcDbEntity
  8
0
  6
Continuous
 62
     7
370
    25
100
AcDbLine
 10
941.3216095891
 20
846.4084187654
 30
0.0
 11
940.8456480506
 21
846.4084187654
 31
0.0
  0
SPLINE
  5
FD
330
1F
100
AcDbEntity
  8
0
  6
Continuous
 62
     7
370
    25
100
AcDbSpline
210
0.0
220
0.0
230
1.0
 70
     8
 71
     3
 72
    23
 73
    19
 74
     0
 42
0.00000001
 43
0.00000001
 40
0.0
 40
0.0
 40
0.0
 40
0.0
 40
0.0725024889330345
 40
0.1397389892678949
 40
0.201795134825923
 40
0.2598219344148623
 40
0.3122059893845975
 40
0.3607734341243376
 40
0.4045403426007494
 40
0.4436980985527634
 40
0.51684079424397
 40
0.5878743359442804
 40
0.6579654175616318
 40
0.7289693886473125
 40
0.7993077199548837
 40
0.8666357778344713
 40
0.9331163290572736
 40
1.0
 40
1.0
 40
1.0
 40
1.0
 10
941.8680839480603
 20
843.4340597910303
 30
0.0
 10
941.941270064433
 20
843.4349369279371
 30
0.0
 10
942.0823266554667
 20
843.4366274936904
 30
0.0
 10
942.2859866100287
 20
843.4421464755437
 30
0.0
 10
942.4747479901455
 20
843.4547002485701
 30
0.0
 10
942.6477494432414
 20
843.4744621906586
 30
0.0
 10
942.8068590492544
 20
843.4958986459093
 30
0.0
 10
942.950168084749
 20
843.5247244308731
 30
0.0
 10
943.0788382412322
 20
843.5577506263598
 30
0.0
 10
943.2280366589223
 20
843.6088001628971
 30
0.0
 10
943.3960446778502
 20
843.6881063821365
 30
0.0
 10
943.5770980638745
 20
843.8076817568068
 30
0.0
 10
943.7380722767751
 20
843.9501350317162
 30
0.0
 10
943.8747700121045
 20
844.1150056926845
 30
0.0
 10
943.9867997002096
 20
844.2942772970919
 30
0.0
 10
944.0682978832577
 20
844.4843238112695
 30
0.0
 10
944.1185626986157
 20
844.6820050167972
 30
0.0
 10
944.1246476569927
 20
844.8167860740383
 30
0.0
 10
944.1276993326757
 20
844.8843803038508
 30
0.0
  0
LINE
  5
FE
330
1F
100
AcDbEntity
  8
0
  6
Continuous
 62
     7
370
    25
100
AcDbLine
 10
940.8456480506
 20
846.4084187654
 30
0.0
 11
940.8456480506
 21
843.434059791
 31
0.0
  0
SPLINE
  5
FF
330
1F
100
AcDbEntity
  8
0
  6
Continuous
 62
     7
370
    25
100
AcDbSpline
210
0.0
220
0.0
230
1.0
 70
     8
 71
     3
 72
    27
 73
    23
 74
     0
 42
0.00000001
 43
0.00000001
 40
0.0
 40
0.0
 40
0.0
 40
0.0
 40
0.0729510658758678
 40
0.1415836941865455
 40
0.2059264601708678
 40
0.2653013571846063
 40
0.3205972327139289
 40
0.3718165030988104
 40
0.418789769709452
 40
0.4616987286157648
 40
0.5021335821035656
 40
0.5408043152926488
 40
0.5781805253279665
 40
0.6142968652075153
 40
0.6496782432647878
 40
0.684299460089637
 40
0.7183589527723607
 40
0.7520808646475973
 40
0.8176524386023857
 40
0.8797220764054376
 40
0.9399655597309878
 40
1.0
 40
1.0
 40
1.0
 40
1.0
 10
919.6148788198551
 20
846.6135469705175
 30
0.0
 10
919.6151518417238
 20
846.506692801823
 30
0.0
 10
919.6156817235601
 20
846.2993098422821
 30
0.0
 10
919.6295244677367
 20
845.9979538171941
 30
0.0
 10
919.6483821408783
 20
845.7168787798979
 30
0.0
 10
919.672705105873
 20
845.455727839406
 30
0.0
 10
919.7088261310753
 20
845.2153849536693
 30
0.0
 10
919.7492987889443
 20
844.9941971066634
 30
0.0
 10
919.7985515652167
 20
844.7933348504032
 30
0.0
 10
919.85682589177
 20
844.6114198545072
 30
0.0
 10
919.9232009703836
 20
844.4453648408034
 30
0.0
 10
919.9956715159151
 20
844.2908477776552
 30
0.0
 10
920.0735245968407
 20
844.1460433515165
 30
0.0
 10
920.1606540838188
 20
844.0122522466612
 30
0.0
 10
920.2555456569137
 20
843.8890381573518
 30
0.0
 10
920.3560559635138
 20
843.7742202549009
 30
0.0
 10
920.4659361560672
 20
843.6718271547053
 30
0.0
 10
920.6179447104516
 20
843.5490229146378
 30
0.0
 10
920.8186223662849
 20
843.4221220375416
 30
0.0
 10
921.0714691210989
 20
843.3116166893551
 30
0.0
 10
921.3312827233423
 20
843.2421710746526
 30
0.0
 10
921.5076284378266
 20
843.2333396324694
 30
0.0
 10
921.5956480506244
 20
843.228931585902
 30
0.0
  0
SPLINE
  5
100
330
1F
100
AcDbEntity
  8
0
  6
Continuous
 62
     7
370
    25
100
AcDbSpline
210
0.0
220
0.0
230
1.0
 70
     8
 71
     3
 72
    27
 73
    23
 74
     0
 42
0.00000001
 43
0.00000001
 40
0.0
 40
0.0
 40
0.0
 40
0.0
 40
0.0603866193110626
 40
0.1208832485859965
 40
0.1827546186251395
 40
0.2478110297583506
 40
0.2812991000432497
 40
0.3150876241506568
 40
0.3497023955502758
 40
0.3848565811185574
 40
0.4209661972261022
 40
0.4585111882611392
 40
0.4971747221273132
 40
0.5376020478662703
 40
0.5805030184200128
 40
0.6274675400267059
 40
0.6783882095592437
 40
0.7339832205925609
 40
0.7937467045508347
 40
0.8577136721607318
 40
0.9266978643613872
 40
1.0
 40
1.0
 40
1.0
 40
1.0
 10
921.5956480506244
 20
849.9981623551329
 30
0.0
 10
921.5071666972832
 20
849.9935190485106
 30
0.0
 10
921.3300427987572
 20
849.9842239762729
 30
0.0
 10
921.0684474736674
 20
849.9186393966351
 30
0.0
 10
920.8176946699137
 20
849.8043240459205
 30
0.0
 10
920.6182821563619
 20
849.6787186231436
 30
0.0
 10
920.4654506443446
 20
849.5590881969911
 30
0.0
 10
920.3578330594835
 20
849.4553477305718
 30
0.0
 10
920.2569275229858
 20
849.3418705777373
 30
0.0
 10
920.1639727798141
 20
849.2175233437936
 30
0.0
 10
920.076911561089
 20
849.0838882184927
 30
0.0
 10
919.9969549609159
 20
848.9399138991207
 30
0.0
 10
919.9249153502278
 20
848.7848707808912
 30
0.0
 10
919.8584364103874
 20
848.6188903570761
 30
0.0
 10
919.7999843234703
 20
848.4369910555092
 30
0.0
 10
919.7517695503732
 20
848.2363762130099
 30
0.0
 10
919.7072277146706
 20
848.0158918889204
 30
0.0
 10
919.6756956714694
 20
847.7742472993313
 30
0.0
 10
919.6476642297282
 20
847.513030948773
 30
0.0
 10
919.6296497201231
 20
847.2312542213916
 30
0.0
 10
919.6156354173363
 20
846.9293927804721
 30
0.0
 10
919.6151360702214
 20
846.7209375610374
 30
0.0
 10
919.6148788198551
 20
846.6135469705175
 30
0.0
  0
SPLINE
  5
101
330
1F
100
AcDbEntity
  8
0
  6
Continuous
 62
     7
370
    25
100
AcDbSpline
210
0.0
220
0.0
230
1.0
 70
     8
 71
     3
 72
    19
 73
    15
 74
     0
 42
0.00000001
 43
0.00000001
 40
0.0
 40
0.0
 40
0.0
 40
0.0
 40
0.1128134007444591
 40
0.2253938839207292
 40
0.3395948145627014
 40
0.459675410224864
 40
0.5217351900879341
 40
0.583925838738916
 40
0.648174144765371
 40
0.713881038113067
 40
0.7810044549073896
 40
0.8514509275565548
 40
0.9240506926641802
 40
1.0
 40
1.0
 40
1.0
 40
1.0
 10
921.5956480506244
 20
843.228931585902
 30
0.0
 10
921.6842370144091
 20
843.2325836563284
 30
0.0
 10
921.8612320388312
 20
843.2398802570189
 30
0.0
 10
922.1198235705897
 20
843.3102773710172
 30
0.0
 10
922.3708641879206
 20
843.4164934612198
 30
0.0
 10
922.5676000514152
 20
843.5420877593209
 30
0.0
 10
922.7172744365613
 20
843.6616953694953
 30
0.0
 10
922.824513271089
 20
843.7636717084963
 30
0.0
 10
922.922940810365
 20
843.8778565480538
 30
0.0
 10
923.0162941243185
 20
844.0010549387165
 30
0.0
 10
923.1019148687182
 20
844.135620616828
 30
0.0
 10
923.1797734691645
 20
844.2809065031503
 30
0.0
 10
923.2508211206962
 20
844.437316052664
 30
0.0
 10
923.2912989400111
 20
844.5465040277858
 30
0.0
 10
923.3119942044706
 20
844.6023290217995
 30
0.0
  0
SPLINE
  5
102
330
1F
100
AcDbEntity
  8
0
  6
Continuous
 62
     7
370
    25
100
AcDbSpline
210
0.0
220
0.0
230
1.0
 70
     8
 71
     3
 72
    15
 73
    11
 74
     0
 42
0.00000001
 43
0.00000001
 40
0.0
 40
0.0
 40
0.0
 40
0.0
 40
0.1105883385953365
 40
0.2245417540535967
 40
0.3425034940501039
 40
0.4643240984173573
 40
0.590756032701767
 40
0.7222274753555147
 40
0.8588428362087224
 40
1.0
 40
1.0
 40
1.0
 40
1.0
 10
923.3119942044706
 20
844.6023290217995
 30
0.0
 10
923.3361125308563
 20
844.6737112834368
 30
0.0
 10
923.3850830767592
 20
844.8186478874219
 30
0.0
 10
923.4481957036636
 20
845.0434790921773
 30
0.0
 10
923.4978994732721
 20
845.2793711240354
 30
0.0
 10
923.5426157378422
 20
845.5249142479634
 30
0.0
 10
923.5731370084648
 20
845.7819192788456
 30
0.0
 10
923.5977034388264
 20
846.0495910135102
 30
0.0
 10
923.612173580402
 20
846.3281312700484
 30
0.0
 10
923.6139672971364
 20
846.5173769642089
 30
0.0
 10
923.6148788198551
 20
846.6135469705175
 30
0.0
  0
SPLINE
  5
103
330
1F
100
AcDbEntity
  8
0
  6
Continuous
 62
     7
370
    25
100
AcDbSpline
210
0.0
220
0.0
230
1.0
 70
     8
 71
     3
 72
    27
 73
    23
 74
     0
 42
0.00000001
 43
0.00000001
 40
0.0
 40
0.0
 40
0.0
 40
0.0
 40
0.0656811979906383
 40
0.128486464174064
 40
0.1881751303280078
 40
0.2451061306699859
 40
0.2994484245294747
 40
0.3508229360093825
 40
0.3999416805337758
 40
0.4466717436323698
 40
0.4912545333734973
 40
0.5333763442704369
 40
0.5738527549682232
 40
0.6125263117194522
 40
0.6495971364453285
 40
0.6855320415538501
 40
0.7201057860682001
 40
0.7538376629736501
 40
0.8189254160467135
 40
0.8804934616501632
 40
0.940311333846057
 40
1.0
 40
1.0
 40
1.0
 40
1.0
 10
923.6148788198551
 20
846.6135469705175
 30
0.0
 10
923.6136212444657
 20
846.7097014219873
 30
0.0
 10
923.6111611581672
 20
846.8978000843429
 30
0.0
 10
923.6017577577074
 20
847.1732702115706
 30
0.0
 10
923.5774753017258
 20
847.4349108079344
 30
0.0
 10
923.5505058871784
 20
847.6838490311671
 30
0.0
 10
923.5107408103964
 20
847.9187068659202
 30
0.0
 10
923.4678658232415
 20
848.1414504207918
 30
0.0
 10
923.4102630522924
 20
848.3493201918075
 30
0.0
 10
923.3487321380661
 20
848.5455706642912
 30
0.0
 10
923.2783083768514
 20
848.7279721602929
 30
0.0
 10
923.2007866985484
 20
848.8973751005489
 30
0.0
 10
923.1179941070764
 20
849.0545973285645
 30
0.0
 10
923.0280689860266
 20
849.1992074807393
 30
0.0
 10
922.9320788533059
 20
849.3318532931075
 30
0.0
 10
922.8274901694259
 20
849.4498752235238
 30
0.0
 10
922.7184516030011
 20
849.556931150629
 30
0.0
 10
922.5657266068328
 20
849.6791313086213
 30
0.0
 10
922.3657853730033
 20
849.8037294697256
 30
0.0
 10
922.1169953219348
 20
849.9183940636921
 30
0.0
 10
921.858090992218
 20
849.9842415896828
 30
0.0
 10
921.6830659542933
 20
849.9935254457699
 30
0.0
 10
921.5956480506244
 20
849.9981623551329
 30
0.0
  0
LINE
  5
104
330
1F
100
AcDbEntity
  8
0
  6
Continuous
 62
     7
370
    25
100
AcDbLine
 10
957.914558307
 20
849.0542520987
 30
0.0
 11
956.4658403583
 21
845.9981623551
 31
0.0
  0
LINE
  5
105
330
1F
100
AcDbEntity
  8
0
  6
Continuous
 62
     7
370
    25
100
AcDbLine
 10
956.4658403583
 20
845.9981623551
 30
0.0
 11
959.3248147173
 21
845.9981623551
 31
0.0
  0
LINE
  5
106
330
1F
100
AcDbEntity
  8
0
  6
Continuous
 62
     7
370
    25
100
AcDbLine
 10
959.3248147173
 20
845.9981623551
 30
0.0
 11
957.914558307
 21
849.0542520987
 31
0.0
  0
SPLINE
  5
107
330
1F
100
AcDbEntity
  8
0
  6
Continuous
 62
     7
370
    25
100
AcDbSpline
210
0.0
220
0.0
230
1.0
 70
     8
 71
     3
 72
    27
 73
    23
 74
     0
 42
0.00000001
 43
0.00000001
 40
0.0
 40
0.0
 40
0.0
 40
0.0
 40
0.0729510658758678
 40
0.1415836941865455
 40
0.2059264601708677
 40
0.2653013571846063
 40
0.3205972327139289
 40
0.3718165030988104
 40
0.418789769709452
 40
0.4616987286157648
 40
0.5021335821035655
 40
0.5408043152926487
 40
0.5781805253279657
 40
0.6142968652075155
 40
0.649678243264788
 40
0.6842994600896372
 40
0.7183589527723608
 40
0.7520808646475974
 40
0.8176524386023851
 40
0.879722076405437
 40
0.9399655597309878
 40
1.0
 40
1.0
 40
1.0
 40
1.0
 10
925.7687249737013
 20
846.6135469705175
 30
0.0
 10
925.76899799557
 20
846.506692801823
 30
0.0
 10
925.7695278774063
 20
846.2993098422821
 30
0.0
 10
925.7833706215828
 20
845.9979538171942
 30
0.0
 10
925.8022282947245
 20
845.7168787798979
 30
0.0
 10
925.8265512597192
 20
845.455727839406
 30
0.0
 10
925.8626722849215
 20
845.2153849536693
 30
0.0
 10
925.9031449427905
 20
844.9941971066634
 30
0.0
 10
925.9523977190629
 20
844.7933348504032
 30
0.0
 10
926.010672045616
 20
844.6114198545072
 30
0.0
 10
926.0770471242297
 20
844.4453648408034
 30
0.0
 10
926.1495176697613
 20
844.2908477776552
 30
0.0
 10
926.2273707506869
 20
844.1460433515164
 30
0.0
 10
926.314500237665
 20
844.0122522466612
 30
0.0
 10
926.4093918107599
 20
843.8890381573518
 30
0.0
 10
926.50990211736
 20
843.7742202549009
 30
0.0
 10
926.6197823099133
 20
843.6718271547053
 30
0.0
 10
926.7717908642977
 20
843.5490229146378
 30
0.0
 10
926.9724685201311
 20
843.4221220375416
 30
0.0
 10
927.225315274945
 20
843.3116166893551
 30
0.0
 10
927.4851288771885
 20
843.2421710746526
 30
0.0
 10
927.6614745916728
 20
843.2333396324694
 30
0.0
 10
927.7494942044706
 20
843.228931585902
 30
0.0
  0
SPLINE
  5
108
330
1F
100
AcDbEntity
  8
0
  6
Continuous
 62
     7
370
    25
100
AcDbSpline
210
0.0
220
0.0
230
1.0
 70
     8
 71
     3
 72
    19
 73
    15
 74
     0
 42
0.00000001
 43
0.00000001
 40
0.0
 40
0.0
 40
0.0
 40
0.0
 40
0.1128134007444576
 40
0.2253938839207291
 40
0.3395948145627014
 40
0.459675410224864
 40
0.5217351900879341
 40
0.583925838738916
 40
0.648174144765371
 40
0.713881038113067
 40
0.7810044549073896
 40
0.8514509275565548
 40
0.9240506926641797
 40
1.0
 40
1.0
 40
1.0
 40
1.0
 10
927.7494942044706
 20
843.228931585902
 30
0.0
 10
927.8380831682551
 20
843.2325836563284
 30
0.0
 10
928.0150781926774
 20
843.2398802570189
 30
0.0
 10
928.2736697244358
 20
843.3102773710172
 30
0.0
 10
928.5247103417668
 20
843.4164934612198
 30
0.0
 10
928.7214462052613
 20
843.5420877593209
 30
0.0
 10
928.8711205904075
 20
843.6616953694953
 30
0.0
 10
928.9783594249352
 20
843.7636717084963
 30
0.0
 10
929.0767869642112
 20
843.8778565480538
 30
0.0
 10
929.1701402781647
 20
844.0010549387165
 30
0.0
 10
929.2557610225643
 20
844.135620616828
 30
0.0
 10
929.3336196230106
 20
844.2809065031503
 30
0.0
 10
929.4046672745424
 20
844.4373160526638
 30
0.0
 10
929.4451450938573
 20
844.5465040277858
 30
0.0
 10
929.4658403583167
 20
844.6023290217995
 30
0.0
  0
SPLINE
  5
109
330
1F
100
AcDbEntity
  8
0
  6
Continuous
 62
     7
370
    25
100
AcDbSpline
210
0.0
220
0.0
230
1.0
 70
     8
 71
     3
 72
    15
 73
    11
 74
     0
 42
0.00000001
 43
0.00000001
 40
0.0
 40
0.0
 40
0.0
 40
0.0
 40
0.1105883385953366
 40
0.2245417540535968
 40
0.3425034940501041
 40
0.4643240984173574
 40
0.5907560327017671
 40
0.7222274753555146
 40
0.8588428362087224
 40
1.0
 40
1.0
 40
1.0
 40
1.0
 10
929.4658403583167
 20
844.6023290217995
 30
0.0
 10
929.4899586847025
 20
844.6737112834368
 30
0.0
 10
929.5389292306052
 20
844.8186478874219
 30
0.0
 10
929.6020418575098
 20
845.0434790921773
 30
0.0
 10
929.6517456271183
 20
845.2793711240355
 30
0.0
 10
929.6964618916884
 20
845.5249142479632
 30
0.0
 10
929.726983162311
 20
845.7819192788456
 30
0.0
 10
929.7515495926726
 20
846.0495910135102
 30
0.0
 10
929.766019734248
 20
846.3281312700484
 30
0.0
 10
929.7678134509824
 20
846.5173769642089
 30
0.0
 10
929.7687249737013
 20
846.6135469705175
 30
0.0
  0
SPLINE
  5
10A
330
1F
100
AcDbEntity
  8
0
  6
Continuous
 62
     7
370
    25
100
AcDbSpline
210
0.0
220
0.0
230
1.0
 70
     8
 71
     3
 72
    27
 73
    23
 74
     0
 42
0.00000001
 43
0.00000001
 40
0.0
 40
0.0
 40
0.0
 40
0.0
 40
0.0603866193110626
 40
0.1208832485859964
 40
0.1827546186251401
 40
0.2478110297583506
 40
0.2812991000432497
 40
0.3150876241506567
 40
0.3497023955502758
 40
0.3848565811185573
 40
0.4209661972261025
 40
0.4585111882611395
 40
0.4971747221273132
 40
0.5376020478662706
 40
0.5805030184200132
 40
0.6274675400267061
 40
0.6783882095592438
 40
0.733983220592561
 40
0.7937467045508348
 40
0.8577136721607319
 40
0.9266978643613872
 40
1.0
 40
1.0
 40
1.0
 40
1.0
 10
927.7494942044706
 20
849.9981623551329
 30
0.0
 10
927.6610128511294
 20
849.9935190485106
 30
0.0
 10
927.4838889526034
 20
849.9842239762729
 30
0.0
 10
927.2222936275136
 20
849.9186393966351
 30
0.0
 10
926.9715408237597
 20
849.8043240459205
 30
0.0
 10
926.7721283102081
 20
849.6787186231436
 30
0.0
 10
926.6192967981908
 20
849.5590881969911
 30
0.0
 10
926.5116792133297
 20
849.4553477305718
 30
0.0
 10
926.410773676832
 20
849.3418705777373
 30
0.0
 10
926.3178189336603
 20
849.2175233437936
 30
0.0
 10
926.2307577149352
 20
849.0838882184927
 30
0.0
 10
926.1508011147621
 20
848.9399138991206
 30
0.0
 10
926.078761504074
 20
848.7848707808912
 30
0.0
 10
926.0122825642335
 20
848.6188903570761
 30
0.0
 10
925.9538304773165
 20
848.4369910555092
 30
0.0
 10
925.9056157042194
 20
848.2363762130099
 30
0.0
 10
925.8610738685167
 20
848.0158918889204
 30
0.0
 10
925.8295418253156
 20
847.7742472993313
 30
0.0
 10
925.8015103835744
 20
847.513030948773
 30
0.0
 10
925.7834958739693
 20
847.2312542213916
 30
0.0
 10
925.7694815711825
 20
846.9293927804721
 30
0.0
 10
925.7689822240676
 20
846.7209375610374
 30
0.0
 10
925.7687249737013
 20
846.6135469705175
 30
0.0
  0
SPLINE
  5
10B
330
1F
100
AcDbEntity
  8
0
  6
Continuous
 62
     7
370
    25
100
AcDbSpline
210
0.0
220
0.0
230
1.0
 70
     8
 71
     3
 72
    27
 73
    23
 74
     0
 42
0.00000001
 43
0.00000001
 40
0.0
 40
0.0
 40
0.0
 40
0.0
 40
0.0656811979906383
 40
0.128486464174064
 40
0.1881751303280079
 40
0.245106130669986
 40
0.2994484245294748
 40
0.3508229360093826
 40
0.3999416805337762
 40
0.4466717436323702
 40
0.4912545333734976
 40
0.5333763442704372
 40
0.5738527549682232
 40
0.6125263117194526
 40
0.6495971364453285
 40
0.68553204155385
 40
0.7201057860682002
 40
0.7538376629736507
 40
0.8189254160467137
 40
0.8804934616501641
 40
0.9403113338460578
 40
1.0
 40
1.0
 40
1.0
 40
1.0
 10
929.7687249737013
 20
846.6135469705175
 30
0.0
 10
929.7674673983119
 20
846.7097014219873
 30
0.0
 10
929.7650073120134
 20
846.8978000843429
 30
0.0
 10
929.7556039115536
 20
847.1732702115706
 30
0.0
 10
929.731321455572
 20
847.4349108079344
 30
0.0
 10
929.7043520410245
 20
847.6838490311671
 30
0.0
 10
929.6645869642426
 20
847.9187068659202
 30
0.0
 10
929.6217119770877
 20
848.1414504207918
 30
0.0
 10
929.5641092061385
 20
848.3493201918076
 30
0.0
 10
929.5025782919123
 20
848.5455706642912
 30
0.0
 10
929.4321545306976
 20
848.7279721602929
 30
0.0
 10
929.3546328523946
 20
848.8973751005489
 30
0.0
 10
929.2718402609225
 20
849.0545973285643
 30
0.0
 10
929.1819151398728
 20
849.1992074807393
 30
0.0
 10
929.0859250071521
 20
849.3318532931075
 30
0.0
 10
928.9813363232721
 20
849.4498752235238
 30
0.0
 10
928.8722977568472
 20
849.556931150629
 30
0.0
 10
928.7195727606788
 20
849.6791313086213
 30
0.0
 10
928.5196315268494
 20
849.8037294697256
 30
0.0
 10
928.270841475781
 20
849.9183940636921
 30
0.0
 10
928.0119371460642
 20
849.9842415896828
 30
0.0
 10
927.8369121081395
 20
849.9935254457699
 30
0.0
 10
927.7494942044706
 20
849.9981623551329
 30
0.0
  0
ENDSEC
  0
SECTION
  2
OBJECTS
  0
DICTIONARY
  5
C
330
0
100
AcDbDictionary
281
     1
  3
ACAD_DETAILVIEWSTYLE
350
113
  3
ACAD_GROUP
350
D
  3
ACAD_LAYOUT
350
1A
  3
ACAD_MATERIAL
350
43
  3
ACAD_MLEADERSTYLE
350
5B
  3
ACAD_MLINESTYLE
350
17
  3
ACAD_PLOTSETTINGS
350
19
  3
ACAD_PLOTSTYLENAME
350
E
  3
ACAD_SCALELIST
350
47
  3
ACAD_SECTIONVIEWSTYLE
350
114
  3
ACAD_TABLESTYLE
350
59
  3
ACAD_VISUALSTYLE
350
2A
  3
ACDB_RECOMPOSE_DATA
350
110
  3
AcDbVariableDictionary
350
10C
  0
SUN
  5
5D
330
29
100
AcDbSun
 90
        1
290
     0
 63
     7
421
 16777215
 40
1.0
291
     1
 91
  2455826
 92
 54000000
292
     0
 70
     2
 71
   256
280
     1
  0
DICTIONARY
  5
113
102
{ACAD_REACTORS
330
C
102
}
330
C
100
AcDbDictionary
281
     1
  0
DICTIONARY
  5
D
102
{ACAD_REACTORS
330
C
102
}
330
C
100
AcDbDictionary
281
     1
  0
DICTIONARY
  5
1A
102
{ACAD_REACTORS
330
C
102
}
330
C
100
AcDbDictionary
281
     1
  3
Layout1
350
1E
  3
Layout2
350
26
  3
Model
350
22
  0
DICTIONARY
  5
43
102
{ACAD_REACTORS
330
C
102
}
330
C
100
AcDbDictionary
281
     1
  3
ByBlock
350
45
  3
ByLayer
350
44
  3
Global
350
46
  0
DICTIONARY
  5
5B
102
{ACAD_REACTORS
330
C
102
}
330
C
100
AcDbDictionary
281
     1
  3
Standard
350
5C
  0
DICTIONARY
  5
17
102
{ACAD_REACTORS
330
C
102
}
330
C
100
AcDbDictionary
281
     1
  3
Standard
350
18
  0
DICTIONARY
  5
19
102
{ACAD_REACTORS
330
C
102
}
330
C
100
AcDbDictionary
281
     1
  0
ACDBDICTIONARYWDFLT
  5
E
102
{ACAD_REACTORS
330
C
102
}
330
C
100
AcDbDictionary
281
     1
  3
Normal
350
F
100
AcDbDictionaryWithDefault
340
F
  0
DICTIONARY
  5
47
102
{ACAD_REACTORS
330
C
102
}
330
C
100
AcDbDictionary
281
     1
  3
A0
350
48
  3
A1
350
49
  3
A2
350
4A
  3
A3
350
4B
  3
A4
350
4C
  3
A5
350
4D
  3
A6
350
4E
  3
A7
350
4F
  3
A8
350
50
  3
A9
350
51
  3
B0
350
52
  3
B1
350
53
  3
B2
350
54
  3
B3
350
55
  3
B4
350
56
  3
B5
350
57
  3
B6
350
58
  0
DICTIONARY
  5
114
102
{ACAD_REACTORS
330
C
102
}
330
C
100
AcDbDictionary
281
     1
  0
DICTIONARY
  5
59
102
{ACAD_REACTORS
330
C
102
}
330
C
100
AcDbDictionary
281
     1
  3
Standard
350
5A
  0
DICTIONARY
  5
2A
102
{ACAD_REACTORS
330
C
102
}
330
C
100
AcDbDictionary
281
     1
  3
2dWireframe
350
2F
  3
Basic
350
32
  3
Brighten
350
36
  3
ColorChange
350
3A
  3
Conceptual
350
34
  3
Dim
350
35
  3
EdgeColorOff
350
3D
  3
Facepattern
350
39
  3
Flat
350
2B
  3
FlatWithEdges
350
2C
  3
Gouraud
350
2D
  3
GouraudWithEdges
350
2E
  3
Hidden
350
31
  3
JitterOff
350
3B
  3
Linepattern
350
38
  3
OverhangOff
350
3C
  3
Realistic
350
33
  3
Shaded
350
42
  3
Shaded with edges
350
41
  3
Shades of Gray
350
3E
  3
Sketchy
350
3F
  3
Thicken
350
37
  3
Wireframe
350
30
  3
X-Ray
350
40
  0
XRECORD
  5
110
102
{ACAD_REACTORS
330
C
102
}
330
C
100
AcDbXrecord
280
     1
 90
        1
330
5A
  0
DICTIONARY
  5
10C
102
{ACAD_REACTORS
330
C
102
}
330
C
100
AcDbDictionary
281
     1
  3
CANNOSCALE
350
10D
  3
CENTEREXE
350
115
  3
CENTERLTYPEFILE
350
116
  3
CMLEADERSTYLE
350
112
  3
CTABLESTYLE
350
111
  0
LAYOUT
  5
1E
102
{ACAD_REACTORS
330
1A
102
}
330
1A
100
AcDbPlotSettings
  1

  2
none_device
  4

  6

 40
0.0
 41
0.0
 42
0.0
 43
0.0
 44
0.0
 45
0.0
 46
0.0
 47
0.0
 48
0.0
 49
0.0
140
0.0
141
0.0
142
1.0
143
1.0
 70
   688
 72
     1
 73
     0
 74
     5
  7

 75
    16
 76
     0
 77
     2
 78
   300
147
1.0
148
0.0
149
0.0
100
AcDbLayout
  1
Layout1
 70
     1
 71
     1
 10
0.0
 20
0.0
 11
420.0
 21
297.0
 12
0.0
 22
0.0
 32
0.0
 14
1.0000000000E+20
 24
1.0000000000E+20
 34
1.0000000000E+20
 15
-1.0000000000E+20
 25
-1.0000000000E+20
 35
-1.0000000000E+20
146
0.0
 13
0.0
 23
0.0
 33
0.0
 16
1.0
 26
0.0
 36
0.0
 17
0.0
 27
1.0
 37
0.0
 76
     0
330
1B
  0
LAYOUT
  5
26
102
{ACAD_REACTORS
330
1A
102
}
330
1A
100
AcDbPlotSettings
  1

  2
none_device
  4

  6

 40
0.0
 41
0.0
 42
0.0
 43
0.0
 44
0.0
 45
0.0
 46
0.0
 47
0.0
 48
0.0
 49
0.0
140
0.0
141
0.0
142
1.0
143
1.0
 70
   688
 72
     1
 73
     0
 74
     5
  7

 75
    16
 76
     0
 77
     2
 78
   300
147
1.0
148
0.0
149
0.0
100
AcDbLayout
  1
Layout2
 70
     1
 71
     2
 10
0.0
 20
0.0
 11
0.0
 21
0.0
 12
0.0
 22
0.0
 32
0.0
 14
0.0
 24
0.0
 34
0.0
 15
0.0
 25
0.0
 35
0.0
146
0.0
 13
0.0
 23
0.0
 33
0.0
 16
1.0
 26
0.0
 36
0.0
 17
0.0
 27
1.0
 37
0.0
 76
     0
330
23
  0
LAYOUT
  5
22
102
{ACAD_REACTORS
330
1A
102
}
330
1A
100
AcDbPlotSettings
  1

  2
none_device
  4
Letter_(8.50_x_11.00_Inches)
  6

 40
6.35
 41
6.35
 42
6.35000508
 43
6.35000508
 44
215.9
 45
279.4
 46
0.0
 47
0.0
 48
0.0
 49
0.0
140
0.0
141
0.0
142
1.0
143
1.0
 70
  1712
 72
     1
 73
     0
 74
     0
  7

 75
     0
 76
     0
 77
     2
 78
   300
147
1.0
148
0.0
149
0.0
100
AcDbLayout
  1
Model
 70
     1
 71
     0
 10
0.0
 20
0.0
 11
420.0
 21
297.0
 12
0.0
 22
0.0
 32
0.0
 14
0.0
 24
0.0
 34
0.0
 15
420.0
 25
297.0
 35
0.0
146
0.0
 13
0.0
 23
0.0
 33
0.0
 16
1.0
 26
0.0
 36
0.0
 17
0.0
 27
1.0
 37
0.0
 76
     0
330
1F
331
29
  0
MATERIAL
  5
45
102
{ACAD_REACTORS
330
43
102
}
330
43
100
AcDbMaterial
  1
ByBlock
 72
     1
 94
      127
  0
MATERIAL
  5
44
102
{ACAD_REACTORS
330
43
102
}
330
43
100
AcDbMaterial
  1
ByLayer
 72
     1
 94
      127
  0
MATERIAL
  5
46
102
{ACAD_REACTORS
330
43
102
}
330
43
100
AcDbMaterial
  1
Global
 72
     1
 94
      127
  0
MLEADERSTYLE
  5
5C
102
{ACAD_REACTORS
330
5B
102
}
330
5B
100
AcDbMLeaderStyle
179
     2
170
     2
171
     1
172
     0
 90
        2
 40
0.0
 41
0.0
173
     1
 91
-1056964608
340
14
 92
       -2
290
     1
 42
2.0
291
     1
 43
8.0
  3
Standard
341
0
 44
4.0
300

342
11
174
     1
178
     6
175
     1
176
     0
 93
-1056964608
 45
4.0
292
     0
297
     0
 46
4.0
343
0
 94
-1056964608
 47
1.0
 49
1.0
140
1.0
293
     1
141
0.0
294
     1
177
     0
142
1.0
295
     0
296
     0
143
3.75
271
     0
272
     9
273
     9
298
     0
  0
MLINESTYLE
  5
18
102
{ACAD_REACTORS
330
17
102
}
330
17
100
AcDbMlineStyle
  2
Standard
 70
     0
  3

 62
   256
 51
90.0
 52
90.0
 71
     2
 49
0.5
 62
   256
  6
BYLAYER
 49
-0.5
 62
   256
  6
BYLAYER
  0
ACDBPLACEHOLDER
  5
F
102
{ACAD_REACTORS
330
E
102
}
330
E
  0
SCALE
  5
48
102
{ACAD_REACTORS
330
47
102
}
330
47
100
AcDbScale
 70
     0
300
1:1
140
1.0
141
1.0
290
     1
  0
SCALE
  5
49
102
{ACAD_REACTORS
330
47
102
}
330
47
100
AcDbScale
 70
     0
300
1:2
140
1.0
141
2.0
290
     0
  0
SCALE
  5
4A
102
{ACAD_REACTORS
330
47
102
}
330
47
100
AcDbScale
 70
     0
300
1:4
140
1.0
141
4.0
290
     0
  0
SCALE
  5
4B
102
{ACAD_REACTORS
330
47
102
}
330
47
100
AcDbScale
 70
     0
300
1:5
140
1.0
141
5.0
290
     0
  0
SCALE
  5
4C
102
{ACAD_REACTORS
330
47
102
}
330
47
100
AcDbScale
 70
     0
300
1:8
140
1.0
141
8.0
290
     0
  0
SCALE
  5
4D
102
{ACAD_REACTORS
330
47
102
}
330
47
100
AcDbScale
 70
     0
300
1:10
140
1.0
141
10.0
290
     0
  0
SCALE
  5
4E
102
{ACAD_REACTORS
330
47
102
}
330
47
100
AcDbScale
 70
     0
300
1:16
140
1.0
141
16.0
290
     0
  0
SCALE
  5
4F
102
{ACAD_REACTORS
330
47
102
}
330
47
100
AcDbScale
 70
     0
300
1:20
140
1.0
141
20.0
290
     0
  0
SCALE
  5
50
102
{ACAD_REACTORS
330
47
102
}
330
47
100
AcDbScale
 70
     0
300
1:30
140
1.0
141
30.0
290
     0
  0
SCALE
  5
51
102
{ACAD_REACTORS
330
47
102
}
330
47
100
AcDbScale
 70
     0
300
1:40
140
1.0
141
40.0
290
     0
  0
SCALE
  5
52
102
{ACAD_REACTORS
330
47
102
}
330
47
100
AcDbScale
 70
     0
300
1:50
140
1.0
141
50.0
290
     0
  0
SCALE
  5
53
102
{ACAD_REACTORS
330
47
102
}
330
47
100
AcDbScale
 70
     0
300
1:100
140
1.0
141
100.0
290
     0
  0
SCALE
  5
54
102
{ACAD_REACTORS
330
47
102
}
330
47
100
AcDbScale
 70
     0
300
2:1
140
2.0
141
1.0
290
     0
  0
SCALE
  5
55
102
{ACAD_REACTORS
330
47
102
}
330
47
100
AcDbScale
 70
     0
300
4:1
140
4.0
141
1.0
290
     0
  0
SCALE
  5
56
102
{ACAD_REACTORS
330
47
102
}
330
47
100
AcDbScale
 70
     0
300
8:1
140
8.0
141
1.0
290
     0
  0
SCALE
  5
57
102
{ACAD_REACTORS
330
47
102
}
330
47
100
AcDbScale
 70
     0
300
10:1
140
10.0
141
1.0
290
     0
  0
SCALE
  5
58
102
{ACAD_REACTORS
330
47
102
}
330
47
100
AcDbScale
 70
     0
300
100:1
140
100.0
141
1.0
290
     0
  0
TABLESTYLE
  5
5A
102
{ACAD_REACTORS
330
59
102
}
102
{ACAD_XDICTIONARY
360
10E
102
}
330
59
100
AcDbTableStyle
  3
Standard
 70
     0
 71
     0
 40
0.06
 41
0.06
280
     0
281
     0
  7
Standard
140
4.5
170
     2
 62
     0
 63
   257
283
     0
 90
        4
 91
        0
  1

274
    -2
284
     1
 64
     0
275
    -2
285
     1
 65
     0
276
    -2
286
     1
 66
     0
277
    -2
287
     1
 67
     0
278
    -2
288
     1
 68
     0
279
    -2
289
     1
 69
     0
  7
Standard
140
6.0
170
     5
 62
     0
 63
   257
283
     0
 90
        4
 91
        0
  1

274
    -2
284
     1
 64
     0
275
    -2
285
     1
 65
     0
276
    -2
286
     1
 66
     0
277
    -2
287
     1
 67
     0
278
    -2
288
     1
 68
     0
279
    -2
289
     1
 69
     0
  7
Standard
140
4.5
170
     5
 62
     0
 63
   257
283
     0
 90
        4
 91
        0
  1

274
    -2
284
     1
 64
     0
275
    -2
285
     1
 65
     0
276
    -2
286
     1
 66
     0
277
    -2
287
     1
 67
     0
278
    -2
288
     1
 68
     0
279
    -2
289
     1
 69
     0
  0
VISUALSTYLE
  5
2F
102
{ACAD_REACTORS
330
2A
102
}
330
2A
100
AcDbVisualStyle
  2
2dWireframe
 70
     4
177
     3
291
     0
 70
    58
 90
        0
176
     1
 90
        2
176
     1
 90
        0
176
     1
 90
        0
176
     1
 40
0.6
176
     1
 40
30.0
176
     1
 62
     7
420
 16777215
176
     1
 90
        1
176
     1
 90
        4
176
     1
 62
     7
176
     1
 62
   257
176
     1
 90
        1
176
     1
 90
        1
176
     1
 40
1.0
176
     1
 90
        0
176
     1
 62
   257
176
     1
 40
1.0
176
     1
 90
        1
176
     1
 90
        6
176
     1
 90
        2
176
     1
 62
     7
176
     1
 90
        5
176
     1
 90
        0
176
     1
 90
        0
176
     1
290
     0
176
     1
 90
        1
176
     1
 40
0.0
176
     1
 90
        0
176
     1
290
     1
176
     1
290
     1
176
     1
290
     0
176
     1
290
     0
176
     1
290
     0
176
     1
290
     0
176
     1
290
     0
176
     1
290
     0
176
     1
290
     0
176
     1
 90
       50
176
     1
 40
0.0
176
     1
 40
1.0
176
     1
 90
        0
176
     1
 62
    18
420
        0
176
     1
 90
       50
176
     1
 90
        3
176
     1
 62
     5
420
      255
176
     1
290
     0
176
     1
 90
       50
176
     1
 90
       50
176
     1
 90
       50
176
     1
290
     0
176
     1
 90
       50
176
     1
 62
   256
176
     0
 40
1.0
176
     0
 90
        2
176
     1
  1
strokes_ogs.tif
176
     1
290
     0
176
     1
 40
1.0
176
     1
 40
1.0
176
     1
  0
VISUALSTYLE
  5
32
102
{ACAD_REACTORS
330
2A
102
}
330
2A
100
AcDbVisualStyle
  2
Basic
 70
     7
177
     3
291
     1
 70
    58
 90
        1
176
     1
 90
        0
176
     1
 90
        1
176
     1
 90
        0
176
     1
 40
0.6
176
     1
 40
30.0
176
     1
 62
     7
420
 16777215
176
     1
 90
        0
176
     1
 90
        4
176
     1
 62
     7
176
     1
 62
   257
176
     1
 90
        1
176
     1
 90
        1
176
     1
 40
1.0
176
     1
 90
        8
176
     1
 62
     7
176
     1
 40
1.0
176
     1
 90
        1
176
     1
 90
        6
176
     1
 90
        2
176
     1
 62
     7
176
     1
 90
        5
176
     1
 90
        0
176
     1
 90
        0
176
     1
290
     0
176
     1
 90
        1
176
     1
 40
0.0
176
     1
 90
        0
176
     1
290
     0
176
     1
290
     1
176
     1
290
     1
176
     1
290
     0
176
     1
290
     0
176
     1
290
     0
176
     1
290
     0
176
     1
290
     0
176
     1
290
     0
176
     1
 90
       50
176
     1
 40
0.0
176
     1
 40
1.0
176
     1
 90
        0
176
     1
 62
    18
420
        0
176
     1
 90
       50
176
     1
 90
        3
176
     1
 62
     5
420
      255
176
     1
290
     0
176
     1
 90
       50
176
     1
 90
       50
176
     1
 90
       50
176
     1
290
     0
176
     1
 90
       50
176
     1
 62
   256
176
     0
 40
1.0
176
     0
 90
        2
176
     1
  1
strokes_ogs.tif
176
     1
290
     0
176
     1
 40
1.0
176
     1
 40
1.0
176
     1
  0
VISUALSTYLE
  5
36
102
{ACAD_REACTORS
330
2A
102
}
330
2A
100
AcDbVisualStyle
  2
Brighten
 70
    12
177
     3
291
     1
 70
    58
 90
        2
176
     1
 90
        2
176
     1
 90
        0
176
     1
 90
        0
176
     1
 40
0.6
176
     1
 40
30.0
176
     1
 62
     7
420
 16777215
176
     1
 90
        1
176
     1
 90
        4
176
     1
 62
     7
176
     1
 62
   257
176
     1
 90
        1
176
     1
 90
        1
176
     1
 40
1.0
176
     1
 90
        8
176
     1
 62
     7
176
     1
 40
1.0
176
     1
 90
        1
176
     1
 90
        6
176
     1
 90
        2
176
     1
 62
     7
176
     1
 90
        5
176
     1
 90
        0
176
     1
 90
        0
176
     1
290
     0
176
     1
 90
        1
176
     1
 40
50.0
176
     1
 90
        0
176
     1
290
     0
176
     1
290
     1
176
     1
290
     1
176
     1
290
     0
176
     1
290
     0
176
     1
290
     0
176
     1
290
     0
176
     1
290
     0
176
     1
290
     0
176
     1
 90
       50
176
     1
 40
0.0
176
     1
 40
1.0
176
     1
 90
        0
176
     1
 62
    18
420
        0
176
     1
 90
       50
176
     1
 90
        3
176
     1
 62
     5
420
      255
176
     1
290
     0
176
     1
 90
       50
176
     1
 90
       50
176
     1
 90
       50
176
     1
290
     0
176
     1
 90
       50
176
     1
 62
   256
176
     0
 40
1.0
176
     0
 90
        2
176
     1
  1
strokes_ogs.tif
176
     1
290
     0
176
     1
 40
1.0
176
     1
 40
1.0
176
     1
  0
VISUALSTYLE
  5
3A
102
{ACAD_REACTORS
330
2A
102
}
330
2A
100
AcDbVisualStyle
  2
ColorChange
 70
    16
177
     3
291
     1
 70
    58
 90
        2
176
     1
 90
        2
176
     1
 90
        3
176
     1
 90
        0
176
     1
 40
0.6
176
     1
 40
30.0
176
     1
 62
     8
420
  8421504
176
     1
 90
        1
176
     1
 90
        4
176
     1
 62
     7
176
     1
 62
   257
176
     1
 90
        1
176
     1
 90
        1
176
     1
 40
1.0
176
     1
 90
        8
176
     1
 62
     8
420
  8421504
176
     1
 40
1.0
176
     1
 90
        1
176
     1
 90
        6
176
     1
 90
        2
176
     1
 62
     7
176
     1
 90
        5
176
     1
 90
        0
176
     1
 90
        0
176
     1
290
     0
176
     1
 90
        1
176
     1
 40
0.0
176
     1
 90
        0
176
     1
290
     0
176
     1
290
     1
176
     1
290
     1
176
     1
290
     0
176
     1
290
     0
176
     1
290
     0
176
     1
290
     0
176
     1
290
     0
176
     1
290
     0
176
     1
 90
       50
176
     1
 40
0.0
176
     1
 40
1.0
176
     1
 90
        0
176
     1
 62
    18
420
        0
176
     1
 90
       50
176
     1
 90
        3
176
     1
 62
     5
420
      255
176
     1
290
     0
176
     1
 90
       50
176
     1
 90
       50
176
     1
 90
       50
176
     1
290
     0
176
     1
 90
       50
176
     1
 62
   256
176
     0
 40
1.0
176
     0
 90
        2
176
     1
  1
strokes_ogs.tif
176
     1
290
     0
176
     1
 40
1.0
176
     1
 40
1.0
176
     1
  0
VISUALSTYLE
  5
34
102
{ACAD_REACTORS
330
2A
102
}
330
2A
100
AcDbVisualStyle
  2
Conceptual
 70
     9
177
     3
291
     0
 70
    58
 90
        3
176
     1
 90
        2
176
     1
 90
        0
176
     1
 90
        0
176
     1
 40
0.6
176
     1
 40
30.0
176
     1
 62
     7
420
 16777215
176
     1
 90
        2
176
     1
 90
        2
176
     1
 62
     7
176
     1
 62
   257
176
     1
 90
        1
176
     1
 90
        1
176
     1
 40
179.0
176
     1
 90
        8
176
     1
 62
     7
176
     1
 40
1.0
176
     1
 90
        1
176
     1
 90
        6
176
     1
 90
        2
176
     1
 62
     7
176
     1
 90
        3
176
     1
 90
        0
176
     1
 90
        0
176
     1
290
     0
176
     1
 90
        1
176
     1
 40
0.0
176
     1
 90
        0
176
     1
290
     0
176
     1
290
     1
176
     1
290
     1
176
     1
290
     0
176
     1
290
     0
176
     1
290
     0
176
     1
290
     0
176
     1
290
     0
176
     1
290
     0
176
     1
 90
       50
176
     1
 40
0.0
176
     1
 40
1.0
176
     1
 90
        0
176
     1
 62
    18
420
        0
176
     1
 90
       50
176
     1
 90
        3
176
     1
 62
     5
420
      255
176
     1
290
     0
176
     1
 90
       50
176
     1
 90
       50
176
     1
 90
       50
176
     1
290
     0
176
     1
 90
       50
176
     1
 62
   256
176
     0
 40
1.0
176
     0
 90
        2
176
     1
  1
strokes_ogs.tif
176
     1
290
     0
176
     1
 40
1.0
176
     1
 40
1.0
176
     1
  0
VISUALSTYLE
  5
35
102
{ACAD_REACTORS
330
2A
102
}
330
2A
100
AcDbVisualStyle
  2
Dim
 70
    11
177
     3
291
     1
 70
    58
 90
        2
176
     1
 90
        2
176
     1
 90
        0
176
     1
 90
        0
176
     1
 40
0.6
176
     1
 40
30.0
176
     1
 62
     7
420
 16777215
176
     1
 90
        1
176
     1
 90
        4
176
     1
 62
     7
176
     1
 62
   257
176
     1
 90
        1
176
     1
 90
        1
176
     1
 40
1.0
176
     1
 90
        8
176
     1
 62
     7
176
     1
 40
1.0
176
     1
 90
        1
176
     1
 90
        6
176
     1
 90
        2
176
     1
 62
     7
176
     1
 90
        5
176
     1
 90
        0
176
     1
 90
        0
176
     1
290
     0
176
     1
 90
        1
176
     1
 40
-50.0
176
     1
 90
        0
176
     1
290
     0
176
     1
290
     1
176
     1
290
     1
176
     1
290
     0
176
     1
290
     0
176
     1
290
     0
176
     1
290
     0
176
     1
290
     0
176
     1
290
     0
176
     1
 90
       50
176
     1
 40
0.0
176
     1
 40
1.0
176
     1
 90
        0
176
     1
 62
    18
420
        0
176
     1
 90
       50
176
     1
 90
        3
176
     1
 62
     5
420
      255
176
     1
290
     0
176
     1
 90
       50
176
     1
 90
       50
176
     1
 90
       50
176
     1
290
     0
176
     1
 90
       50
176
     1
 62
   256
176
     0
 40
1.0
176
     0
 90
        2
176
     1
  1
strokes_ogs.tif
176
     1
290
     0
176
     1
 40
1.0
176
     1
 40
1.0
176
     1
  0
VISUALSTYLE
  5
3D
102
{ACAD_REACTORS
330
2A
102
}
330
2A
100
AcDbVisualStyle
  2
EdgeColorOff
 70
    22
177
     3
291
     1
 70
    58
 90
        2
176
     0
 90
        2
176
     0
 90
        0
176
     0
 90
        0
176
     0
 40
0.6
176
     0
 40
30.0
176
     0
 62
     7
420
 16777215
176
     0
 90
        1
176
     0
 90
        4
176
     0
 62
     7
176
     0
 62
   257
176
     0
 90
        1
176
     0
 90
        1
176
     0
 40
1.0
176
     0
 90
        8
176
     2
 62
     7
176
     0
 40
1.0
176
     0
 90
        1
176
     0
 90
        6
176
     0
 90
        2
176
     0
 62
     7
176
     0
 90
        5
176
     0
 90
        0
176
     0
 90
        0
176
     0
290
     0
176
     0
 90
        1
176
     0
 40
0.0
176
     0
 90
        0
176
     0
290
     0
176
     0
290
     1
176
     0
290
     1
176
     0
290
     0
176
     0
290
     0
176
     0
290
     0
176
     0
290
     0
176
     0
290
     0
176
     0
290
     0
176
     0
 90
       50
176
     0
 40
0.0
176
     0
 40
1.0
176
     0
 90
        0
176
     0
 62
    18
420
        0
176
     0
 90
       50
176
     0
 90
        3
176
     0
 62
     5
420
      255
176
     0
290
     0
176
     0
 90
       50
176
     0
 90
       50
176
     0
 90
       50
176
     0
290
     0
176
     0
 90
       50
176
     0
 62
   256
176
     0
 40
1.0
176
     0
 90
        2
176
     0
  1
strokes_ogs.tif
176
     0
290
     0
176
     0
 40
1.0
176
     0
 40
1.0
176
     0
  0
VISUALSTYLE
  5
39
102
{ACAD_REACTORS
330
2A
102
}
330
2A
100
AcDbVisualStyle
  2
Facepattern
 70
    15
177
     3
291
     1
 70
    58
 90
        2
176
     1
 90
        2
176
     1
 90
        0
176
     1
 90
        0
176
     1
 40
0.6
176
     1
 40
30.0
176
     1
 62
     7
420
 16777215
176
     1
 90
        1
176
     1
 90
        4
176
     1
 62
     7
176
     1
 62
   257
176
     1
 90
        1
176
     1
 90
        1
176
     1
 40
1.0
176
     1
 90
        8
176
     1
 62
     7
176
     1
 40
1.0
176
     1
 90
        1
176
     1
 90
        6
176
     1
 90
        2
176
     1
 62
     7
176
     1
 90
        5
176
     1
 90
        0
176
     1
 90
        0
176
     1
290
     0
176
     1
 90
        1
176
     1
 40
0.0
176
     1
 90
        0
176
     1
290
     0
176
     1
290
     1
176
     1
290
     1
176
     1
290
     0
176
     1
290
     0
176
     1
290
     0
176
     1
290
     0
176
     1
290
     0
176
     1
290
     0
176
     1
 90
       50
176
     1
 40
0.0
176
     1
 40
1.0
176
     1
 90
        0
176
     1
 62
    18
420
        0
176
     1
 90
       50
176
     1
 90
        3
176
     1
 62
     5
420
      255
176
     1
290
     0
176
     1
 90
       50
176
     1
 90
       50
176
     1
 90
       50
176
     1
290
     0
176
     1
 90
       50
176
     1
 62
   256
176
     0
 40
1.0
176
     0
 90
        2
176
     1
  1
strokes_ogs.tif
176
     1
290
     0
176
     1
 40
1.0
176
     1
 40
1.0
176
     1
  0
VISUALSTYLE
  5
2B
102
{ACAD_REACTORS
330
2A
102
}
330
2A
100
AcDbVisualStyle
  2
Flat
 70
     0
177
     3
291
     1
 70
    58
 90
        2
176
     1
 90
        1
176
     1
 90
        1
176
     1
 90
        2
176
     1
 40
0.6
176
     1
 40
30.0
176
     1
 62
     7
420
 16777215
176
     1
 90
        0
176
     1
 90
        0
176
     1
 62
     7
176
     1
 62
   257
176
     1
 90
        1
176
     1
 90
        1
176
     1
 40
1.0
176
     1
 90
        8
176
     1
 62
     7
176
     1
 40
1.0
176
     1
 90
        1
176
     1
 90
        6
176
     1
 90
        2
176
     1
 62
     7
176
     1
 90
        5
176
     1
 90
        0
176
     1
 90
        0
176
     1
290
     0
176
     1
 90
       13
176
     1
 40
0.0
176
     1
 90
        0
176
     1
290
     0
176
     1
290
     1
176
     1
290
     1
176
     1
290
     0
176
     1
290
     0
176
     1
290
     0
176
     1
290
     0
176
     1
290
     0
176
     1
290
     0
176
     1
 90
       50
176
     1
 40
0.0
176
     1
 40
1.0
176
     1
 90
        0
176
     1
 62
    18
420
        0
176
     1
 90
       50
176
     1
 90
        3
176
     1
 62
     5
420
      255
176
     1
290
     0
176
     1
 90
       50
176
     1
 90
       50
176
     1
 90
       50
176
     1
290
     0
176
     1
 90
       50
176
     1
 62
   256
176
     0
 40
1.0
176
     0
 90
        2
176
     1
  1
strokes_ogs.tif
176
     1
290
     0
176
     1
 40
1.0
176
     1
 40
1.0
176
     1
  0
VISUALSTYLE
  5
2C
102
{ACAD_REACTORS
330
2A
102
}
330
2A
100
AcDbVisualStyle
  2
FlatWithEdges
 70
     1
177
     3
291
     1
 70
    58
 90
        2
176
     1
 90
        1
176
     1
 90
        1
176
     1
 90
        2
176
     1
 40
0.6
176
     1
 40
30.0
176
     1
 62
     7
420
 16777215
176
     1
 90
        1
176
     1
 90
        0
176
     1
 62
     7
176
     1
 62
   257
176
     1
 90
        1
176
     1
 90
        1
176
     1
 40
1.0
176
     1
 90
        0
176
     1
 62
   257
176
     1
 40
1.0
176
     1
 90
        1
176
     1
 90
        6
176
     1
 90
        2
176
     1
 62
     7
176
     1
 90
        5
176
     1
 90
        0
176
     1
 90
        0
176
     1
290
     0
176
     1
 90
       13
176
     1
 40
0.0
176
     1
 90
        0
176
     1
290
     0
176
     1
290
     1
176
     1
290
     1
176
     1
290
     0
176
     1
290
     0
176
     1
290
     0
176
     1
290
     0
176
     1
290
     0
176
     1
290
     0
176
     1
 90
       50
176
     1
 40
0.0
176
     1
 40
1.0
176
     1
 90
        0
176
     1
 62
    18
420
        0
176
     1
 90
       50
176
     1
 90
        3
176
     1
 62
     5
420
      255
176
     1
290
     0
176
     1
 90
       50
176
     1
 90
       50
176
     1
 90
       50
176
     1
290
     0
176
     1
 90
       50
176
     1
 62
   256
176
     0
 40
1.0
176
     0
 90
        2
176
     1
  1
strokes_ogs.tif
176
     1
290
     0
176
     1
 40
1.0
176
     1
 40
1.0
176
     1
  0
VISUALSTYLE
  5
2D
102
{ACAD_REACTORS
330
2A
102
}
330
2A
100
AcDbVisualStyle
  2
Gouraud
 70
     2
177
     3
291
     1
 70
    58
 90
        2
176
     1
 90
        2
176
     1
 90
        1
176
     1
 90
        2
176
     1
 40
0.6
176
     1
 40
30.0
176
     1
 62
     7
420
 16777215
176
     1
 90
        0
176
     1
 90
        0
176
     1
 62
     7
176
     1
 62
   257
176
     1
 90
        1
176
     1
 90
        1
176
     1
 40
1.0
176
     1
 90
        0
176
     1
 62
     7
176
     1
 40
1.0
176
     1
 90
        1
176
     1
 90
        6
176
     1
 90
        2
176
     1
 62
     7
176
     1
 90
        5
176
     1
 90
        0
176
     1
 90
        0
176
     1
290
     0
176
     1
 90
       13
176
     1
 40
0.0
176
     1
 90
        0
176
     1
290
     0
176
     1
290
     1
176
     1
290
     1
176
     1
290
     0
176
     1
290
     0
176
     1
290
     0
176
     1
290
     0
176
     1
290
     0
176
     1
290
     0
176
     1
 90
       50
176
     1
 40
0.0
176
     1
 40
1.0
176
     1
 90
        0
176
     1
 62
    18
420
        0
176
     1
 90
       50
176
     1
 90
        3
176
     1
 62
     5
420
      255
176
     1
290
     0
176
     1
 90
       50
176
     1
 90
       50
176
     1
 90
       50
176
     1
290
     0
176
     1
 90
       50
176
     1
 62
   256
176
     0
 40
1.0
176
     0
 90
        2
176
     1
  1
strokes_ogs.tif
176
     1
290
     0
176
     1
 40
1.0
176
     1
 40
1.0
176
     1
  0
VISUALSTYLE
  5
2E
102
{ACAD_REACTORS
330
2A
102
}
330
2A
100
AcDbVisualStyle
  2
GouraudWithEdges
 70
     3
177
     3
291
     1
 70
    58
 90
        2
176
     1
 90
        2
176
     1
 90
        1
176
     1
 90
        2
176
     1
 40
0.6
176
     1
 40
30.0
176
     1
 62
     7
420
 16777215
176
     1
 90
        1
176
     1
 90
        0
176
     1
 62
     7
176
     1
 62
   257
176
     1
 90
        1
176
     1
 90
        1
176
     1
 40
1.0
176
     1
 90
        0
176
     1
 62
   257
176
     1
 40
1.0
176
     1
 90
        1
176
     1
 90
        6
176
     1
 90
        2
176
     1
 62
     7
176
     1
 90
        5
176
     1
 90
        0
176
     1
 90
        0
176
     1
290
     0
176
     1
 90
       13
176
     1
 40
0.0
176
     1
 90
        0
176
     1
290
     0
176
     1
290
     1
176
     1
290
     1
176
     1
290
     0
176
     1
290
     0
176
     1
290
     0
176
     1
290
     0
176
     1
290
     0
176
     1
290
     0
176
     1
 90
       50
176
     1
 40
0.0
176
     1
 40
1.0
176
     1
 90
        0
176
     1
 62
    18
420
        0
176
     1
 90
       50
176
     1
 90
        3
176
     1
 62
     5
420
      255
176
     1
290
     0
176
     1
 90
       50
176
     1
 90
       50
176
     1
 90
       50
176
     1
290
     0
176
     1
 90
       50
176
     1
 62
   256
176
     0
 40
1.0
176
     0
 90
        2
176
     1
  1
strokes_ogs.tif
176
     1
290
     0
176
     1
 40
1.0
176
     1
 40
1.0
176
     1
  0
VISUALSTYLE
  5
31
102
{ACAD_REACTORS
330
2A
102
}
330
2A
100
AcDbVisualStyle
  2
Hidden
 70
     6
177
     3
291
     0
 70
    58
 90
        1
176
     1
 90
        2
176
     1
 90
        2
176
     1
 90
        0
176
     1
 40
0.6
176
     1
 40
30.0
176
     1
 62
     7
420
 16777215
176
     1
 90
        2
176
     1
 90
        2
176
     1
 62
     7
176
     1
 62
   257
176
     1
 90
        2
176
     1
 90
        1
176
     1
 40
40.0
176
     1
 90
        0
176
     1
 62
   257
176
     1
 40
1.0
176
     1
 90
        1
176
     1
 90
        6
176
     1
 90
        2
176
     1
 62
     7
176
     1
 90
        3
176
     1
 90
        0
176
     1
 90
        0
176
     1
290
     0
176
     1
 90
        1
176
     1
 40
0.0
176
     1
 90
        0
176
     1
290
     0
176
     1
290
     1
176
     1
290
     1
176
     1
290
     0
176
     1
290
     0
176
     1
290
     0
176
     1
290
     0
176
     1
290
     0
176
     1
290
     0
176
     1
 90
       50
176
     1
 40
0.0
176
     1
 40
1.0
176
     1
 90
        0
176
     1
 62
    18
420
        0
176
     1
 90
       50
176
     1
 90
        3
176
     1
 62
     5
420
      255
176
     1
290
     0
176
     1
 90
       50
176
     1
 90
       50
176
     1
 90
       50
176
     1
290
     0
176
     1
 90
       50
176
     1
 62
   256
176
     0
 40
1.0
176
     0
 90
        2
176
     1
  1
strokes_ogs.tif
176
     1
290
     0
176
     1
 40
1.0
176
     1
 40
1.0
176
     1
  0
VISUALSTYLE
  5
3B
102
{ACAD_REACTORS
330
2A
102
}
330
2A
100
AcDbVisualStyle
  2
JitterOff
 70
    20
177
     3
291
     1
 70
    58
 90
        2
176
     0
 90
        2
176
     0
 90
        0
176
     0
 90
        0
176
     0
 40
0.6
176
     0
 40
30.0
176
     0
 62
     7
420
 16777215
176
     0
 90
        1
176
     0
 90
        4
176
     0
 62
     7
176
     0
 62
   257
176
     0
 90
        1
176
     0
 90
        1
176
     0
 40
1.0
176
     0
 90
       10
176
     2
 62
     7
176
     0
 40
1.0
176
     0
 90
        1
176
     0
 90
        6
176
     0
 90
        2
176
     0
 62
     7
176
     0
 90
        5
176
     0
 90
        0
176
     0
 90
        0
176
     0
290
     0
176
     0
 90
        1
176
     0
 40
0.0
176
     0
 90
        0
176
     0
290
     0
176
     0
290
     1
176
     0
290
     1
176
     0
290
     0
176
     0
290
     0
176
     0
290
     0
176
     0
290
     0
176
     0
290
     0
176
     0
290
     0
176
     0
 90
       50
176
     0
 40
0.0
176
     0
 40
1.0
176
     0
 90
        0
176
     0
 62
    18
420
        0
176
     0
 90
       50
176
     0
 90
        3
176
     0
 62
     5
420
      255
176
     0
290
     0
176
     0
 90
       50
176
     0
 90
       50
176
     0
 90
       50
176
     0
290
     0
176
     0
 90
       50
176
     0
 62
   256
176
     0
 40
1.0
176
     0
 90
        2
176
     0
  1
strokes_ogs.tif
176
     0
290
     0
176
     0
 40
1.0
176
     0
 40
1.0
176
     0
  0
VISUALSTYLE
  5
38
102
{ACAD_REACTORS
330
2A
102
}
330
2A
100
AcDbVisualStyle
  2
Linepattern
 70
    14
177
     3
291
     1
 70
    58
 90
        2
176
     1
 90
        2
176
     1
 90
        0
176
     1
 90
        0
176
     1
 40
0.6
176
     1
 40
30.0
176
     1
 62
     7
420
 16777215
176
     1
 90
        1
176
     1
 90
        4
176
     1
 62
     7
176
     1
 62
   257
176
     1
 90
        7
176
     1
 90
        7
176
     1
 40
1.0
176
     1
 90
        8
176
     1
 62
     7
176
     1
 40
1.0
176
     1
 90
        1
176
     1
 90
        6
176
     1
 90
        2
176
     1
 62
     7
176
     1
 90
        5
176
     1
 90
        0
176
     1
 90
        0
176
     1
290
     0
176
     1
 90
        1
176
     1
 40
0.0
176
     1
 90
        0
176
     1
290
     0
176
     1
290
     1
176
     1
290
     1
176
     1
290
     0
176
     1
290
     0
176
     1
290
     0
176
     1
290
     0
176
     1
290
     0
176
     1
290
     0
176
     1
 90
       50
176
     1
 40
0.0
176
     1
 40
1.0
176
     1
 90
        0
176
     1
 62
    18
420
        0
176
     1
 90
       50
176
     1
 90
        3
176
     1
 62
     5
420
      255
176
     1
290
     0
176
     1
 90
       50
176
     1
 90
       50
176
     1
 90
       50
176
     1
290
     0
176
     1
 90
       50
176
     1
 62
   256
176
     0
 40
1.0
176
     0
 90
        2
176
     1
  1
strokes_ogs.tif
176
     1
290
     0
176
     1
 40
1.0
176
     1
 40
1.0
176
     1
  0
VISUALSTYLE
  5
3C
102
{ACAD_REACTORS
330
2A
102
}
330
2A
100
AcDbVisualStyle
  2
OverhangOff
 70
    21
177
     3
291
     1
 70
    58
 90
        2
176
     0
 90
        2
176
     0
 90
        0
176
     0
 90
        0
176
     0
 40
0.6
176
     0
 40
30.0
176
     0
 62
     7
420
 16777215
176
     0
 90
        1
176
     0
 90
        4
176
     0
 62
     7
176
     0
 62
   257
176
     0
 90
        1
176
     0
 90
        1
176
     0
 40
1.0
176
     0
 90
        9
176
     2
 62
     7
176
     0
 40
1.0
176
     0
 90
        1
176
     0
 90
        6
176
     0
 90
        2
176
     0
 62
     7
176
     0
 90
        5
176
     0
 90
        0
176
     0
 90
        0
176
     0
290
     0
176
     0
 90
        1
176
     0
 40
0.0
176
     0
 90
        0
176
     0
290
     0
176
     0
290
     1
176
     0
290
     1
176
     0
290
     0
176
     0
290
     0
176
     0
290
     0
176
     0
290
     0
176
     0
290
     0
176
     0
290
     0
176
     0
 90
       50
176
     0
 40
0.0
176
     0
 40
1.0
176
     0
 90
        0
176
     0
 62
    18
420
        0
176
     0
 90
       50
176
     0
 90
        3
176
     0
 62
     5
420
      255
176
     0
290
     0
176
     0
 90
       50
176
     0
 90
       50
176
     0
 90
       50
176
     0
290
     0
176
     0
 90
       50
176
     0
 62
   256
176
     0
 40
1.0
176
     0
 90
        2
176
     0
  1
strokes_ogs.tif
176
     0
290
     0
176
     0
 40
1.0
176
     0
 40
1.0
176
     0
  0
VISUALSTYLE
  5
33
102
{ACAD_REACTORS
330
2A
102
}
330
2A
100
AcDbVisualStyle
  2
Realistic
 70
     8
177
     3
291
     0
 70
    58
 90
        2
176
     1
 90
        3
176
     1
 90
        0
176
     1
 90
        2
176
     1
 40
0.6
176
     1
 40
30.0
176
     1
 62
     7
420
 16777215
176
     1
 90
        0
176
     1
 90
        0
176
     1
 62
     7
176
     1
 62
   257
176
     1
 90
        1
176
     1
 90
        1
176
     1
 40
1.0
176
     1
 90
        8
176
     1
 62
   257
176
     1
 40
1.0
176
     1
 90
        1
176
     1
 90
        6
176
     1
 90
        2
176
     1
 62
     7
176
     1
 90
        3
176
     1
 90
        0
176
     1
 90
        0
176
     1
290
     0
176
     1
 90
       13
176
     1
 40
0.0
176
     1
 90
        0
176
     1
290
     0
176
     1
290
     1
176
     1
290
     1
176
     1
290
     0
176
     1
290
     0
176
     1
290
     0
176
     1
290
     0
176
     1
290
     0
176
     1
290
     0
176
     1
 90
       50
176
     1
 40
0.0
176
     1
 40
1.0
176
     1
 90
        0
176
     1
 62
    18
420
        0
176
     1
 90
       50
176
     1
 90
        3
176
     1
 62
     5
420
      255
176
     1
290
     0
176
     1
 90
       50
176
     1
 90
       50
176
     1
 90
       50
176
     1
290
     0
176
     1
 90
       50
176
     1
 62
   256
176
     0
 40
1.0
176
     0
 90
        2
176
     1
  1
strokes_ogs.tif
176
     1
290
     0
176
     1
 40
1.0
176
     1
 40
1.0
176
     1
  0
VISUALSTYLE
  5
42
102
{ACAD_REACTORS
330
2A
102
}
330
2A
100
AcDbVisualStyle
  2
Shaded
 70
    27
177
     3
291
     0
 70
    58
 90
        2
176
     1
 90
        2
176
     1
 90
        1
176
     1
 90
        2
176
     1
 40
0.6
176
     1
 40
30.0
176
     1
 62
     7
420
 16777215
176
     1
 90
        0
176
     1
 90
        4
176
     1
 62
     7
176
     1
 62
   257
176
     1
 90
        1
176
     1
 90
        1
176
     1
 40
1.0
176
     1
 90
        8
176
     1
 62
   257
176
     1
 40
1.0
176
     1
 90
        1
176
     1
 90
        6
176
     1
 90
        2
176
     1
 62
     8
420
  7895160
176
     1
 90
        3
176
     1
 90
        0
176
     1
 90
        0
176
     1
290
     0
176
     1
 90
        5
176
     1
 40
0.0
176
     1
 90
        0
176
     1
290
     0
176
     1
290
     1
176
     1
290
     1
176
     1
290
     0
176
     1
290
     0
176
     1
290
     0
176
     1
290
     0
176
     1
290
     0
176
     1
290
     0
176
     1
 90
       50
176
     1
 40
0.0
176
     1
 40
1.0
176
     1
 90
        0
176
     1
 62
    18
420
        0
176
     1
 90
       50
176
     1
 90
        3
176
     1
 62
     5
420
      255
176
     1
290
     0
176
     1
 90
       50
176
     1
 90
       50
176
     1
 90
       50
176
     1
290
     0
176
     1
 90
       50
176
     1
 62
   256
176
     0
 40
1.0
176
     0
 90
        2
176
     1
  1
strokes_ogs.tif
176
     1
290
     0
176
     1
 40
1.0
176
     1
 40
1.0
176
     1
  0
VISUALSTYLE
  5
41
102
{ACAD_REACTORS
330
2A
102
}
330
2A
100
AcDbVisualStyle
  2
Shaded with edges
 70
    26
177
     3
291
     0
 70
    58
 90
        2
176
     1
 90
        2
176
     1
 90
        1
176
     1
 90
        2
176
     1
 40
0.6
176
     1
 40
30.0
176
     1
 62
     7
420
 16777215
176
     1
 90
        1
176
     1
 90
       10
176
     1
 62
     7
176
     1
 62
   257
176
     1
 90
        2
176
     1
 90
        1
176
     1
 40
1.0
176
     1
 90
        8
176
     1
 62
   257
176
     1
 40
1.0
176
     1
 90
        1
176
     1
 90
        6
176
     1
 90
        2
176
     1
 62
     7
176
     1
 90
        3
176
     1
 90
        0
176
     1
 90
        0
176
     1
290
     0
176
     1
 90
        5
176
     1
 40
0.0
176
     1
 90
        0
176
     1
290
     0
176
     1
290
     1
176
     1
290
     1
176
     1
290
     0
176
     1
290
     0
176
     1
290
     0
176
     1
290
     0
176
     1
290
     0
176
     1
290
     0
176
     1
 90
       50
176
     1
 40
0.0
176
     1
 40
1.0
176
     1
 90
        0
176
     1
 62
    18
420
        0
176
     1
 90
       50
176
     1
 90
        3
176
     1
 62
     5
420
      255
176
     1
290
     0
176
     1
 90
       50
176
     1
 90
       50
176
     1
 90
       50
176
     1
290
     0
176
     1
 90
       50
176
     1
 62
   256
176
     0
 40
1.0
176
     0
 90
        2
176
     1
  1
strokes_ogs.tif
176
     1
290
     0
176
     1
 40
1.0
176
     1
 40
1.0
176
     1
  0
VISUALSTYLE
  5
3E
102
{ACAD_REACTORS
330
2A
102
}
330
2A
100
AcDbVisualStyle
  2
Shades of Gray
 70
    23
177
     3
291
     0
 70
    58
 90
        2
176
     1
 90
        2
176
     1
 90
        3
176
     1
 90
        0
176
     1
 40
0.6
176
     1
 40
30.0
176
     1
 62
     7
420
 16777215
176
     1
 90
        2
176
     1
 90
        2
176
     1
 62
     7
176
     1
 62
     7
176
     1
 90
        1
176
     1
 90
        1
176
     1
 40
40.0
176
     1
 90
        8
176
     1
 62
     7
176
     1
 40
1.0
176
     1
 90
        1
176
     1
 90
        6
176
     1
 90
        2
176
     1
 62
     7
176
     1
 90
        3
176
     1
 90
        0
176
     1
 90
        0
176
     1
290
     0
176
     1
 90
        1
176
     1
 40
0.0
176
     1
 90
        0
176
     1
290
     0
176
     1
290
     1
176
     1
290
     1
176
     1
290
     0
176
     1
290
     0
176
     1
290
     0
176
     1
290
     0
176
     1
290
     0
176
     1
290
     0
176
     1
 90
       50
176
     1
 40
0.0
176
     1
 40
1.0
176
     1
 90
        0
176
     1
 62
    18
420
        0
176
     1
 90
       50
176
     1
 90
        3
176
     1
 62
     5
420
      255
176
     1
290
     0
176
     1
 90
       50
176
     1
 90
       50
176
     1
 90
       50
176
     1
290
     0
176
     1
 90
       50
176
     1
 62
   256
176
     0
 40
1.0
176
     0
 90
        2
176
     1
  1
strokes_ogs.tif
176
     1
290
     0
176
     1
 40
1.0
176
     1
 40
1.0
176
     1
  0
VISUALSTYLE
  5
3F
102
{ACAD_REACTORS
330
2A
102
}
330
2A
100
AcDbVisualStyle
  2
Sketchy
 70
    24
177
     3
291
     0
 70
    58
 90
        1
176
     1
 90
        2
176
     1
 90
        2
176
     1
 90
        0
176
     1
 40
0.6
176
     1
 40
30.0
176
     1
 62
     7
420
 16777215
176
     1
 90
        2
176
     1
 90
        2
176
     1
 62
     7
176
     1
 62
     7
176
     1
 90
        1
176
     1
 90
        1
176
     1
 40
40.0
176
     1
 90
       11
176
     1
 62
     7
176
     1
 40
1.0
176
     1
 90
        1
176
     1
 90
        6
176
     1
 90
        2
176
     1
 62
     7
176
     1
 90
        6
176
     1
 90
        0
176
     1
 90
        0
176
     1
290
     0
176
     1
 90
        1
176
     1
 40
0.0
176
     1
 90
        0
176
     1
290
     0
176
     1
290
     1
176
     1
290
     1
176
     1
290
     0
176
     1
290
     0
176
     1
290
     0
176
     1
290
     0
176
     1
290
     0
176
     1
290
     0
176
     1
 90
       50
176
     1
 40
0.0
176
     1
 40
1.0
176
     1
 90
        0
176
     1
 62
    18
420
        0
176
     1
 90
       50
176
     1
 90
        3
176
     1
 62
     5
420
      255
176
     1
290
     0
176
     1
 90
       50
176
     1
 90
       50
176
     1
 90
       50
176
     1
290
     0
176
     1
 90
       50
176
     1
 62
   256
176
     0
 40
1.0
176
     0
 90
        2
176
     1
  1
strokes_ogs.tif
176
     1
290
     0
176
     1
 40
1.0
176
     1
 40
1.0
176
     1
  0
VISUALSTYLE
  5
37
102
{ACAD_REACTORS
330
2A
102
}
330
2A
100
AcDbVisualStyle
  2
Thicken
 70
    13
177
     3
291
     1
 70
    58
 90
        2
176
     1
 90
        2
176
     1
 90
        0
176
     1
 90
        0
176
     1
 40
0.6
176
     1
 40
30.0
176
     1
 62
     7
420
 16777215
176
     1
 90
        1
176
     1
 90
        4
176
     1
 62
     7
176
     1
 62
   257
176
     1
 90
        1
176
     1
 90
        1
176
     1
 40
1.0
176
     1
 90
       12
176
     1
 62
     7
176
     1
 40
1.0
176
     1
 90
        1
176
     1
 90
        6
176
     1
 90
        2
176
     1
 62
     7
176
     1
 90
        5
176
     1
 90
        0
176
     1
 90
        0
176
     1
290
     0
176
     1
 90
        1
176
     1
 40
0.0
176
     1
 90
        0
176
     1
290
     0
176
     1
290
     1
176
     1
290
     1
176
     1
290
     0
176
     1
290
     0
176
     1
290
     0
176
     1
290
     0
176
     1
290
     0
176
     1
290
     0
176
     1
 90
       50
176
     1
 40
0.0
176
     1
 40
1.0
176
     1
 90
        0
176
     1
 62
    18
420
        0
176
     1
 90
       50
176
     1
 90
        3
176
     1
 62
     5
420
      255
176
     1
290
     0
176
     1
 90
       50
176
     1
 90
       50
176
     1
 90
       50
176
     1
290
     0
176
     1
 90
       50
176
     1
 62
   256
176
     0
 40
1.0
176
     0
 90
        2
176
     1
  1
strokes_ogs.tif
176
     1
290
     0
176
     1
 40
1.0
176
     1
 40
1.0
176
     1
  0
VISUALSTYLE
  5
30
102
{ACAD_REACTORS
330
2A
102
}
330
2A
100
AcDbVisualStyle
  2
Wireframe
 70
     5
177
     3
291
     0
 70
    58
 90
        0
176
     1
 90
        2
176
     1
 90
        0
176
     1
 90
        0
176
     1
 40
0.6
176
     1
 40
30.0
176
     1
 62
     7
420
 16777215
176
     1
 90
        1
176
     1
 90
        4
176
     1
 62
     7
176
     1
 62
   257
176
     1
 90
        1
176
     1
 90
        1
176
     1
 40
1.0
176
     1
 90
        0
176
     1
 62
   257
176
     1
 40
1.0
176
     1
 90
        1
176
     1
 90
        6
176
     1
 90
        2
176
     1
 62
     7
176
     1
 90
        3
176
     1
 90
        0
176
     1
 90
        0
176
     1
290
     0
176
     1
 90
        1
176
     1
 40
0.0
176
     1
 90
        0
176
     1
290
     0
176
     1
290
     1
176
     1
290
     1
176
     1
290
     0
176
     1
290
     0
176
     1
290
     0
176
     1
290
     0
176
     1
290
     0
176
     1
290
     0
176
     1
 90
       50
176
     1
 40
0.0
176
     1
 40
1.0
176
     1
 90
        0
176
     1
 62
    18
420
        0
176
     1
 90
       50
176
     1
 90
        3
176
     1
 62
     5
420
      255
176
     1
290
     0
176
     1
 90
       50
176
     1
 90
       50
176
     1
 90
       50
176
     1
290
     0
176
     1
 90
       50
176
     1
 62
   256
176
     0
 40
1.0
176
     0
 90
        2
176
     1
  1
strokes_ogs.tif
176
     1
290
     0
176
     1
 40
1.0
176
     1
 40
1.0
176
     1
  0
VISUALSTYLE
  5
40
102
{ACAD_REACTORS
330
2A
102
}
330
2A
100
AcDbVisualStyle
  2
X-Ray
 70
    25
177
     3
291
     0
 70
    58
 90
        2
176
     1
 90
        2
176
     1
 90
        1
176
     1
 90
        1
176
     1
 40
0.5
176
     1
 40
30.0
176
     1
 62
     7
420
 16777215
176
     1
 90
        1
176
     1
 90
        0
176
     1
 62
     7
176
     1
 62
   257
176
     1
 90
        1
176
     1
 90
        1
176
     1
 40
1.0
176
     1
 90
        8
176
     1
 62
     7
176
     1
 40
1.0
176
     1
 90
        1
176
     1
 90
        6
176
     1
 90
        2
176
     1
 62
     7
176
     1
 90
        3
176
     1
 90
        0
176
     1
 90
        0
176
     1
290
     0
176
     1
 90
       13
176
     1
 40
0.0
176
     1
 90
        0
176
     1
290
     0
176
     1
290
     1
176
     1
290
     1
176
     1
290
     0
176
     1
290
     0
176
     1
290
     0
176
     1
290
     0
176
     1
290
     0
176
     1
290
     0
176
     1
 90
       50
176
     1
 40
0.0
176
     1
 40
1.0
176
     1
 90
        0
176
     1
 62
    18
420
        0
176
     1
 90
       50
176
     1
 90
        3
176
     1
 62
     5
420
      255
176
     1
290
     0
176
     1
 90
       50
176
     1
 90
       50
176
     1
 90
       50
176
     1
290
     0
176
     1
 90
       50
176
     1
 62
   256
176
     0
 40
1.0
176
     0
 90
        2
176
     1
  1
strokes_ogs.tif
176
     1
290
     0
176
     1
 40
1.0
176
     1
 40
1.0
176
     1
  0
DICTIONARYVAR
  5
10D
102
{ACAD_REACTORS
330
10C
102
}
330
10C
100
DictionaryVariables
280
     0
  1
1:1
  0
DICTIONARYVAR
  5
115
102
{ACAD_REACTORS
330
10C
102
}
330
10C
100
DictionaryVariables
280
     0
  1
3.500000
  0
DICTIONARYVAR
  5
116
102
{ACAD_REACTORS
330
10C
102
}
330
10C
100
DictionaryVariables
280
     0
  1
acadiso.lin
  0
DICTIONARYVAR
  5
112
102
{ACAD_REACTORS
330
10C
102
}
330
10C
100
DictionaryVariables
280
     0
  1
Standard
  0
DICTIONARYVAR
  5
111
102
{ACAD_REACTORS
330
10C
102
}
330
10C
100
DictionaryVariables
280
     0
  1
Standard
  0
DICTIONARY
  5
10E
330
5A
100
AcDbDictionary
280
     1
281
     1
  3
ACAD_ROUNDTRIP_2008_TABLESTYLE_CELLSTYLEMAP
360
10F
  0
CELLSTYLEMAP
  5
10F
102
{ACAD_REACTORS
330
10E
102
}
330
10E
100
AcDbCellStyleMap
 90
        3
300
CELLSTYLE
  1
TABLEFORMAT_BEGIN
 90
        5
170
     1
 91
        0
 92
    32768
 62
   257
 93
        1
300
CONTENTFORMAT
  1
CONTENTFORMAT_BEGIN
 90
        0
 91
        0
 92
        4
 93
        0
300

 40
0.0
140
1.0
 94
        5
 62
     0
340
11
144
6.0
309
CONTENTFORMAT_END
171
     1
301
MARGIN
  1
CELLMARGIN_BEGIN
 40
1.5
 40
1.5
 40
1.5
 40
1.5
 40
1.5
 40
1.5
309
CELLMARGIN_END
 94
        6
 95
        1
302
GRIDFORMAT
  1
GRIDFORMAT_BEGIN
 90
        0
 91
        1
 62
     0
 92
       -2
340
14
 93
        0
 40
0.045
309
GRIDFORMAT_END
 95
        2
302
GRIDFORMAT
  1
GRIDFORMAT_BEGIN
 90
        0
 91
        1
 62
     0
 92
       -2
340
14
 93
        0
 40
0.045
309
GRIDFORMAT_END
 95
        4
302
GRIDFORMAT
  1
GRIDFORMAT_BEGIN
 90
        0
 91
        1
 62
     0
 92
       -2
340
14
 93
        0
 40
0.045
309
GRIDFORMAT_END
 95
        8
302
GRIDFORMAT
  1
GRIDFORMAT_BEGIN
 90
        0
 91
        1
 62
     0
 92
       -2
340
14
 93
        0
 40
0.045
309
GRIDFORMAT_END
 95
       16
302
GRIDFORMAT
  1
GRIDFORMAT_BEGIN
 90
        0
 91
        1
 62
     0
 92
       -2
340
14
 93
        0
 40
0.045
309
GRIDFORMAT_END
 95
       32
302
GRIDFORMAT
  1
GRIDFORMAT_BEGIN
 90
        0
 91
        1
 62
     0
 92
       -2
340
14
 93
        0
 40
0.045
309
GRIDFORMAT_END
309
TABLEFORMAT_END
  1
CELLSTYLE_BEGIN
 90
        1
 91
        1
300
_TITLE
309
CELLSTYLE_END
300
CELLSTYLE
  1
TABLEFORMAT_BEGIN
 90
        5
170
     1
 91
        0
 92
        0
 62
   257
 93
        1
300
CONTENTFORMAT
  1
CONTENTFORMAT_BEGIN
 90
        0
 91
        0
 92
        4
 93
        0
300

 40
0.0
140
1.0
 94
        5
 62
     0
340
11
144
4.5
309
CONTENTFORMAT_END
171
     1
301
MARGIN
  1
CELLMARGIN_BEGIN
 40
1.5
 40
1.5
 40
1.5
 40
1.5
 40
1.5
 40
1.5
309
CELLMARGIN_END
 94
        6
 95
        1
302
GRIDFORMAT
  1
GRIDFORMAT_BEGIN
 90
        0
 91
        1
 62
     0
 92
       -2
340
14
 93
        0
 40
0.045
309
GRIDFORMAT_END
 95
        2
302
GRIDFORMAT
  1
GRIDFORMAT_BEGIN
 90
        0
 91
        1
 62
     0
 92
       -2
340
14
 93
        0
 40
0.045
309
GRIDFORMAT_END
 95
        4
302
GRIDFORMAT
  1
GRIDFORMAT_BEGIN
 90
        0
 91
        1
 62
     0
 92
       -2
340
14
 93
        0
 40
0.045
309
GRIDFORMAT_END
 95
        8
302
GRIDFORMAT
  1
GRIDFORMAT_BEGIN
 90
        0
 91
        1
 62
     0
 92
       -2
340
14
 93
        0
 40
0.045
309
GRIDFORMAT_END
 95
       16
302
GRIDFORMAT
  1
GRIDFORMAT_BEGIN
 90
        0
 91
        1
 62
     0
 92
       -2
340
14
 93
        0
 40
0.045
309
GRIDFORMAT_END
 95
       32
302
GRIDFORMAT
  1
GRIDFORMAT_BEGIN
 90
        0
 91
        1
 62
     0
 92
       -2
340
14
 93
        0
 40
0.045
309
GRIDFORMAT_END
309
TABLEFORMAT_END
  1
CELLSTYLE_BEGIN
 90
        2
 91
        1
300
_HEADER
309
CELLSTYLE_END
300
CELLSTYLE
  1
TABLEFORMAT_BEGIN
 90
        5
170
     1
 91
        0
 92
        0
 62
   257
 93
        1
300
CONTENTFORMAT
  1
CONTENTFORMAT_BEGIN
 90
        0
 91
        0
 92
        4
 93
        0
300

 40
0.0
140
1.0
 94
        2
 62
     0
340
11
144
4.5
309
CONTENTFORMAT_END
171
     1
301
MARGIN
  1
CELLMARGIN_BEGIN
 40
1.5
 40
1.5
 40
1.5
 40
1.5
 40
1.5
 40
1.5
309
CELLMARGIN_END
 94
        6
 95
        1
302
GRIDFORMAT
  1
GRIDFORMAT_BEGIN
 90
        0
 91
        1
 62
     0
 92
       -2
340
14
 93
        0
 40
0.045
309
GRIDFORMAT_END
 95
        2
302
GRIDFORMAT
  1
GRIDFORMAT_BEGIN
 90
        0
 91
        1
 62
     0
 92
       -2
340
14
 93
        0
 40
0.045
309
GRIDFORMAT_END
 95
        4
302
GRIDFORMAT
  1
GRIDFORMAT_BEGIN
 90
        0
 91
        1
 62
     0
 92
       -2
340
14
 93
        0
 40
0.045
309
GRIDFORMAT_END
 95
        8
302
GRIDFORMAT
  1
GRIDFORMAT_BEGIN
 90
        0
 91
        1
 62
     0
 92
       -2
340
14
 93
        0
 40
0.045
309
GRIDFORMAT_END
 95
       16
302
GRIDFORMAT
  1
GRIDFORMAT_BEGIN
 90
        0
 91
        1
 62
     0
 92
       -2
340
14
 93
        0
 40
0.045
309
GRIDFORMAT_END
 95
       32
302
GRIDFORMAT
  1
GRIDFORMAT_BEGIN
 90
        0
 91
        1
 62
     0
 92
       -2
340
14
 93
        0
 40
0.045
309
GRIDFORMAT_END
309
TABLEFORMAT_END
  1
CELLSTYLE_BEGIN
 90
        3
 91
        2
300
_DATA
309
CELLSTYLE_END
  0
ENDSEC
  0
EOF
