  0
SECTION
  2
HEADER
  9
$ACADVER
  1
AC1027
  9
$ACADMAINTVER
 70
   105
  9
$DWGCODEPAGE
  3
ANSI_1252
  9
$LASTSAVEDBY
  1
Nick
  9
$REQUIREDVERSIONS
160
                 0
  9
$INSBASE
 10
0.0
 20
0.0
 30
0.0
  9
$EXTMIN
 10
0.0
 20
0.0
 30
0.0
  9
$EXTMAX
 10
420.0
 20
297.0
 30
0.0
  9
$LIMMIN
 10
0.0
 20
0.0
  9
$LIMMAX
 10
420.0
 20
297.0
  9
$ORTHOMODE
 70
     0
  9
$REGENMODE
 70
     1
  9
$FILLMODE
 70
     1
  9
$QTEXTMODE
 70
     0
  9
$MIRRTEXT
 70
     1
  9
$LTSCALE
 40
1.0
  9
$ATTMODE
 70
     1
  9
$TEXTSIZE
 40
4.2333333333
  9
$TRACEWID
 40
1.0
  9
$TEXTSTYLE
  7
Standard
  9
$CLAYER
  8
0
  9
$CELTYPE
  6
ByLayer
  9
$CECOLOR
 62
   256
  9
$CELTSCALE
 40
1.0
  9
$DISPSILH
 70
     0
  9
$DIMSCALE
 40
1.0
  9
$DIMASZ
 40
3.302
  9
$DIMEXO
 40
1.0
  9
$DIMDLI
 40
3.75
  9
$DIMRND
 40
0.0
  9
$DIMDLE
 40
0.0
  9
$DIMEXE
 40
1.0
  9
$DIMTP
 40
0.0
  9
$DIMTM
 40
0.0
  9
$DIMTXT
 40
4.2333333333
  9
$DIMCEN
 40
2.5
  9
$DIMTSZ
 40
0.0
  9
$DIMTOL
 70
     0
  9
$DIMLIM
 70
     0
  9
$DIMTIH
 70
     1
  9
$DIMTOH
 70
     1
  9
$DIMSE1
 70
     0
  9
$DIMSE2
 70
     0
  9
$DIMTAD
 70
     1
  9
$DIMZIN
 70
     1
  9
$DIMBLK
  1

  9
$DIMASO
 70
     1
  9
$DIMSHO
 70
     1
  9
$DIMPOST
  1

  9
$DIMAPOST
  1

  9
$DIMALT
 70
     0
  9
$DIMALTD
 70
     3
  9
$DIMALTF
 40
0.0393700787
  9
$DIMLFAC
 40
1.0
  9
$DIMTOFL
 70
     1
  9
$DIMTVP
 40
0.0
  9
$DIMTIX
 70
     0
  9
$DIMSOXD
 70
     0
  9
$DIMSAH
 70
     0
  9
$DIMBLK1
  1

  9
$DIMBLK2
  1

  9
$DIMSTYLE
  2
ISO-25
  9
$DIMCLRD
 70
     0
  9
$DIMCLRE
 70
     0
  9
$DIMCLRT
 70
     0
  9
$DIMTFAC
 40
1.0
  9
$DIMGAP
 40
1.524
  9
$DIMJUST
 70
     0
  9
$DIMSD1
 70
     0
  9
$DIMSD2
 70
     0
  9
$DIMTOLJ
 70
     0
  9
$DIMTZIN
 70
     1
  9
$DIMALTZ
 70
     0
  9
$DIMALTTZ
 70
     0
  9
$DIMUPT
 70
     0
  9
$DIMDEC
 70
     0
  9
$DIMTDEC
 70
     0
  9
$DIMALTU
 70
     2
  9
$DIMALTTD
 70
     3
  9
$DIMTXSTY
  7
Standard
  9
$DIMAUNIT
 70
     0
  9
$DIMADEC
 70
     2
  9
$DIMALTRND
 40
0.0
  9
$DIMAZIN
 70
     0
  9
$DIMDSEP
 70
    44
  9
$DIMATFIT
 70
     3
  9
$DIMFRAC
 70
     0
  9
$DIMLDRBLK
  1

  9
$DIMLUNIT
 70
     2
  9
$DIMLWD
 70
    -2
  9
$DIMLWE
 70
    -2
  9
$DIMTMOVE
 70
     0
  9
$DIMFXL
 40
1.0
  9
$DIMFXLON
 70
     0
  9
$DIMJOGANG
 40
0.7853981634
  9
$DIMTFILL
 70
     0
  9
$DIMTFILLCLR
 70
     0
  9
$DIMARCSYM
 70
     0
  9
$DIMLTYPE
  6

  9
$DIMLTEX1
  6

  9
$DIMLTEX2
  6

  9
$DIMTXTDIRECTION
 70
     0
  9
$LUNITS
 70
     2
  9
$LUPREC
 70
     0
  9
$SKETCHINC
 40
1.0
  9
$FILLETRAD
 40
0.0
  9
$AUNITS
 70
     0
  9
$AUPREC
 70
     2
  9
$MENU
  1
.
  9
$ELEVATION
 40
0.0
  9
$PELEVATION
 40
0.0
  9
$THICKNESS
 40
0.0
  9
$LIMCHECK
 70
     0
  9
$CHAMFERA
 40
0.0
  9
$CHAMFERB
 40
0.0
  9
$CHAMFERC
 40
0.0
  9
$CHAMFERD
 40
0.0
  9
$SKPOLY
 70
     0
  9
$TDCREATE
 40
2460934.574042373
  9
$TDUCREATE
 40
2460934.157375706
  9
$TDUPDATE
 40
2460934.574042616
  9
$TDUUPDATE
 40
2460934.157375949
  9
$TDINDWG
 40
0.0000000116
  9
$TDUSRTIMER
 40
0.0000000116
  9
$USRTIMER
 70
     1
  9
$ANGBASE
 50
0.0
  9
$ANGDIR
 70
     0
  9
$PDMODE
 70
     0
  9
$PDSIZE
 40
-1.0
  9
$PLINEWID
 40
0.0
  9
$SPLFRAME
 70
     0
  9
$SPLINETYPE
 70
     6
  9
$SPLINESEGS
 70
     8
  9
$HANDSEED
  5
106
  9
$SURFTAB1
 70
     6
  9
$SURFTAB2
 70
     6
  9
$SURFTYPE
 70
     6
  9
$SURFU
 70
     6
  9
$SURFV
 70
     6
  9
$UCSBASE
  2

  9
$UCSNAME
  2

  9
$UCSORG
 10
0.0
 20
0.0
 30
0.0
  9
$UCSXDIR
 10
1.0
 20
0.0
 30
0.0
  9
$UCSYDIR
 10
0.0
 20
1.0
 30
0.0
  9
$UCSORTHOREF
  2

  9
$UCSORTHOVIEW
 70
     0
  9
$UCSORGTOP
 10
0.0
 20
0.0
 30
0.0
  9
$UCSORGBOTTOM
 10
0.0
 20
0.0
 30
0.0
  9
$UCSORGLEFT
 10
0.0
 20
0.0
 30
0.0
  9
$UCSORGRIGHT
 10
0.0
 20
0.0
 30
0.0
  9
$UCSORGFRONT
 10
0.0
 20
0.0
 30
0.0
  9
$UCSORGBACK
 10
0.0
 20
0.0
 30
0.0
  9
$PUCSBASE
  2

  9
$PUCSNAME
  2

  9
$PUCSORG
 10
0.0
 20
0.0
 30
0.0
  9
$PUCSXDIR
 10
1.0
 20
0.0
 30
0.0
  9
$PUCSYDIR
 10
0.0
 20
1.0
 30
0.0
  9
$PUCSORTHOREF
  2

  9
$PUCSORTHOVIEW
 70
     0
  9
$PUCSORGTOP
 10
0.0
 20
0.0
 30
0.0
  9
$PUCSORGBOTTOM
 10
0.0
 20
0.0
 30
0.0
  9
$PUCSORGLEFT
 10
0.0
 20
0.0
 30
0.0
  9
$PUCSORGRIGHT
 10
0.0
 20
0.0
 30
0.0
  9
$PUCSORGFRONT
 10
0.0
 20
0.0
 30
0.0
  9
$PUCSORGBACK
 10
0.0
 20
0.0
 30
0.0
  9
$USERI1
 70
     0
  9
$USERI2
 70
     0
  9
$USERI3
 70
     0
  9
$USERI4
 70
     0
  9
$USERI5
 70
     0
  9
$USERR1
 40
0.0
  9
$USERR2
 40
0.0
  9
$USERR3
 40
0.0
  9
$USERR4
 40
0.0
  9
$USERR5
 40
0.0
  9
$WORLDVIEW
 70
     1
  9
$SHADEDGE
 70
     3
  9
$SHADEDIF
 70
    70
  9
$TILEMODE
 70
     1
  9
$MAXACTVP
 70
    64
  9
$PINSBASE
 10
0.0
 20
0.0
 30
0.0
  9
$PLIMCHECK
 70
     0
  9
$PEXTMIN
 10
1.0000000000E+20
 20
1.0000000000E+20
 30
1.0000000000E+20
  9
$PEXTMAX
 10
-1.0000000000E+20
 20
-1.0000000000E+20
 30
-1.0000000000E+20
  9
$PLIMMIN
 10
0.0
 20
0.0
  9
$PLIMMAX
 10
420.0
 20
297.0
  9
$UNITMODE
 70
     0
  9
$VISRETAIN
 70
     1
  9
$PLINEGEN
 70
     0
  9
$PSLTSCALE
 70
     1
  9
$TREEDEPTH
 70
  3020
  9
$CMLSTYLE
  2
Standard
  9
$CMLJUST
 70
     0
  9
$CMLSCALE
 40
20.0
  9
$PROXYGRAPHICS
 70
     1
  9
$MEASUREMENT
 70
     1
  9
$CELWEIGHT
370
    -1
  9
$ENDCAPS
280
     0
  9
$JOINSTYLE
280
     0
  9
$LWDISPLAY
290
     1
  9
$INSUNITS
 70
     4
  9
$HYPERLINKBASE
  1

  9
$STYLESHEET
  1

  9
$XEDIT
290
     1
  9
$CEPSNTYPE
380
     0
  9
$PSTYLEMODE
290
     1
  9
$FINGERPRINTGUID
  2
{d9711ad7-c066-4b57-8565-3ed44f066003}
  9
$VERSIONGUID
  2
{FAEB1C32-E019-11D5-929B-00C0DF256EC4}
  9
$EXTNAMES
290
     1
  9
$PSVPSCALE
 40
0.0
  9
$OLESTARTUP
290
     0
  9
$SORTENTS
280
   127
  9
$INDEXCTL
280
     0
  9
$HIDETEXT
280
     1
  9
$XCLIPFRAME
280
     2
  9
$HALOGAP
280
     0
  9
$OBSCOLOR
 70
   257
  9
$OBSLTYPE
280
     0
  9
$INTERSECTIONDISPLAY
280
     0
  9
$INTERSECTIONCOLOR
 70
   257
  9
$DIMASSOC
280
     2
  9
$PROJECTNAME
  1

  9
$CAMERADISPLAY
290
     0
  9
$LENSLENGTH
 40
50.0
  9
$CAMERAHEIGHT
 40
0.0
  9
$STEPSPERSEC
 40
2.0
  9
$STEPSIZE
 40
6.0
  9
$3DDWFPREC
 40
2.0
  9
$PSOLWIDTH
 40
5.0
  9
$PSOLHEIGHT
 40
80.0
  9
$LOFTANG1
 40
1.5707963268
  9
$LOFTANG2
 40
1.5707963268
  9
$LOFTMAG1
 40
0.0
  9
$LOFTMAG2
 40
0.0
  9
$LOFTPARAM
 70
     7
  9
$LOFTNORMALS
280
     1
  9
$LATITUDE
 40
37.795
  9
$LONGITUDE
 40
-122.394
  9
$NORTHDIRECTION
 40
0.0
  9
$TIMEZONE
 70
 -8000
  9
$LIGHTGLYPHDISPLAY
280
     1
  9
$TILEMODELIGHTSYNCH
280
     1
  9
$CMATERIAL
347
44
  9
$SOLIDHIST
280
     0
  9
$SHOWHIST
280
     1
  9
$DWFFRAME
280
     2
  9
$DGNFRAME
280
     2
  9
$REALWORLDSCALE
290
     1
  9
$INTERFERECOLOR
 62
   256
  9
$CSHADOW
280
     0
  9
$SHADOWPLANELOCATION
 40
0.0
  0
ENDSEC
  0
SECTION
  2
CLASSES
  0
CLASS
  1
ACDBDICTIONARYWDFLT
  2
AcDbDictionaryWithDefault
  3
ObjectDBX Classes
 90
        0
 91
        3
280
     0
281
     0
  0
CLASS
  1
VISUALSTYLE
  2
AcDbVisualStyle
  3
ObjectDBX Classes
 90
     4095
 91
        3
280
     0
281
     0
  0
CLASS
  1
MATERIAL
  2
AcDbMaterial
  3
ObjectDBX Classes
 90
     1153
 91
        3
280
     0
281
     0
  0
CLASS
  1
SCALE
  2
AcDbScale
  3
ObjectDBX Classes
 90
     1153
 91
        3
280
     0
281
     0
  0
CLASS
  1
TABLESTYLE
  2
AcDbTableStyle
  3
ObjectDBX Classes
 90
     4095
 91
        3
280
     0
281
     0
  0
CLASS
  1
MLEADERSTYLE
  2
AcDbMLeaderStyle
  3
ACDB_MLEADERSTYLE_CLASS
 90
     4095
 91
        3
280
     0
281
     0
  0
CLASS
  1
SUN
  2
AcDbSun
  3
SCENEOE
 90
     1153
 91
        3
280
     0
281
     0
  0
CLASS
  1
DICTIONARYVAR
  2
AcDbDictionaryVar
  3
ObjectDBX Classes
 90
        0
 91
        3
280
     0
281
     0
  0
CLASS
  1
CELLSTYLEMAP
  2
AcDbCellStyleMap
  3
ObjectDBX Classes
 90
     1152
 91
        3
280
     0
281
     0
  0
ENDSEC
  0
SECTION
  2
TABLES
  0
TABLE
  2
VPORT
  5
8
330
0
100
AcDbSymbolTable
 70
     1
  0
VPORT
  5
29
330
8
100
AcDbSymbolTableRecord
100
AcDbViewportTableRecord
  2
*Active
 70
     0
 10
0.0
 20
0.0
 11
1.0
 21
1.0
 12
210.0
 22
148.5
 13
0.0
 23
0.0
 14
10.0
 24
10.0
 15
10.0
 25
10.0
 16
0.0
 26
0.0
 36
1.0
 17
0.0
 27
0.0
 37
0.0
 40
297.0
 41
1.4141414141
 42
50.0
 43
0.0
 44
0.0
 50
0.0
 51
0.0
 71
     0
 72
  2000
 73
     1
 74
     3
 75
     0
 76
     0
 77
     0
 78
     0
281
     0
 65
     1
110
0.0
120
0.0
130
0.0
111
1.0
121
0.0
131
0.0
112
0.0
122
1.0
132
0.0
 79
     0
146
0.0
348
2F
 60
     3
 61
     5
292
     1
282
     1
141
0.0
142
0.0
 63
   250
361
5D
  0
ENDTAB
  0
TABLE
  2
LTYPE
  5
5
330
0
100
AcDbSymbolTable
 70
     6
  0
LTYPE
  5
14
330
5
100
AcDbSymbolTableRecord
100
AcDbLinetypeTableRecord
  2
ByBlock
 70
     0
  3

 72
    65
 73
     0
 40
0.0
  0
LTYPE
  5
15
330
5
100
AcDbSymbolTableRecord
100
AcDbLinetypeTableRecord
  2
ByLayer
 70
     0
  3

 72
    65
 73
     0
 40
0.0
  0
LTYPE
  5
16
330
5
100
AcDbSymbolTableRecord
100
AcDbLinetypeTableRecord
  2
Continuous
 70
     0
  3
Solid line
 72
    65
 73
     0
 40
0.0
  0
LTYPE
  5
5E
330
5
100
AcDbSymbolTableRecord
100
AcDbLinetypeTableRecord
  2
HIDDEN
 70
     0
  3
Hidden __ __ __ __ __ __ __ __ __ __ __ __ __ __
 72
    65
 73
     2
 40
1.905
 49
1.27
 74
     0
 49
-0.635
 74
     0
  0
LTYPE
  5
5F
330
5
100
AcDbSymbolTableRecord
100
AcDbLinetypeTableRecord
  2
PHANTOM
 70
     0
  3
Phantom ______  __  __  ______  __  __  ______
 72
    65
 73
     6
 40
12.7
 49
6.35
 74
     0
 49
-1.27
 74
     0
 49
1.27
 74
     0
 49
-1.27
 74
     0
 49
1.27
 74
     0
 49
-1.27
 74
     0
  0
LTYPE
  5
60
330
5
100
AcDbSymbolTableRecord
100
AcDbLinetypeTableRecord
  2
CENTER
 70
     0
  3
Center ____ _ ____ _ ____ _ ____ _ ____ _ ____
 72
    65
 73
     4
 40
10.16
 49
6.35
 74
     0
 49
-1.27
 74
     0
 49
1.27
 74
     0
 49
-1.27
 74
     0
  0
LTYPE
  5
61
330
5
100
AcDbSymbolTableRecord
100
AcDbLinetypeTableRecord
  2
CENTERX2
 70
     0
  3
Center (2x) ________  __  ________  __  _____
 72
    65
 73
     4
 40
20.32
 49
12.7
 74
     0
 49
-2.54
 74
     0
 49
2.54
 74
     0
 49
-2.54
 74
     0
  0
LTYPE
  5
62
330
5
100
AcDbSymbolTableRecord
100
AcDbLinetypeTableRecord
  2
DOT2
 70
     0
  3
Dot (.5x) ........................................
 72
    65
 73
     2
 40
0.635
 49
0.0
 74
     0
 49
-0.635
 74
     0
  0
ENDTAB
  0
TABLE
  2
LAYER
  5
2
330
0
100
AcDbSymbolTable
 70
    13
  0
LAYER
  5
10
330
2
100
AcDbSymbolTableRecord
100
AcDbLayerTableRecord
  2
0
 70
     0
 62
     7
  6
Continuous
370
    -3
390
F
347
46
348
0
  0
LAYER
  5
63
330
2
100
AcDbSymbolTableRecord
100
AcDbLayerTableRecord
  2
DRAWING-SHEET
 70
     0
 62
   179
  6
Continuous
370
    -3
390
F
347
46
348
0
  0
LAYER
  5
64
330
2
100
AcDbSymbolTableRecord
100
AcDbLayerTableRecord
  2
BORDER
 70
     0
 62
   179
  6
Continuous
370
    -3
390
F
347
46
348
0
  0
LAYER
  5
65
330
2
100
AcDbSymbolTableRecord
100
AcDbLayerTableRecord
  2
DIMENSIONS
 70
     0
 62
     7
  6
Continuous
370
    -3
390
F
347
46
348
0
  0
LAYER
  5
66
330
2
100
AcDbSymbolTableRecord
100
AcDbLayerTableRecord
  2
CENTRE_LINES
 70
     0
 62
     7
  6
Continuous
370
    -3
390
F
347
46
348
0
  0
LAYER
  5
67
330
2
100
AcDbSymbolTableRecord
100
AcDbLayerTableRecord
  2
FORMAT
 70
     0
 62
     7
  6
Continuous
370
    -3
390
F
347
46
348
0
  0
LAYER
  5
68
330
2
100
AcDbSymbolTableRecord
100
AcDbLayerTableRecord
  2
SLD-0
 70
     0
 62
   179
  6
Continuous
370
    -3
390
F
347
46
348
0
  0
LAYER
  5
69
330
2
100
AcDbSymbolTableRecord
100
AcDbLayerTableRecord
  2
OUTLINE
 70
     0
 62
     4
  6
Continuous
370
    -3
390
F
347
46
348
0
  0
LAYER
  5
6A
330
2
100
AcDbSymbolTableRecord
100
AcDbLayerTableRecord
  2
4
 70
     0
 62
     7
  6
Continuous
370
    70
390
F
347
46
348
0
  0
LAYER
  5
6B
330
2
100
AcDbSymbolTableRecord
100
AcDbLayerTableRecord
  2
TEXT25
 70
     0
 62
   179
  6
Continuous
370
    -3
390
F
347
46
348
0
  0
LAYER
  5
6C
330
2
100
AcDbSymbolTableRecord
100
AcDbLayerTableRecord
  2
TEXT35
 70
     0
 62
     7
  6
Continuous
370
    -3
390
F
347
46
348
0
  0
LAYER
  5
6D
330
2
100
AcDbSymbolTableRecord
100
AcDbLayerTableRecord
  2
TEXT5
 70
     0
 62
     7
  6
Continuous
370
    -3
390
F
347
46
348
0
  0
LAYER
  5
6E
330
2
100
AcDbSymbolTableRecord
100
AcDbLayerTableRecord
  2
5
 70
     0
 62
     7
  6
Continuous
370
    35
390
F
347
46
348
0
  0
ENDTAB
  0
TABLE
  2
STYLE
  5
3
330
0
100
AcDbSymbolTable
 70
     3
  0
STYLE
  5
11
330
3
100
AcDbSymbolTableRecord
100
AcDbTextStyleTableRecord
  2
Standard
 70
     0
 40
0.0
 41
1.0
 50
0.0
 71
     0
 42
4.2333333333
  3
txt
  4

  0
STYLE
  5
75
330
3
100
AcDbSymbolTableRecord
100
AcDbTextStyleTableRecord
  2
SLDTEXTSTYLE0
 70
     0
 40
0.0
 41
0.75
 50
0.0
 71
     0
 42
4.2333333333
  3
TXT
  4

  0
STYLE
  5
7B
330
3
100
AcDbSymbolTableRecord
100
AcDbTextStyleTableRecord
  2
SLDTEXTSTYLE1
 70
     0
 40
0.0
 41
0.6
 50
0.0
 71
     0
 42
4.2333333333
  3
TXT
  4

  0
ENDTAB
  0
TABLE
  2
VIEW
  5
6
330
0
100
AcDbSymbolTable
 70
     0
  0
ENDTAB
  0
TABLE
  2
UCS
  5
7
330
0
100
AcDbSymbolTable
 70
     0
  0
ENDTAB
  0
TABLE
  2
APPID
  5
9
330
0
100
AcDbSymbolTable
 70
     1
  0
APPID
  5
12
330
9
100
AcDbSymbolTableRecord
100
AcDbRegAppTableRecord
  2
ACAD
 70
     0
  0
ENDTAB
  0
TABLE
  2
DIMSTYLE
  5
A
330
0
100
AcDbSymbolTable
 70
     1
100
AcDbDimStyleTable
  0
DIMSTYLE
105
27
330
A
100
AcDbSymbolTableRecord
100
AcDbDimStyleTableRecord
  2
ISO-25
 70
     0
 41
2.5
 42
0.625
 43
3.75
 44
1.25
 73
     0
 74
     0
 77
     1
 78
     8
140
2.5
141
2.5
143
0.0393700787
147
0.625
171
     3
172
     1
178
     0
271
     2
272
     2
274
     3
278
    44
283
     0
284
     8
340
11
  0
ENDTAB
  0
TABLE
  2
BLOCK_RECORD
  5
1
330
0
100
AcDbSymbolTable
 70
     6
  0
BLOCK_RECORD
  5
1F
330
1
100
AcDbSymbolTableRecord
100
AcDbBlockTableRecord
  2
*Model_Space
340
22
 70
     0
280
     1
281
     0
  0
BLOCK_RECORD
  5
1B
330
1
100
AcDbSymbolTableRecord
100
AcDbBlockTableRecord
  2
*Paper_Space
340
1E
 70
     0
280
     1
281
     0
  0
BLOCK_RECORD
  5
23
330
1
100
AcDbSymbolTableRecord
100
AcDbBlockTableRecord
  2
*Paper_Space0
340
26
 70
     0
280
     1
281
     0
  0
BLOCK_RECORD
  5
6F
330
1
100
AcDbSymbolTableRecord
100
AcDbBlockTableRecord
  2
Block1
340
0
 70
     0
280
     1
281
     0
  0
BLOCK_RECORD
  5
72
330
1
100
AcDbSymbolTableRecord
100
AcDbBlockTableRecord
  2
SW_NOTE_0
340
0
102
{BLKREFS
331
77
102
}
 70
     0
280
     1
281
     0
  0
BLOCK_RECORD
  5
78
330
1
100
AcDbSymbolTableRecord
100
AcDbBlockTableRecord
  2
SW_NOTE_0_1
340
0
102
{BLKREFS
331
7D
102
}
 70
     0
280
     1
281
     0
  0
BLOCK_RECORD
  5
7E
330
1
100
AcDbSymbolTableRecord
100
AcDbBlockTableRecord
  2
SW_NOTE_0_2
340
0
102
{BLKREFS
331
82
102
}
 70
     0
280
     1
281
     0
  0
BLOCK_RECORD
  5
83
330
1
100
AcDbSymbolTableRecord
100
AcDbBlockTableRecord
  2
SW_NOTE_0_3
340
0
102
{BLKREFS
331
87
102
}
 70
     0
280
     1
281
     0
  0
ENDTAB
  0
ENDSEC
  0
SECTION
  2
BLOCKS
  0
BLOCK
  5
20
330
1F
100
AcDbEntity
  8
0
100
AcDbBlockBegin
  2
*Model_Space
 70
     0
 10
0.0
 20
0.0
 30
0.0
  3
*Model_Space
  1

  0
ENDBLK
  5
21
330
1F
100
AcDbEntity
  8
0
100
AcDbBlockEnd
  0
BLOCK
  5
1C
330
1B
100
AcDbEntity
 67
     1
  8
0
100
AcDbBlockBegin
  2
*Paper_Space
 70
     0
 10
0.0
 20
0.0
 30
0.0
  3
*Paper_Space
  1

  0
ENDBLK
  5
1D
330
1B
100
AcDbEntity
 67
     1
  8
0
100
AcDbBlockEnd
  0
BLOCK
  5
24
330
23
100
AcDbEntity
  8
0
100
AcDbBlockBegin
  2
*Paper_Space0
 70
     0
 10
0.0
 20
0.0
 30
0.0
  3
*Paper_Space0
  1

  0
ENDBLK
  5
25
330
23
100
AcDbEntity
  8
0
100
AcDbBlockEnd
  0
BLOCK
  5
70
330
6F
100
AcDbEntity
  8
0
100
AcDbBlockBegin
  2
Block1
 70
     0
 10
0.0
 20
0.0
 30
0.0
  3
Block1
  1

  0
INSERT
  5
77
330
6F
100
AcDbEntity
  8
0
  6
Continuous
 62
     7
370
     0
100
AcDbBlockReference
  2
SW_NOTE_0
 10
40.5248655077
 20
20.5912386523
 30
0.0
  0
INSERT
  5
7D
330
6F
100
AcDbEntity
  8
DRAWING-SHEET
 62
     7
100
AcDbBlockReference
  2
SW_NOTE_0_1
 10
3.556761253
 20
-0.3611706024
 30
0.0
  0
INSERT
  5
82
330
6F
100
AcDbEntity
  8
DRAWING-SHEET
 62
     7
100
AcDbBlockReference
  2
SW_NOTE_0_2
 10
7.9590819428
 20
3.0109637777
 30
0.0
  0
INSERT
  5
87
330
6F
100
AcDbEntity
  8
DRAWING-SHEET
 62
     7
100
AcDbBlockReference
  2
SW_NOTE_0_3
 10
0.0721004934
 20
6.5234823937
 30
0.0
  0
ENDBLK
  5
71
330
6F
100
AcDbEntity
  8
0
100
AcDbBlockEnd
  0
BLOCK
  5
73
330
72
100
AcDbEntity
  8
0
100
AcDbBlockBegin
  2
SW_NOTE_0
 70
     0
 10
0.0
 20
0.0
 30
0.0
  3
SW_NOTE_0
  1

  0
MTEXT
  5
76
330
72
100
AcDbEntity
  8
0
  6
Continuous
 62
     0
370
     0
100
AcDbMText
 10
0.0
 20
1.9336016097
 30
0.0
 40
1.5
 41
0.0
 46
0.0
 71
     1
 72
     1
  1
TITLE:
  7
SLDTEXTSTYLE0
 73
     1
 44
1.0
  0
ENDBLK
  5
74
330
72
100
AcDbEntity
  8
0
100
AcDbBlockEnd
  0
BLOCK
  5
79
330
78
100
AcDbEntity
  8
0
100
AcDbBlockBegin
  2
SW_NOTE_0_1
 70
     0
 10
0.0
 20
0.0
 30
0.0
  3
SW_NOTE_0_1
  1

  0
MTEXT
  5
7C
330
78
100
AcDbEntity
  8
DRAWING-SHEET
 62
     0
100
AcDbMText
 10
0.0
 20
2.7285267159
 30
0.0
 40
2.1166666667
 41
0.0
 46
0.0
 71
     1
 72
     1
  1
Email: roddyeng.com.au
  7
SLDTEXTSTYLE1
 73
     1
 44
1.0
  0
ENDBLK
  5
7A
330
78
100
AcDbEntity
  8
0
100
AcDbBlockEnd
  0
BLOCK
  5
7F
330
7E
100
AcDbEntity
  8
0
100
AcDbBlockBegin
  2
SW_NOTE_0_2
 70
     0
 10
0.0
 20
0.0
 30
0.0
  3
SW_NOTE_0_2
  1

  0
MTEXT
  5
81
330
7E
100
AcDbEntity
  8
DRAWING-SHEET
 62
     0
100
AcDbMText
 10
0.0
 20
2.7285267159
 30
0.0
 40
2.1166666667
 41
0.0
 46
0.0
 71
     1
 72
     1
  1
Ph: - 02 6947 4039
  7
SLDTEXTSTYLE1
 73
     1
 44
1.0
  0
ENDBLK
  5
80
330
7E
100
AcDbEntity
  8
0
100
AcDbBlockEnd
  0
BLOCK
  5
84
330
83
100
AcDbEntity
  8
0
100
AcDbBlockBegin
  2
SW_NOTE_0_3
 70
     0
 10
0.0
 20
0.0
 30
0.0
  3
SW_NOTE_0_3
  1

  0
MTEXT
  5
86
330
83
100
AcDbEntity
  8
DRAWING-SHEET
 62
     0
100
AcDbMText
 10
0.0
 20
2.7285267159
 30
0.0
 40
2.1166666667
 41
0.0
 46
0.0
 71
     1
 72
     1
  1
14 Waratah St TUMUT NSW 2720
  7
SLDTEXTSTYLE1
 73
     1
 44
1.0
  0
ENDBLK
  5
85
330
83
100
AcDbEntity
  8
0
100
AcDbBlockEnd
  0
ENDSEC
  0
SECTION
  2
ENTITIES
  0
LINE
  5
88
330
1F
100
AcDbEntity
  8
0
  6
Continuous
 62
     7
370
    25
100
AcDbLine
 10
921.7387254989
 20
851.8491971054
 30
0.0
 11
921.7387254989
 21
859.0286842849
 31
0.0
  0
LINE
  5
89
330
1F
100
AcDbEntity
  8
0
  6
Continuous
 62
     7
370
    25
100
AcDbLine
 10
922.4566742169
 20
851.8491971054
 30
0.0
 11
921.7387254989
 21
851.8491971054
 31
0.0
  0
LINE
  5
8A
330
1F
100
AcDbEntity
  8
0
  6
Continuous
 62
     7
370
    25
100
AcDbLine
 10
922.4566742169
 20
859.8491971054
 30
0.0
 11
922.4566742169
 21
851.8491971054
 31
0.0
  0
LINE
  5
8B
330
1F
100
AcDbEntity
  8
0
  6
Continuous
 62
     7
370
    25
100
AcDbLine
 10
920.9775075502
 20
859.8491971054
 30
0.0
 11
922.4566742169
 21
859.8491971054
 31
0.0
  0
LINE
  5
8C
330
1F
100
AcDbEntity
  8
0
  6
Continuous
 62
     7
370
    25
100
AcDbLine
 10
920.5079562681
 20
859.0286842849
 30
0.0
 11
920.9775075502
 21
859.8491971054
 31
0.0
  0
LINE
  5
8D
330
1F
100
AcDbEntity
  8
0
  6
Continuous
 62
     7
370
    25
100
AcDbLine
 10
921.7387254989
 20
859.0286842849
 30
0.0
 11
920.5079562681
 21
859.0286842849
 31
0.0
  0
SPLINE
  5
8E
330
1F
100
AcDbEntity
  8
0
  6
Continuous
 62
     7
370
    25
100
AcDbSpline
210
0.0
220
0.0
230
1.0
 70
     8
 71
     3
 72
    31
 73
    27
 74
     0
 42
0.00000001
 43
0.00000001
 40
0.0
 40
0.0
 40
0.0
 40
0.0
 40
0.0337881161627107
 40
0.0671939323738803
 40
0.0998624108568249
 40
0.1325666121262579
 40
0.1651511732547859
 40
0.1979131873557925
 40
0.2313190035669618
 40
0.2650832782673727
 40
0.2992553087581147
 40
0.3343985665049785
 40
0.3699428235093072
 40
0.4062835607000601
 40
0.4440638196985089
 40
0.4829977068727745
 40
0.5233544466133041
 40
0.5655365896041497
 40
0.6096129240658182
 40
0.6563908113764166
 40
0.7058854949364557
 40
0.7583245002617313
 40
0.8138317829411498
 40
0.8727945590393887
 40
0.9347222295400733
 40
1.0
 40
1.0
 40
1.0
 40
1.0
 10
928.1057126784046
 20
860.0543253105075
 30
0.0
 10
928.169336629226
 20
860.0532103043918
 30
0.0
 10
928.2958646495589
 20
860.0509929080391
 30
0.0
 10
928.4829283644068
 20
860.0296810393885
 30
0.0
 10
928.6656704940401
 20
859.9943184723099
 30
0.0
 10
928.8433119539338
 20
859.9442133875494
 30
0.0
 10
929.017311923003
 20
859.8820518408994
 30
0.0
 10
929.186309426193
 20
859.8041384303641
 30
0.0
 10
929.351354184232
 20
859.7134438764339
 30
0.0
 10
929.509823412849
 20
859.6068750140188
 30
0.0
 10
929.6634568193542
 20
859.4880583827119
 30
0.0
 10
929.8084807347191
 20
859.3537437111613
 30
0.0
 10
929.9449083596277
 20
859.205287209976
 30
0.0
 10
930.0744519147961
 20
859.0442772353779
 30
0.0
 10
930.1934361369658
 20
858.8676256129012
 30
0.0
 10
930.3067468392182
 20
858.6784047904689
 30
0.0
 10
930.4081686355648
 20
858.4733056709401
 30
0.0
 10
930.505847893116
 20
858.2557503158748
 30
0.0
 10
930.5901610056628
 20
858.0197190957454
 30
0.0
 10
930.6661981377138
 20
857.7665425002755
 30
0.0
 10
930.7276357801708
 20
857.4932300731821
 30
0.0
 10
930.7788112598008
 20
857.2012157982218
 30
0.0
 10
930.818456736248
 20
856.8894272651015
 30
0.0
 10
930.8473313467132
 20
856.558532829646
 30
0.0
 10
930.862584112522
 20
856.2083147938957
 30
0.0
 10
930.8654565724229
 20
855.9688682814908
 30
0.0
 10
930.8669306271225
 20
855.8459919771741
 30
0.0
  0
SPLINE
  5
8F
330
1F
100
AcDbEntity
  8
0
  6
Continuous
 62
     7
370
    25
100
AcDbSpline
210
0.0
220
0.0
230
1.0
 70
     8
 71
     3
 72
    31
 73
    27
 74
     0
 42
0.00000001
 43
0.00000001
 40
0.0
 40
0.0
 40
0.0
 40
0.0
 40
0.0685946222587427
 40
0.1332460424433001
 40
0.1943125864682572
 40
0.2512792231169662
 40
0.3045134392563468
 40
0.3542349066533261
 40
0.4004805887739902
 40
0.4434107549384919
 40
0.4840148686163452
 40
0.5232523007732023
 40
0.5610423727283603
 40
0.5979002393643994
 40
0.6335184888561964
 40
0.6683143511696525
 40
0.7024956712863812
 40
0.7366853535134581
 40
0.7702931693607891
 40
0.8034372550192488
 40
0.8359129516660291
 40
0.8684602457892907
 40
0.9008465382431827
 40
0.9334665246307081
 40
0.9662575752981233
 40
1.0
 40
1.0
 40
1.0
 40
1.0
 10
925.4310331912252
 20
855.8459919771741
 30
0.0
 10
925.4317829470136
 20
855.9742145777096
 30
0.0
 10
925.4332393584396
 20
856.2232888274182
 30
0.0
 10
925.4494414634504
 20
856.5862251521422
 30
0.0
 10
925.4763565315948
 20
856.9267058127027
 30
0.0
 10
925.5132419552526
 20
857.2447471065047
 30
0.0
 10
925.5581287671922
 20
857.5404311396882
 30
0.0
 10
925.6180498794238
 20
857.8129677274283
 30
0.0
 10
925.686193428258
 20
858.0636182568295
 30
0.0
 10
925.7651704472535
 20
858.2932000819176
 30
0.0
 10
925.8542853935811
 20
858.504806260254
 30
0.0
 10
925.9512779895173
 20
858.7023495774968
 30
0.0
 10
926.0599975196283
 20
858.8855311371307
 30
0.0
 10
926.1742304634618
 20
859.0572746580905
 30
0.0
 10
926.2986009128966
 20
859.2147688176157
 30
0.0
 10
926.4295695768218
 20
859.3602377605152
 30
0.0
 10
926.5722481511467
 20
859.490319475861
 30
0.0
 10
926.7217864557716
 20
859.6088253098842
 30
0.0
 10
926.8795383743814
 20
859.7127098165629
 30
0.0
 10
927.0410073255658
 20
859.8042132191132
 30
0.0
 10
927.2073047103794
 20
859.8823843442734
 30
0.0
 10
927.3788845570033
 20
859.9438481976666
 30
0.0
 10
927.5542046893224
 20
859.9946158474327
 30
0.0
 10
927.7338779846168
 20
860.0293334420534
 30
0.0
 10
927.9182011021855
 20
860.0511778043149
 30
0.0
 10
928.0426158102957
 20
860.053266187721
 30
0.0
 10
928.1057126784046
 20
860.0543253105075
 30
0.0
  0
SPLINE
  5
90
330
1F
100
AcDbEntity
  8
0
  6
Continuous
 62
     7
370
    25
100
AcDbSpline
210
0.0
220
0.0
230
1.0
 70
     8
 71
     3
 72
    31
 73
    27
 74
     0
 42
0.00000001
 43
0.00000001
 40
0.0
 40
0.0
 40
0.0
 40
0.0
 40
0.033787146346991
 40
0.0666216577242936
 40
0.0992848780959722
 40
0.1313611650426506
 40
0.1635851875953431
 40
0.1961039269870685
 40
0.2289022543238174
 40
0.2621580559050076
 40
0.2959912222583158
 40
0.3302178457247995
 40
0.3650598258919537
 40
0.4009507373401078
 40
0.4376203820767381
 40
0.4757075294370928
 40
0.5153806916250497
 40
0.5564135414931649
 40
0.5997648298727322
 40
0.6464241555840875
 40
0.6964314445175676
 40
0.7497815178015586
 40
0.8065733069755331
 40
0.8674355315654003
 40
0.9318867532508747
 40
0.9999999999999999
 40
0.9999999999999999
 40
0.9999999999999999
 40
0.9999999999999999
 10
928.1057126784046
 20
851.6440689002511
 30
0.0
 10
928.042617560724
 20
851.6451348555855
 30
0.0
 10
927.9182063041171
 20
851.6472367114425
 30
0.0
 10
927.7338579031127
 20
851.6689823834155
 30
0.0
 10
927.5549266038214
 20
851.7039435336151
 30
0.0
 10
927.3805294517355
 20
851.7528957715376
 30
0.0
 10
927.2097717029728
 20
851.8128153974016
 30
0.0
 10
927.0449801906167
 20
851.8908809599226
 30
0.0
 10
926.8843226278951
 20
851.9807874032506
 30
0.0
 10
926.7282276427109
 20
852.0831769379666
 30
0.0
 10
926.579628417477
 20
852.2004836422601
 30
0.0
 10
926.4376887481882
 20
852.3302305878292
 30
0.0
 10
926.3059744188238
 20
852.4756555279375
 30
0.0
 10
926.1833822002699
 20
852.6344622093266
 30
0.0
 10
926.0668699986796
 20
852.8051896203729
 30
0.0
 10
925.9596942882356
 20
852.9901687587625
 30
0.0
 10
925.8605609075086
 20
853.1886661541672
 30
0.0
 10
925.769947214552
 20
853.4019642357104
 30
0.0
 10
925.6896074122321
 20
853.6331754993898
 30
0.0
 10
925.6186412222587
 20
853.8849450502527
 30
0.0
 10
925.562608862327
 20
854.1594950756562
 30
0.0
 10
925.5146478215662
 20
854.4546204861828
 30
0.0
 10
925.4759635174668
 20
854.7715894699219
 30
0.0
 10
925.4495536310247
 20
855.1105741057776
 30
0.0
 10
925.4332306252287
 20
855.4713631547517
 30
0.0
 10
925.4317790356971
 20
855.7188369246182
 30
0.0
 10
925.4310331912252
 20
855.8459919771741
 30
0.0
  0
SPLINE
  5
91
330
1F
100
AcDbEntity
  8
0
  6
Continuous
 62
     7
370
    25
100
AcDbSpline
210
0.0
220
0.0
230
1.0
 70
     8
 71
     3
 72
    31
 73
    27
 74
     0
 42
0.00000001
 43
0.00000001
 40
0.0
 40
0.0
 40
0.0
 40
0.0
 40
0.0650632896172783
 40
0.1267731664665233
 40
0.1855157632260795
 40
0.2407646791677157
 40
0.292979796023599
 40
0.342250372779768
 40
0.3889192861856595
 40
0.4327756640583106
 40
0.4746284326311175
 40
0.5147746906379524
 40
0.553605893498442
 40
0.5914264064311742
 40
0.6280281199460676
 40
0.66380363411032
 40
0.6989843361316637
 40
0.7335914893067051
 40
0.7676284691511392
 40
0.801208347786592
 40
0.834263839726623
 40
0.866980694728776
 40
0.8997197415181601
 40
0.9327019124985377
 40
0.9661758834327493
 40
1.0
 40
1.0
 40
1.0
 40
1.0
 10
930.8669306271225
 20
855.8459919771741
 30
0.0
 10
930.8654412910222
 20
855.7236516161664
 30
0.0
 10
930.8625393803674
 20
855.4852764119177
 30
0.0
 10
930.8475023363269
 20
855.1366341826152
 30
0.0
 10
930.8178826079184
 20
854.8074957979328
 30
0.0
 10
930.7808312060697
 20
854.4970718837415
 30
0.0
 10
930.7295147192733
 20
854.2066544692661
 30
0.0
 10
930.6664171964131
 20
853.9352385870537
 30
0.0
 10
930.5963593156778
 20
853.6816521375329
 30
0.0
 10
930.5098797862839
 20
853.4479725681387
 30
0.0
 10
930.4152267340618
 20
853.2309400587335
 30
0.0
 10
930.312243428518
 20
853.0282722911227
 30
0.0
 10
930.201912397465
 20
852.838177907855
 30
0.0
 10
930.0817095517438
 20
852.662178486298
 30
0.0
 10
929.9535874644376
 20
852.4990272701315
 30
0.0
 10
929.8148039471965
 20
852.3516041326423
 30
0.0
 10
929.6692711812491
 20
852.2163568824408
 30
0.0
 10
929.515185659343
 20
852.0960103053844
 30
0.0
 10
929.3542449708123
 20
851.9906736090728
 30
0.0
 10
929.1897670806983
 20
851.896470522472
 30
0.0
 10
929.0188336330474
 20
851.8205100766437
 30
0.0
 10
928.8453183125229
 20
851.7552871258375
 30
0.0
 10
928.6667391899744
 20
851.7054575215262
 30
0.0
 10
928.4833188683984
 20
851.6710029946221
 30
0.0
 10
928.2959903291329
 20
851.6468387695826
 30
0.0
 10
928.1693581803758
 20
851.6449953870105
 30
0.0
 10
928.1057126784046
 20
851.6440689002511
 30
0.0
  0
LINE
  5
92
330
1F
100
AcDbEntity
  8
0
  6
Continuous
 62
     7
370
    25
100
AcDbLine
 10
944.4470588323
 20
851.8491971054
 30
0.0
 11
939.1746229348
 21
858.1312483874
 31
0.0
  0
LINE
  5
93
330
1F
100
AcDbEntity
  8
0
  6
Continuous
 62
     7
370
    25
100
AcDbLine
 10
944.6105203707
 20
851.8491971054
 30
0.0
 11
944.4470588323
 21
851.8491971054
 31
0.0
  0
LINE
  5
94
330
1F
100
AcDbEntity
  8
0
  6
Continuous
 62
     7
370
    25
100
AcDbLine
 10
944.6105203707
 20
859.8491971054
 30
0.0
 11
944.6105203707
 21
851.8491971054
 31
0.0
  0
LINE
  5
95
330
1F
100
AcDbEntity
  8
0
  6
Continuous
 62
     7
370
    25
100
AcDbLine
 10
943.8925716528
 20
859.8491971054
 30
0.0
 11
944.6105203707
 21
859.8491971054
 31
0.0
  0
LINE
  5
96
330
1F
100
AcDbEntity
  8
0
  6
Continuous
 62
     7
370
    25
100
AcDbLine
 10
943.8925716528
 20
853.5527227464
 30
0.0
 11
943.8925716528
 21
859.8491971054
 31
0.0
  0
LINE
  5
97
330
1F
100
AcDbEntity
  8
0
  6
Continuous
 62
     7
370
    25
100
AcDbLine
 10
938.6073152425
 20
859.8491971054
 30
0.0
 11
943.8925716528
 21
853.5527227464
 31
0.0
  0
LINE
  5
98
330
1F
100
AcDbEntity
  8
0
  6
Continuous
 62
     7
370
    25
100
AcDbLine
 10
938.4566742169
 20
859.8491971054
 30
0.0
 11
938.6073152425
 21
859.8491971054
 31
0.0
  0
LINE
  5
99
330
1F
100
AcDbEntity
  8
0
  6
Continuous
 62
     7
370
    25
100
AcDbLine
 10
938.4566742169
 20
851.8491971054
 30
0.0
 11
938.4566742169
 21
859.8491971054
 31
0.0
  0
LINE
  5
9A
330
1F
100
AcDbEntity
  8
0
  6
Continuous
 62
     7
370
    25
100
AcDbLine
 10
939.1746229348
 20
851.8491971054
 30
0.0
 11
938.4566742169
 21
851.8491971054
 31
0.0
  0
LINE
  5
9B
330
1F
100
AcDbEntity
  8
0
  6
Continuous
 62
     7
370
    25
100
AcDbLine
 10
939.1746229348
 20
858.1312483874
 30
0.0
 11
939.1746229348
 21
851.8491971054
 31
0.0
  0
SPLINE
  5
9C
330
1F
100
AcDbEntity
  8
0
  6
Continuous
 62
     7
370
    25
100
AcDbSpline
210
0.0
220
0.0
230
1.0
 70
     8
 71
     3
 72
    23
 73
    19
 74
     0
 42
0.00000001
 43
0.00000001
 40
0.0
 40
0.0
 40
0.0
 40
0.0
 40
0.0611602766365183
 40
0.1203345577262035
 40
0.1781802550631265
 40
0.2352351259863656
 40
0.2926829614441807
 40
0.3511862482150805
 40
0.4104566095096924
 40
0.4717198544629949
 40
0.5337612027725894
 40
0.5957390238870951
 40
0.6578875151248839
 40
0.7212951802914616
 40
0.7868225145418892
 40
0.8546861538286845
 40
0.9254779862699963
 40
1.0
 40
1.0
 40
1.0
 40
1.0
 10
951.3797511399431
 20
854.1200304387127
 30
0.0
 10
951.3775183490326
 20
854.0419347310055
 30
0.0
 10
951.3731252703632
 20
853.888279238191
 30
0.0
 10
951.3407139062564
 20
853.6625532163613
 30
0.0
 10
951.28583594742
 20
853.4468390526748
 30
0.0
 10
951.2102447557294
 20
853.239741492208
 30
0.0
 10
951.1115880366474
 20
853.0416611848465
 30
0.0
 10
950.9915241181756
 20
852.8523737243058
 30
0.0
 10
950.8483662584663
 20
852.6737809686189
 30
0.0
 10
950.6882225580047
 20
852.5038984015263
 30
0.0
 10
950.5070519397449
 20
852.3511491733211
 30
0.0
 10
950.3115873570648
 20
852.2151132723352
 30
0.0
 10
950.0993671973079
 20
852.1032365589285
 30
0.0
 10
949.8738769252702
 20
852.0092570812077
 30
0.0
 10
949.6325870598663
 20
851.9374691990018
 30
0.0
 10
949.3765811001867
 20
851.8872461729462
 30
0.0
 10
949.1060798388496
 20
851.853406088378
 30
0.0
 10
948.9204575505947
 20
851.850623905761
 30
0.0
 10
948.8252639604559
 20
851.8491971053793
 30
0.0
  0
SPLINE
  5
9D
330
1F
100
AcDbEntity
  8
0
  6
Continuous
 62
     7
370
    25
100
AcDbSpline
210
0.0
220
0.0
230
1.0
 70
     8
 71
     3
 72
    19
 73
    15
 74
     0
 42
0.00000001
 43
0.00000001
 40
0.0
 40
0.0
 40
0.0
 40
0.0
 40
0.1060574933033972
 40
0.2029142570846103
 40
0.2903001653958373
 40
0.3702225656250404
 40
0.4463837207709711
 40
0.5213968999648266
 40
0.5982910828464565
 40
0.6761424688569256
 40
0.7555286995560201
 40
0.834887172457659
 40
0.9166460487466404
 40
1.0
 40
1.0
 40
1.0
 40
1.0
 10
949.839687037379
 20
856.1649022335845
 30
0.0
 10
949.9305680147385
 20
856.1300108074345
 30
0.0
 10
950.1044458373199
 20
856.0632548659604
 30
0.0
 10
950.34372815145
 20
855.9452309482529
 30
0.0
 10
950.5498877971555
 20
855.8168604102154
 30
0.0
 10
950.7245098451217
 20
855.6766733241726
 30
0.0
 10
950.8738530563597
 20
855.5255674709381
 30
0.0
 10
951.0042597799549
 20
855.3613272097991
 30
0.0
 10
951.1155314923226
 20
855.1818100489363
 30
0.0
 10
951.2108753176154
 20
854.9888876823937
 30
0.0
 10
951.2852724742468
 20
854.7845300404352
 30
0.0
 10
951.3409888270919
 20
854.5706539807841
 30
0.0
 10
951.3729144251166
 20
854.3480264260542
 30
0.0
 10
951.3774576051811
 20
854.1965169875662
 30
0.0
 10
951.3797511399431
 20
854.1200304387127
 30
0.0
  0
SPLINE
  5
9E
330
1F
100
AcDbEntity
  8
0
  6
Continuous
 62
     7
370
    25
100
AcDbSpline
210
0.0
220
0.0
230
1.0
 70
     8
 71
     3
 72
    15
 73
    11
 74
     0
 42
0.00000001
 43
0.00000001
 40
0.0
 40
0.0
 40
0.0
 40
0.0
 40
0.1305691070873113
 40
0.2565806086940817
 40
0.3805516168036832
 40
0.5036229172007111
 40
0.6257393231697916
 40
0.7475485819596281
 40
0.871766118564872
 40
1.0
 40
1.0
 40
1.0
 40
1.0
 10
950.7643665245586
 20
857.8668253105075
 30
0.0
 10
950.7618677395469
 20
857.7784766118151
 30
0.0
 10
950.7569573913522
 20
857.6048630871956
 30
0.0
 10
950.7100025128774
 20
857.3509336945473
 30
0.0
 10
950.636492413587
 20
857.109216622942
 30
0.0
 10
950.5343089869266
 20
856.8805940277032
 30
0.0
 10
950.4015044241881
 20
856.6702314833703
 30
0.0
 10
950.244113981525
 20
856.4764320181245
 30
0.0
 10
950.0542241472599
 20
856.3074010307074
 30
0.0
 10
949.9119538844304
 20
856.2129029677344
 30
0.0
 10
949.839687037379
 20
856.1649022335845
 30
0.0
  0
SPLINE
  5
9F
330
1F
100
AcDbEntity
  8
0
  6
Continuous
 62
     7
370
    25
100
AcDbSpline
210
0.0
220
0.0
230
1.0
 70
     8
 71
     3
 72
    23
 73
    19
 74
     0
 42
0.00000001
 43
0.00000001
 40
0.0
 40
0.0
 40
0.0
 40
0.0
 40
0.0625940971873315
 40
0.1213229386347493
 40
0.1766801421977652
 40
0.2283650957096748
 40
0.2768684458368067
 40
0.3218791276660453
 40
0.3640986251098912
 40
0.4033556962427007
 40
0.4779679481633707
 40
0.5505354613647757
 40
0.6235844567403224
 40
0.698174882264205
 40
0.7733536703408738
 40
0.8472811254977323
 40
0.9228183395566674
 40
1.0
 40
1.0
 40
1.0
 40
1.0
 10
948.2226998578918
 20
859.8491971053793
 30
0.0
 10
948.2991078080354
 20
859.8487953901754
 30
0.0
 10
948.4472054316615
 20
859.8480167661319
 30
0.0
 10
948.6625641558414
 20
859.8359410377959
 30
0.0
 10
948.8642757230198
 20
859.8194755066447
 30
0.0
 10
949.0523986312497
 20
859.7933495806009
 30
0.0
 10
949.2268459510007
 20
859.7618255185544
 30
0.0
 10
949.3881434075442
 20
859.7236499389193
 30
0.0
 10
949.5357780870147
 20
859.6778748219845
 30
0.0
 10
949.7120357702288
 20
859.6050833220245
 30
0.0
 10
949.912997280809
 20
859.4969160800823
 30
0.0
 10
950.1305936069873
 20
859.3370793597417
 30
0.0
 10
950.3166604398085
 20
859.1415765868952
 30
0.0
 10
950.4770863077878
 20
858.9210448030681
 30
0.0
 10
950.6046317240421
 20
858.6784487533515
 30
0.0
 10
950.6969044036209
 20
858.4195706075743
 30
0.0
 10
950.7553224044406
 20
858.1477494831869
 30
0.0
 10
950.7613302540769
 20
857.9611365051778
 30
0.0
 10
950.7643665245586
 20
857.8668253105075
 30
0.0
  0
LINE
  5
A0
330
1F
100
AcDbEntity
  8
0
  6
Continuous
 62
     7
370
    25
100
AcDbLine
 10
946.661802422
 20
859.8491971054
 30
0.0
 11
948.2226998579
 21
859.8491971054
 31
0.0
  0
LINE
  5
A1
330
1F
100
AcDbEntity
  8
0
  6
Continuous
 62
     7
370
    25
100
AcDbLine
 10
946.661802422
 20
851.8491971054
 30
0.0
 11
946.661802422
 21
859.8491971054
 31
0.0
  0
LINE
  5
A2
330
1F
100
AcDbEntity
  8
0
  6
Continuous
 62
     7
370
    25
100
AcDbLine
 10
948.8252639605
 20
851.8491971054
 30
0.0
 11
946.661802422
 21
851.8491971054
 31
0.0
  0
LINE
  5
A3
330
1F
100
AcDbEntity
  8
0
  6
Continuous
 62
     7
370
    25
100
AcDbLine
 10
969.2675716528
 20
851.8491971054
 30
0.0
 11
963.9951357553
 21
858.1312483874
 31
0.0
  0
LINE
  5
A4
330
1F
100
AcDbEntity
  8
0
  6
Continuous
 62
     7
370
    25
100
AcDbLine
 10
969.4310331912
 20
851.8491971054
 30
0.0
 11
969.2675716528
 21
851.8491971054
 31
0.0
  0
LINE
  5
A5
330
1F
100
AcDbEntity
  8
0
  6
Continuous
 62
     7
370
    25
100
AcDbLine
 10
969.4310331912
 20
859.8491971054
 30
0.0
 11
969.4310331912
 21
851.8491971054
 31
0.0
  0
LINE
  5
A6
330
1F
100
AcDbEntity
  8
0
  6
Continuous
 62
     7
370
    25
100
AcDbLine
 10
968.7130844733
 20
859.8491971054
 30
0.0
 11
969.4310331912
 21
859.8491971054
 31
0.0
  0
LINE
  5
A7
330
1F
100
AcDbEntity
  8
0
  6
Continuous
 62
     7
370
    25
100
AcDbLine
 10
968.7130844733
 20
853.5527227464
 30
0.0
 11
968.7130844733
 21
859.8491971054
 31
0.0
  0
LINE
  5
A8
330
1F
100
AcDbEntity
  8
0
  6
Continuous
 62
     7
370
    25
100
AcDbLine
 10
963.427828063
 20
859.8491971054
 30
0.0
 11
968.7130844733
 21
853.5527227464
 31
0.0
  0
LINE
  5
A9
330
1F
100
AcDbEntity
  8
0
  6
Continuous
 62
     7
370
    25
100
AcDbLine
 10
963.2771870374
 20
859.8491971054
 30
0.0
 11
963.427828063
 21
859.8491971054
 31
0.0
  0
LINE
  5
AA
330
1F
100
AcDbEntity
  8
0
  6
Continuous
 62
     7
370
    25
100
AcDbLine
 10
963.2771870374
 20
851.8491971054
 30
0.0
 11
963.2771870374
 21
859.8491971054
 31
0.0
  0
LINE
  5
AB
330
1F
100
AcDbEntity
  8
0
  6
Continuous
 62
     7
370
    25
100
AcDbLine
 10
963.9951357553
 20
851.8491971054
 30
0.0
 11
963.2771870374
 21
851.8491971054
 31
0.0
  0
LINE
  5
AC
330
1F
100
AcDbEntity
  8
0
  6
Continuous
 62
     7
370
    25
100
AcDbLine
 10
963.9951357553
 20
858.1312483874
 30
0.0
 11
963.9951357553
 21
851.8491971054
 31
0.0
  0
SPLINE
  5
AD
330
1F
100
AcDbEntity
  8
0
  6
Continuous
 62
     7
370
    25
100
AcDbSpline
210
0.0
220
0.0
230
1.0
 70
     8
 71
     3
 72
    19
 73
    15
 74
     0
 42
0.00000001
 43
0.00000001
 40
0.0
 40
0.0
 40
0.0
 40
0.0
 40
0.110802643801317
 40
0.2128292023477714
 40
0.306101309823113
 40
0.390647321116009
 40
0.4669244693608507
 40
0.5344810392840313
 40
0.5935869409656724
 40
0.6445570045087194
 40
0.736200452629375
 40
0.8250240256188648
 40
0.9119855848297576
 40
1.0
 40
1.0
 40
1.0
 40
1.0
 10
973.8669306271225
 20
855.1600945412767
 30
0.0
 10
973.942468654112
 20
855.2389478133879
 30
0.0
 10
974.0875617446695
 20
855.3904088113403
 30
0.0
 10
974.2927790630905
 20
855.611535577361
 30
0.0
 10
974.4770967506618
 20
855.8166773847944
 30
0.0
 10
974.6417079341402
 20
856.0054466383817
 30
0.0
 10
974.7830416606906
 20
856.1806045076287
 30
0.0
 10
974.9084639051426
 20
856.3364781158292
 30
0.0
 10
975.0089566845303
 20
856.4799168593902
 30
0.0
 10
975.118020446102
 20
856.6461811197616
 30
0.0
 10
975.2236524035837
 20
856.8491807018738
 30
0.0
 10
975.3144235031048
 20
857.0972577058991
 30
0.0
 10
975.3697717281301
 20
857.3526342834441
 30
0.0
 10
975.3764113521434
 20
857.5252103681236
 30
0.0
 10
975.3797511399431
 20
857.6120176181998
 30
0.0
  0
LINE
  5
AE
330
1F
100
AcDbEntity
  8
0
  6
Continuous
 62
     7
370
    25
100
AcDbLine
 10
970.7643665246
 20
851.8491971054
 30
0.0
 11
973.8669306271
 21
855.1600945413
 31
0.0
  0
LINE
  5
AF
330
1F
100
AcDbEntity
  8
0
  6
Continuous
 62
     7
370
    25
100
AcDbLine
 10
976.2002639605
 20
851.8491971054
 30
0.0
 11
970.7643665246
 21
851.8491971054
 31
0.0
  0
LINE
  5
B0
330
1F
100
AcDbEntity
  8
0
  6
Continuous
 62
     7
370
    25
100
AcDbLine
 10
976.2002639605
 20
852.6697099259
 30
0.0
 11
976.2002639605
 21
851.8491971054
 31
0.0
  0
LINE
  5
B1
330
1F
100
AcDbEntity
  8
0
  6
Continuous
 62
     7
370
    25
100
AcDbLine
 10
972.4775075502
 20
852.6697099259
 30
0.0
 11
976.2002639605
 21
852.6697099259
 31
0.0
  0
LINE
  5
B2
330
1F
100
AcDbEntity
  8
0
  6
Continuous
 62
     7
370
    25
100
AcDbLine
 10
974.4791101143
 20
854.8059278746
 30
0.0
 11
972.4775075502
 21
852.6697099259
 31
0.0
  0
SPLINE
  5
B3
330
1F
100
AcDbEntity
  8
0
  6
Continuous
 62
     7
370
    25
100
AcDbSpline
210
0.0
220
0.0
230
1.0
 70
     8
 71
     3
 72
    19
 73
    15
 74
     0
 42
0.00000001
 43
0.00000001
 40
0.0
 40
0.0
 40
0.0
 40
0.0
 40
0.0987021963061539
 40
0.1956723088106638
 40
0.2924224265079532
 40
0.3913425437998226
 40
0.4444624406718903
 40
0.5042287754493158
 40
0.5703523379946778
 40
0.6425457530977456
 40
0.7222875053440165
 40
0.8079211226827109
 40
0.9004695379850124
 40
1.0
 40
1.0
 40
1.0
 40
1.0
 10
976.0976998578918
 20
857.6761201823024
 30
0.0
 10
976.0938295427914
 20
857.5646965604171
 30
0.0
 10
976.0861568311407
 20
857.3438046434559
 30
0.0
 10
976.0205239704151
 20
857.0191992428863
 30
0.0
 10
975.9180176593399
 20
856.7046999992596
 30
0.0
 10
975.7945951293983
 20
856.4515861659238
 30
0.0
 10
975.6700866858289
 20
856.2476238944791
 30
0.0
 10
975.557886668472
 20
856.0796954260912
 30
0.0
 10
975.4265385289935
 20
855.8988829269153
 30
0.0
 10
975.2741305336502
 20
855.7057918700606
 30
0.0
 10
975.1038153973058
 20
855.4989098012638
 30
0.0
 10
974.9140504524905
 20
855.2783616974962
 30
0.0
 10
974.7034824935845
 20
855.0464262236217
 30
0.0
 10
974.5556916347174
 20
854.8880134204495
 30
0.0
 10
974.4791101143021
 20
854.8059278746101
 30
0.0
  0
SPLINE
  5
B4
330
1F
100
AcDbEntity
  8
0
  6
Continuous
 62
     7
370
    25
100
AcDbSpline
210
0.0
220
0.0
230
1.0
 70
     8
 71
     3
 72
    23
 73
    19
 74
     0
 42
0.00000001
 43
0.00000001
 40
0.0
 40
0.0
 40
0.0
 40
0.0
 40
0.0694754602496701
 40
0.1365167976177991
 40
0.2007888236092613
 40
0.2638296728558264
 40
0.3257350229654207
 40
0.3872906922152904
 40
0.4495092187626031
 40
0.5129678195454406
 40
0.5762752154930598
 40
0.637580100263924
 40
0.6979026059171002
 40
0.7571720884269846
 40
0.8165985284886561
 40
0.8766531708928194
 40
0.9372896424102416
 40
1.0
 40
1.0
 40
1.0
 40
1.0
 10
973.6810331912251
 20
860.0543253105075
 30
0.0
 10
973.7687545034248
 20
860.0522716957752
 30
0.0
 10
973.9411237483537
 20
860.0482364161842
 30
0.0
 10
974.1926940671032
 20
860.0135826350021
 30
0.0
 10
974.4321850258766
 20
859.9593069969785
 30
0.0
 10
974.6591284922124
 20
859.8831574739767
 30
0.0
 10
974.871713782661
 20
859.780793068508
 30
0.0
 10
975.0715378845041
 20
859.6578272658609
 30
0.0
 10
975.2609797377406
 20
859.5156105084387
 30
0.0
 10
975.4315095288541
 20
859.3481732205568
 30
0.0
 10
975.5880994242513
 20
859.1694249131959
 30
0.0
 10
975.7231902931525
 20
858.9785954192253
 30
0.0
 10
975.8388775239487
 20
858.7814999090195
 30
0.0
 10
975.9353065065343
 20
858.5766354482618
 30
0.0
 10
976.0062919669665
 20
858.3620730976043
 30
0.0
 10
976.0601850138908
 20
858.1409366340804
 30
0.0
 10
976.0906476737493
 20
857.9109370660655
 30
0.0
 10
976.0953229274587
 20
857.7552649388706
 30
0.0
 10
976.0976998578918
 20
857.6761201823024
 30
0.0
  0
SPLINE
  5
B5
330
1F
100
AcDbEntity
  8
0
  6
Continuous
 62
     7
370
    25
100
AcDbSpline
210
0.0
220
0.0
230
1.0
 70
     8
 71
     3
 72
    23
 73
    19
 74
     0
 42
0.00000001
 43
0.00000001
 40
0.0
 40
0.0
 40
0.0
 40
0.0
 40
0.0687907943906179
 40
0.1351032894311291
 40
0.1989786743106509
 40
0.2619042997808579
 40
0.3234949693679697
 40
0.385195377966051
 40
0.4469692387407759
 40
0.5097647767031335
 40
0.5722505688473699
 40
0.6334051756611531
 40
0.693251162921753
 40
0.7525831627856702
 40
0.8125792661534221
 40
0.8732750849201928
 40
0.9355499428950292
 40
1.0
 40
1.0
 40
1.0
 40
1.0
 10
971.0720588322508
 20
857.3876586438408
 30
0.0
 10
971.0767380391261
 20
857.4829063873101
 30
0.0
 10
971.0859278768999
 20
857.669970420624
 30
0.0
 10
971.128963966641
 20
857.9427107781078
 30
0.0
 10
971.1905431145378
 20
858.2034074609076
 30
0.0
 10
971.2776092951431
 20
858.4499672642667
 30
0.0
 10
971.3857379300454
 20
858.6845702522218
 30
0.0
 10
971.5154065640589
 20
858.9062845738018
 30
0.0
 10
971.6689925080896
 20
859.114264433721
 30
0.0
 10
971.8431793287648
 20
859.3065817898249
 30
0.0
 10
972.032364789462
 20
859.4830105230805
 30
0.0
 10
972.23649265111
 20
859.6353653637802
 30
0.0
 10
972.4509955706216
 20
859.7640914697505
 30
0.0
 10
972.6752227682568
 20
859.8717057367764
 30
0.0
 10
972.9117040563928
 20
859.9524825274565
 30
0.0
 10
973.15829344574
 20
860.0124177036956
 30
0.0
 10
973.4160743289615
 20
860.0484779224877
 30
0.0
 10
973.5917086650688
 20
860.0523540038689
 30
0.0
 10
973.6810331912251
 20
860.0543253105075
 30
0.0
  0
LINE
  5
B6
330
1F
100
AcDbEntity
  8
0
  6
Continuous
 62
     7
370
    25
100
AcDbLine
 10
971.7900075502
 20
857.3876586438
 30
0.0
 11
971.0720588323
 21
857.3876586438
 31
0.0
  0
SPLINE
  5
B7
330
1F
100
AcDbEntity
  8
0
  6
Continuous
 62
     7
370
    25
100
AcDbSpline
210
0.0
220
0.0
230
1.0
 70
     8
 71
     3
 72
    23
 73
    19
 74
     0
 42
0.00000001
 43
0.00000001
 40
0.0
 40
0.0
 40
0.0
 40
0.0
 40
0.0644386715952404
 40
0.126546911271676
 40
0.1868871534365691
 40
0.2458775355894538
 40
0.3040408846912639
 40
0.3621912180726585
 40
0.4209759327916435
 40
0.4806602832796665
 40
0.5406002749537572
 40
0.6006890983494527
 40
0.661935789757193
 40
0.7244425059139813
 40
0.7890383938817411
 40
0.8563137570509931
 40
0.9263520282058617
 40
1.0
 40
1.0
 40
1.0
 40
1.0
 10
973.6441742168662
 20
859.2338124899948
 30
0.0
 10
973.5816123134232
 20
859.2321781305343
 30
0.0
 10
973.4587510649213
 20
859.22896851841
 30
0.0
 10
973.2783647039234
 20
859.2065167149997
 30
0.0
 10
973.1062829267261
 20
859.167783365521
 30
0.0
 10
972.9420728628337
 20
859.1148081097792
 30
0.0
 10
972.7854566666904
 20
859.0474742838996
 30
0.0
 10
972.6371959946051
 20
858.9636074389197
 30
0.0
 10
972.4976236762967
 20
858.8635308831423
 30
0.0
 10
972.3664773372212
 20
858.7500667544017
 30
0.0
 10
972.2456453850759
 20
858.6237408087652
 30
0.0
 10
972.1394810973848
 20
858.4829180360408
 30
0.0
 10
972.046717636485
 20
858.3301696580497
 30
0.0
 10
971.9657822456741
 20
858.165907828177
 30
0.0
 10
971.9000549540563
 20
857.9886420453552
 30
0.0
 10
971.8498306102138
 20
857.7990015771302
 30
0.0
 10
971.8100892462786
 20
857.5978098481277
 30
0.0
 10
971.7968126277533
 20
857.4588725113128
 30
0.0
 10
971.7900075501996
 20
857.3876586438408
 30
0.0
  0
SPLINE
  5
B8
330
1F
100
AcDbEntity
  8
0
  6
Continuous
 62
     7
370
    25
100
AcDbSpline
210
0.0
220
0.0
230
1.0
 70
     8
 71
     3
 72
    23
 73
    19
 74
     0
 42
0.00000001
 43
0.00000001
 40
0.0
 40
0.0
 40
0.0
 40
0.0
 40
0.0619654006870639
 40
0.1221219056382948
 40
0.1809884968498403
 40
0.2399332164519047
 40
0.2999058311065253
 40
0.3599888474769862
 40
0.4217757417416459
 40
0.4865758264211283
 40
0.5515348046197417
 40
0.6150175427599804
 40
0.6772586166616567
 40
0.7397299623627114
 40
0.803050102662951
 40
0.8664951320156965
 40
0.9319734741771484
 40
1.0
 40
1.0
 40
1.0
 40
1.0
 10
975.3797511399431
 20
857.6120176181998
 30
0.0
 10
975.3782980146873
 20
857.6666036717102
 30
0.0
 10
975.3754341838494
 20
857.7741823011075
 30
0.0
 10
975.3501594467207
 20
857.9319097502929
 30
0.0
 10
975.3119640042189
 20
858.0840578961576
 30
0.0
 10
975.2572319858238
 20
858.2310947398555
 30
0.0
 10
975.1849880084858
 20
858.3715419445782
 30
0.0
 10
975.0970488543884
 20
858.5055704707578
 30
0.0
 10
974.9955858522904
 20
858.6351452483581
 30
0.0
 10
974.8782115223913
 20
858.7566385010622
 30
0.0
 10
974.7492709056905
 20
858.8679098278793
 30
0.0
 10
974.6130554780672
 20
858.9664791659692
 30
0.0
 10
974.4689409540445
 20
859.0488542763666
 30
0.0
 10
974.3175349604998
 20
859.1163822699218
 30
0.0
 10
974.1592596018521
 20
859.1693545697991
 30
0.0
 10
973.993808755858
 20
859.2060598941948
 30
0.0
 10
973.8216395757837
 20
859.2291055717873
 30
0.0
 10
973.7040772999195
 20
859.2322236790063
 30
0.0
 10
973.6441742168662
 20
859.2338124899948
 30
0.0
  0
SPLINE
  5
B9
330
1F
100
AcDbEntity
  8
0
  6
Continuous
 62
     7
370
    25
100
AcDbSpline
210
0.0
220
0.0
230
1.0
 70
     8
 71
     3
 72
    15
 73
    11
 74
     0
 42
0.00000001
 43
0.00000001
 40
0.0
 40
0.0
 40
0.0
 40
0.0
 40
0.1022030370352225
 40
0.2110233423738748
 40
0.3250996615652079
 40
0.4465020971348911
 40
0.5737877176488574
 40
0.7089007097660668
 40
0.8503578712934009
 40
1.0
 40
1.0
 40
1.0
 40
1.0
 10
979.604110114302
 20
856.2594535156358
 30
0.0
 10
979.5421011341732
 20
856.2581264501326
 30
0.0
 10
979.4140683220024
 20
856.2553863965478
 30
0.0
 10
979.2176732894783
 20
856.2352115466591
 30
0.0
 10
979.0112922083887
 20
856.2026645879663
 30
0.0
 10
978.7957162185459
 20
856.1578960223223
 30
0.0
 10
978.5702979143105
 20
856.0993107040171
 30
0.0
 10
978.3355129983624
 20
856.0291061311585
 30
0.0
 10
978.090867817564
 20
855.9451701340989
 30
0.0
 10
977.9260273046526
 20
855.8817822169636
 30
0.0
 10
977.8412896014815
 20
855.8491971053793
 30
0.0
  0
SPLINE
  5
BA
330
1F
100
AcDbEntity
  8
0
  6
Continuous
 62
     7
370
    25
100
AcDbSpline
210
0.0
220
0.0
230
1.0
 70
     8
 71
     3
 72
    23
 73
    19
 74
     0
 42
0.00000001
 43
0.00000001
 40
0.0
 40
0.0
 40
0.0
 40
0.0
 40
0.0653513820265915
 40
0.1279160318306129
 40
0.1883602055716977
 40
0.2472160772654516
 40
0.3056301291974109
 40
0.3637698398318186
 40
0.4226609139127787
 40
0.4826872940903927
 40
0.5433002212395587
 40
0.6041179553231041
 40
0.664964891265283
 40
0.7274134941125641
 40
0.7914676251494245
 40
0.8580554427291014
 40
0.927036814614947
 40
0.9999999999999999
 40
0.9999999999999999
 40
0.9999999999999999
 40
0.9999999999999999
 10
981.5335972937893
 20
854.4934278746101
 30
0.0
 10
981.5320921978774
 20
854.5576010211728
 30
0.0
 10
981.5291461867816
 20
854.6832108247276
 30
0.0
 10
981.5050763118034
 20
854.8669804394505
 30
0.0
 10
981.4632089464236
 20
855.0408616789969
 30
0.0
 10
981.4050972208305
 20
855.2056942137899
 30
0.0
 10
981.331315488868
 20
855.3616335105854
 30
0.0
 10
981.2411524892822
 20
855.5088405053287
 30
0.0
 10
981.1329161511255
 20
855.6453749812681
 30
0.0
 10
981.0092775486372
 20
855.7713008180898
 30
0.0
 10
980.8738305979101
 20
855.8875176749426
 30
0.0
 10
980.7242449005453
 20
855.9865898725471
 30
0.0
 10
980.5636507821564
 20
856.069935970037
 30
0.0
 10
980.3939831262275
 20
856.1418628233919
 30
0.0
 10
980.2112062151706
 20
856.193521670019
 30
0.0
 10
980.0189396268748
 20
856.2323054081725
 30
0.0
 10
979.8151071515675
 20
856.2547405228655
 30
0.0
 10
979.6757455786899
 20
856.2578534105816
 30
0.0
 10
979.604110114302
 20
856.2594535156358
 30
0.0
  0
SPLINE
  5
BB
330
1F
100
AcDbEntity
  8
0
  6
Continuous
 62
     7
370
    25
100
AcDbSpline
210
0.0
220
0.0
230
1.0
 70
     8
 71
     3
 72
    23
 73
    19
 74
     0
 42
0.00000001
 43
0.00000001
 40
0.0
 40
0.0
 40
0.0
 40
0.0
 40
0.0642072952829855
 40
0.1264246897797422
 40
0.1876802842649233
 40
0.2482164244552141
 40
0.3083050600086122
 40
0.3696609913251432
 40
0.4316985517867817
 40
0.4959468922087636
 40
0.5597580239721199
 40
0.6222954078261601
 40
0.6839106352841725
 40
0.7450924080566221
 40
0.8067402253892935
 40
0.8690866181211997
 40
0.9332900029747978
 40
1.0
 40
1.0
 40
1.0
 40
1.0
 10
979.5031485758406
 20
852.4645817207639
 30
0.0
 10
979.5716250202229
 20
852.466457784547
 30
0.0
 10
979.7064556995111
 20
852.4701517694866
 30
0.0
 10
979.9048817262379
 20
852.4985837971205
 30
0.0
 10
980.0964540101286
 20
852.5423725315379
 30
0.0
 10
980.279282254149
 20
852.6079036286437
 30
0.0
 10
980.4565657732097
 20
852.6875486993313
 30
0.0
 10
980.6238201056053
 20
852.7897545869105
 30
0.0
 10
980.785883824784
 20
852.9073774862132
 30
0.0
 10
980.9377195585465
 20
853.0421354977411
 30
0.0
 10
981.076781156854
 20
853.1906376568708
 30
0.0
 10
981.1996522908744
 20
853.3494431275562
 30
0.0
 10
981.3019995215627
 20
853.5188530625114
 30
0.0
 10
981.3882489132649
 20
853.6959345547422
 30
0.0
 10
981.4537421677167
 20
853.8826283997214
 30
0.0
 10
981.5004644105117
 20
854.0780596572583
 30
0.0
 10
981.5278999735253
 20
854.2827110405873
 30
0.0
 10
981.5316740991756
 20
854.4222980343616
 30
0.0
 10
981.5335972937893
 20
854.4934278746101
 30
0.0
  0
SPLINE
  5
BC
330
1F
100
AcDbEntity
  8
0
  6
Continuous
 62
     7
370
    25
100
AcDbSpline
210
0.0
220
0.0
230
1.0
 70
     8
 71
     3
 72
    19
 73
    15
 74
     0
 42
0.00000001
 43
0.00000001
 40
0.0
 40
0.0
 40
0.0
 40
0.0
 40
0.0946872518675514
 40
0.1819941557072734
 40
0.264376948610514
 40
0.342179861947774
 40
0.4186176108621467
 40
0.4965090753719096
 40
0.5773690916117336
 40
0.6615105924541963
 40
0.7467325508291974
 40
0.8312579843277424
 40
0.9152056162136545
 40
1.0
 40
1.0
 40
1.0
 40
1.0
 10
977.7387254989175
 20
853.9004791566614
 30
0.0
 10
977.7563907729522
 20
853.824190122493
 30
0.0
 10
977.7903444105312
 20
853.6775583627857
 30
0.0
 10
977.86487183625
 20
853.4715438683102
 30
0.0
 10
977.9559938373305
 20
853.2879570713363
 30
0.0
 10
978.064346633713
 20
853.1243694524254
 30
0.0
 10
978.1936038462528
 20
852.9817203158029
 30
0.0
 10
978.3410996838315
 20
852.8545956028024
 30
0.0
 10
978.5064659082868
 20
852.7399095929107
 30
0.0
 10
978.6902218614752
 20
852.6443146964599
 30
0.0
 10
978.8840803284932
 20
852.5627861172597
 30
0.0
 10
979.086976808515
 20
852.5084965287988
 30
0.0
 10
979.2933867433061
 20
852.4703230594438
 30
0.0
 10
979.4329944466125
 20
852.4665018918972
 30
0.0
 10
979.5031485758406
 20
852.4645817207639
 30
0.0
  0
LINE
  5
BD
330
1F
100
AcDbEntity
  8
0
  6
Continuous
 62
     7
370
    25
100
AcDbLine
 10
977.020776781
 20
853.9004791567
 30
0.0
 11
977.7387254989
 21
853.9004791567
 31
0.0
  0
SPLINE
  5
BE
330
1F
100
AcDbEntity
  8
0
  6
Continuous
 62
     7
370
    25
100
AcDbSpline
210
0.0
220
0.0
230
1.0
 70
     8
 71
     3
 72
    23
 73
    19
 74
     0
 42
0.00000001
 43
0.00000001
 40
0.0
 40
0.0
 40
0.0
 40
0.0
 40
0.0654211437588935
 40
0.1287083718818824
 40
0.1902361418635388
 40
0.2507244020335381
 40
0.3106371794134437
 40
0.3707664082897266
 40
0.4316147444123534
 40
0.4935229735663552
 40
0.5558834553775334
 40
0.6173423673185096
 40
0.6786680390972745
 40
0.7407113595451483
 40
0.802985362512746
 40
0.8668025802655185
 40
0.9323471713458867
 40
1.0
 40
1.0
 40
1.0
 40
1.0
 10
979.4614819091739
 20
851.6440689002511
 30
0.0
 10
979.3817694961404
 20
851.6456479585006
 30
0.0
 10
979.2249447402456
 20
851.648754569066
 30
0.0
 10
978.995183444082
 20
851.6812539639325
 30
0.0
 10
978.7741214882113
 20
851.727800058544
 30
0.0
 10
978.5635383998515
 20
851.7978258181975
 30
0.0
 10
978.3615469399538
 20
851.8855682060607
 30
0.0
 10
978.1708664421507
 20
851.996462312336
 30
0.0
 10
977.986624668327
 20
852.1221288351863
 30
0.0
 10
977.816311441471
 20
852.2704267848202
 30
0.0
 10
977.6582403249689
 20
852.4325197723231
 30
0.0
 10
977.5167397332654
 20
852.6084229521305
 30
0.0
 10
977.3907201292958
 20
852.7952331054702
 30
0.0
 10
977.2821995647499
 20
852.9938574576432
 30
0.0
 10
977.1896326588839
 20
853.2037740997864
 30
0.0
 10
977.11691268568
 20
853.4257695303965
 30
0.0
 10
977.0582193029528
 20
853.6586838251151
 30
0.0
 10
977.0333886275782
 20
853.8190347060535
 30
0.0
 10
977.0207767809687
 20
853.9004791566614
 30
0.0
  0
SPLINE
  5
BF
330
1F
100
AcDbEntity
  8
0
  6
Continuous
 62
     7
370
    25
100
AcDbSpline
210
0.0
220
0.0
230
1.0
 70
     8
 71
     3
 72
    31
 73
    27
 74
     0
 42
0.00000001
 43
0.00000001
 40
0.0
 40
0.0
 40
0.0
 40
0.0
 40
0.0440144705761398
 40
0.0874341236677071
 40
0.1301183986578981
 40
0.1725536945581829
 40
0.2145547559681399
 40
0.2562980920971313
 40
0.2984382251332494
 40
0.3408490025880961
 40
0.3827151889670274
 40
0.4239240454075322
 40
0.4642462432504171
 40
0.5040736714617978
 40
0.5438619058684921
 40
0.5835667249796543
 40
0.623094318852335
 40
0.6632290607685856
 40
0.703551258611471
 40
0.7439378946861852
 40
0.784541254800093
 40
0.825750111240597
 40
0.8677573633885063
 40
0.9107451640323103
 40
0.9549144468914781
 40
1.0
 40
1.0
 40
1.0
 40
1.0
 10
982.251546011738
 20
854.4629791566614
 30
0.0
 10
982.2500258396846
 20
854.3977855101425
 30
0.0
 10
982.2470060393877
 20
854.2682792528263
 30
0.0
 10
982.2316492676213
 20
854.07594965126
 30
0.0
 10
982.2020819166174
 20
853.8876917470718
 30
0.0
 10
982.1623842615224
 20
853.7034805657262
 30
0.0
 10
982.1108587347442
 20
853.5236648578882
 30
0.0
 10
982.048483754396
 20
853.3477299369126
 30
0.0
 10
981.9721499772306
 20
853.1767708357854
 30
0.0
 10
981.8884211194959
 20
853.009169932874
 30
0.0
 10
981.7941434554151
 20
852.8487162021432
 30
0.0
 10
981.6895068672119
 20
852.6986613757599
 30
0.0
 10
981.5789571729894
 20
852.5567544466629
 30
0.0
 10
981.4600054347991
 20
852.4245173426419
 30
0.0
 10
981.3315460173988
 20
852.3028190160294
 30
0.0
 10
981.195134664572
 20
852.19093722973
 30
0.0
 10
981.0518598782197
 20
852.0869799033229
 30
0.0
 10
980.899505038629
 20
851.995166885779
 30
0.0
 10
980.7414650775694
 20
851.9106801288583
 30
0.0
 10
980.5754577241055
 20
851.8413691863775
 30
0.0
 10
980.4052618373454
 20
851.7794022650404
 30
0.0
 10
980.2284278359858
 20
851.7300090590711
 30
0.0
 10
980.0453562642926
 20
851.6913060773127
 30
0.0
 10
979.8557453489051
 20
851.6650189902213
 30
0.0
 10
979.6605895317078
 20
851.6458728474322
 30
0.0
 10
979.5283037886682
 20
851.6446743172593
 30
0.0
 10
979.4614819091739
 20
851.6440689002511
 30
0.0
  0
SPLINE
  5
C0
330
1F
100
AcDbEntity
  8
0
  6
Continuous
 62
     7
370
    25
100
AcDbSpline
210
0.0
220
0.0
230
1.0
 70
     8
 71
     3
 72
    23
 73
    19
 74
     0
 42
0.00000001
 43
0.00000001
 40
0.0
 40
0.0
 40
0.0
 40
0.0
 40
0.0658076458106949
 40
0.1293942736680548
 40
0.1908940606321909
 40
0.2512810689298366
 40
0.3108149644652737
 40
0.3703709874482456
 40
0.4307682625897277
 40
0.4928812506175012
 40
0.5551039481552501
 40
0.6160670509938451
 40
0.6772560331746543
 40
0.7382598051991158
 40
0.8007621343762976
 40
0.8647775815744866
 40
0.9310452949994038
 40
1.0
 40
1.0
 40
1.0
 40
1.0
 10
979.7339178066098
 20
857.0799663361486
 30
0.0
 10
979.8232520688091
 20
857.0780327688466
 30
0.0
 10
979.9989055484094
 20
857.0742308924299
 30
0.0
 10
980.2559088558233
 20
857.0377238079859
 30
0.0
 10
980.5012411831791
 20
856.9802611459738
 30
0.0
 10
980.7343894578679
 20
856.8999856677186
 30
0.0
 10
980.9557850021816
 20
856.7973348489886
 30
0.0
 10
981.1633908569943
 20
856.6691064138851
 30
0.0
 10
981.3603232295355
 20
856.5193159426858
 30
0.0
 10
981.5430491585737
 20
856.3470987724925
 30
0.0
 10
981.708819005809
 20
856.1575636484874
 30
0.0
 10
981.8545698393335
 20
855.9537742289596
 30
0.0
 10
981.9783700457433
 20
855.7377110012234
 30
0.0
 10
982.0779374854608
 20
855.5073096098217
 30
0.0
 10
982.1574445352345
 20
855.2651172591694
 30
0.0
 10
982.2103633805916
 20
855.0085856419072
 30
0.0
 10
982.2456015725032
 20
854.7401327961624
 30
0.0
 10
982.2495384555194
 20
854.5565794931288
 30
0.0
 10
982.251546011738
 20
854.4629791566614
 30
0.0
  0
SPLINE
  5
C1
330
1F
100
AcDbEntity
  8
0
  6
Continuous
 62
     7
370
    25
100
AcDbSpline
210
0.0
220
0.0
230
1.0
 70
     8
 71
     3
 72
    11
 73
     7
 74
     0
 42
0.00000001
 43
0.00000001
 40
0.0
 40
0.0
 40
0.0
 40
0.0
 40
0.2750683690187423
 40
0.532901460089937
 40
0.7739734595924415
 40
0.9999999999999999
 40
0.9999999999999999
 40
0.9999999999999999
 40
0.9999999999999999
 10
978.7916101143021
 20
856.9245176181998
 30
0.0
 10
978.8763092557276
 20
856.9479010966232
 30
0.0
 10
979.0404004462017
 20
856.9932028877317
 30
0.0
 10
979.2825944141186
 20
857.0435017915706
 30
0.0
 10
979.5125194506238
 20
857.0738228065591
 30
0.0
 10
979.6617202972764
 20
857.0779629448728
 30
0.0
 10
979.7339178066098
 20
857.0799663361486
 30
0.0
  0
LINE
  5
C2
330
1F
100
AcDbEntity
  8
0
  6
Continuous
 62
     7
370
    25
100
AcDbLine
 10
979.2226998579
 20
859.0286842849
 30
0.0
 11
978.7916101143
 21
856.9245176182
 31
0.0
  0
LINE
  5
C3
330
1F
100
AcDbEntity
  8
0
  6
Continuous
 62
     7
370
    25
100
AcDbLine
 10
981.943853704
 20
859.0286842849
 30
0.0
 11
979.2226998579
 21
859.0286842849
 31
0.0
  0
LINE
  5
C4
330
1F
100
AcDbEntity
  8
0
  6
Continuous
 62
     7
370
    25
100
AcDbLine
 10
981.943853704
 20
859.8491971054
 30
0.0
 11
981.943853704
 21
859.0286842849
 31
0.0
  0
LINE
  5
C5
330
1F
100
AcDbEntity
  8
0
  6
Continuous
 62
     7
370
    25
100
AcDbLine
 10
978.661802422
 20
859.8491971054
 30
0.0
 11
981.943853704
 21
859.8491971054
 31
0.0
  0
LINE
  5
C6
330
1F
100
AcDbEntity
  8
0
  6
Continuous
 62
     7
370
    25
100
AcDbLine
 10
977.8412896015
 20
855.8491971054
 30
0.0
 11
978.661802422
 21
859.8491971054
 31
0.0
  0
CIRCLE
  5
C7
330
1F
100
AcDbEntity
  8
0
  6
Continuous
 62
     7
370
    25
100
AcDbCircle
 10
951.4872798434
 20
785.6360078278
 30
0.0
 40
117.5
  0
CIRCLE
  5
C8
330
1F
100
AcDbEntity
  8
0
  6
Continuous
 62
     7
370
    25
100
AcDbCircle
 10
987.8422059181
 20
873.4045634164
 30
0.0
 40
11.0
  0
CIRCLE
  5
C9
330
1F
100
AcDbEntity
  8
0
  6
Continuous
 62
     7
370
    25
100
AcDbCircle
 10
1039.255835432
 20
821.9909339025
 30
0.0
 40
10.99999999999985
  0
CIRCLE
  5
CA
330
1F
100
AcDbEntity
  8
0
  6
Continuous
 62
     7
370
    25
100
AcDbCircle
 10
1039.255835432
 20
749.2810817531
 30
0.0
 40
11.0
  0
CIRCLE
  5
CB
330
1F
100
AcDbEntity
  8
0
  6
Continuous
 62
     7
370
    25
100
AcDbCircle
 10
987.8422059181
 20
697.8674522392
 30
0.0
 40
11.00000000000001
  0
CIRCLE
  5
CC
330
1F
100
AcDbEntity
  8
0
  6
Continuous
 62
     7
370
    25
100
AcDbCircle
 10
915.1323537688
 20
697.8674522392
 30
0.0
 40
11.0
  0
CIRCLE
  5
CD
330
1F
100
AcDbEntity
  8
0
  6
Continuous
 62
     7
370
    25
100
AcDbCircle
 10
863.7187242549
 20
749.2810817531
 30
0.0
 40
11.00000000000001
  0
CIRCLE
  5
CE
330
1F
100
AcDbEntity
  8
0
  6
Continuous
 62
     7
370
    25
100
AcDbCircle
 10
863.7187242549
 20
821.9909339025
 30
0.0
 40
11.00000000000011
  0
CIRCLE
  5
CF
330
1F
100
AcDbEntity
  8
0
  6
Continuous
 62
     7
370
    25
100
AcDbCircle
 10
915.1323537688
 20
873.4045634164
 30
0.0
 40
11.00000000000001
  0
LINE
  5
D0
330
1F
100
AcDbEntity
  8
0
  6
Continuous
 62
     7
370
    25
100
AcDbLine
 10
957.4310331912
 20
855.5415047977
 30
0.0
 11
957.4310331912
 21
851.8491971054
 31
0.0
  0
LINE
  5
D1
330
1F
100
AcDbEntity
  8
0
  6
Continuous
 62
     7
370
    25
100
AcDbLine
 10
958.0031485758
 20
855.5415047977
 30
0.0
 11
957.4310331912
 21
855.5415047977
 31
0.0
  0
SPLINE
  5
D2
330
1F
100
AcDbEntity
  8
0
  6
Continuous
 62
     7
370
    25
100
AcDbSpline
210
0.0
220
0.0
230
1.0
 70
     8
 71
     3
 72
    15
 73
    11
 74
     0
 42
0.00000001
 43
0.00000001
 40
0.0
 40
0.0
 40
0.0
 40
0.0
 40
0.0751731173762224
 40
0.1647462575117999
 40
0.268016880987779
 40
0.3859118756529544
 40
0.5177894792733971
 40
0.6636909770022807
 40
0.8244132205366428
 40
1.0
 40
1.0
 40
1.0
 40
1.0
 10
960.0400075501994
 20
855.6729150540973
 30
0.0
 10
959.9898879296477
 20
855.6622568116336
 30
0.0
 10
959.8800478671093
 20
855.6388986535733
 30
0.0
 10
959.6991502164171
 20
855.612822180785
 30
0.0
 10
959.4885321914347
 20
855.5905648077896
 30
0.0
 10
959.2484812659135
 20
855.5738764933187
 30
0.0
 10
958.9792129118069
 20
855.559589936834
 30
0.0
 10
958.6805814664818
 20
855.5482342936554
 30
0.0
 10
958.3520007186435
 20
855.5419946277464
 30
0.0
 10
958.1228093036082
 20
855.5416728156356
 30
0.0
 10
958.0031485758406
 20
855.541504797687
 30
0.0
  0
SPLINE
  5
D3
330
1F
100
AcDbEntity
  8
0
  6
Continuous
 62
     7
370
    25
100
AcDbSpline
210
0.0
220
0.0
230
1.0
 70
     8
 71
     3
 72
    23
 73
    19
 74
     0
 42
0.00000001
 43
0.00000001
 40
0.0
 40
0.0
 40
0.0
 40
0.0
 40
0.0701188944197129
 40
0.1371923527859669
 40
0.2020161807247475
 40
0.2646314069747404
 40
0.3261165471458174
 40
0.386010304667639
 40
0.445811846957678
 40
0.5052976967309589
 40
0.564633277726487
 40
0.6242826253338396
 40
0.6839020319037513
 40
0.7439527709382688
 40
0.805387731007635
 40
0.8683880308962799
 40
0.9330840282524757
 40
1.0
 40
1.0
 40
1.0
 40
1.0
 10
961.6361613963534
 20
857.7033637720459
 30
0.0
 10
961.63519813983
 20
857.6375859965317
 30
0.0
 10
961.6333134633834
 20
857.508887336085
 30
0.0
 10
961.6106933826318
 20
857.320606677368
 30
0.0
 10
961.5802243732177
 20
857.1406789284956
 30
0.0
 10
961.5333739678983
 20
856.9695030417084
 30
0.0
 10
961.4720124293876
 20
856.8080955663468
 30
0.0
 10
961.4000305943118
 20
856.6539898931564
 30
0.0
 10
961.3132110963237
 20
856.5098077859597
 30
0.0
 10
961.2134514855569
 20
856.3750258030072
 30
0.0
 10
961.1024764126589
 20
856.2495174320035
 30
0.0
 10
960.9807554111794
 20
856.1341921874488
 30
0.0
 10
960.8487798854644
 20
856.0297251281972
 30
0.0
 10
960.7069692612899
 20
855.9358820569279
 30
0.0
 10
960.5539410353779
 20
855.8548391323617
 30
0.0
 10
960.39201611293
 20
855.7822510068175
 30
0.0
 10
960.2197870468227
 20
855.7212885825011
 30
0.0
 10
960.1006041577361
 20
855.6892198706693
 30
0.0
 10
960.0400075501994
 20
855.6729150540973
 30
0.0
  0
SPLINE
  5
D4
330
1F
100
AcDbEntity
  8
0
  6
Continuous
 62
     7
370
    25
100
AcDbSpline
210
0.0
220
0.0
230
1.0
 70
     8
 71
     3
 72
    23
 73
    19
 74
     0
 42
0.00000001
 43
0.00000001
 40
0.0
 40
0.0
 40
0.0
 40
0.0
 40
0.0624813386352055
 40
0.1234903826872916
 40
0.1834110942063101
 40
0.2431532209997778
 40
0.3021267353720888
 40
0.3617096708329061
 40
0.4218422916948803
 40
0.4829319014466676
 40
0.5445522544313208
 40
0.6056807199653561
 40
0.667679738343686
 40
0.7299843875380617
 40
0.7945509212861257
 40
0.8603456197120812
 40
0.9289073562657045
 40
1.0
 40
1.0
 40
1.0
 40
1.0
 10
960.1041101143021
 20
859.729004797687
 30
0.0
 10
960.159409620097
 20
859.7138689123574
 30
0.0
 10
960.2687055680104
 20
859.6839537999016
 30
0.0
 10
960.4261936665284
 20
859.6240367176715
 30
0.0
 10
960.5760310276264
 20
859.5529917686989
 30
0.0
 10
960.7187317326441
 20
859.4720227633254
 30
0.0
 10
960.8525422082347
 20
859.3776557594692
 30
0.0
 10
960.9794588732998
 20
859.2737160617794
 30
0.0
 10
961.0983616854041
 20
859.1578039050423
 30
0.0
 10
961.2085820097109
 20
859.0312193568197
 30
0.0
 10
961.3098044041885
 20
858.8960874485192
 30
0.0
 10
961.3969579647078
 20
858.7503909230163
 30
0.0
 10
961.4699344836409
 20
858.5965822294852
 30
0.0
 10
961.5325248184619
 20
858.4347683525542
 30
0.0
 10
961.5775727143915
 20
858.2635904702882
 30
0.0
 10
961.6115084851467
 20
858.0842379848616
 30
0.0
 10
961.6330482054112
 20
857.8967301215439
 30
0.0
 10
961.6351112037086
 20
857.7685932814961
 30
0.0
 10
961.6361613963534
 20
857.7033637720459
 30
0.0
  0
SPLINE
  5
D5
330
1F
100
AcDbEntity
  8
0
  6
Continuous
 62
     7
370
    25
100
AcDbSpline
210
0.0
220
0.0
230
1.0
 70
     8
 71
     3
 72
    15
 73
    11
 74
     0
 42
0.00000001
 43
0.00000001
 40
0.0
 40
0.0
 40
0.0
 40
0.0
 40
0.1769557521312529
 40
0.339055079642581
 40
0.4863182249420781
 40
0.6187809228353796
 40
0.7356188277673823
 40
0.8387424767201119
 40
0.926457067876317
 40
1.0
 40
1.0
 40
1.0
 40
1.0
 10
958.2819947296866
 20
859.8491971053793
 30
0.0
 10
958.389905372319
 20
859.8490784854002
 30
0.0
 10
958.5966669558865
 20
859.8488512042525
 30
0.0
 10
958.8931585117923
 20
859.8419603566509
 30
0.0
 10
959.1624378983669
 20
859.8327564890103
 30
0.0
 10
959.4039244833422
 20
859.8199978759975
 30
0.0
 10
959.6183612789687
 20
859.8049199554318
 30
0.0
 10
959.8047779636466
 20
859.7837724368549
 30
0.0
 10
959.9646398066953
 20
859.7616917613043
 30
0.0
 10
960.0604259768588
 20
859.7392428321172
 30
0.0
 10
960.1041101143021
 20
859.729004797687
 30
0.0
  0
LINE
  5
D6
330
1F
100
AcDbEntity
  8
0
  6
Continuous
 62
     7
370
    25
100
AcDbLine
 10
956.7130844733
 20
859.8491971054
 30
0.0
 11
958.2819947297
 21
859.8491971054
 31
0.0
  0
LINE
  5
D7
330
1F
100
AcDbEntity
  8
0
  6
Continuous
 62
     7
370
    25
100
AcDbLine
 10
956.7130844733
 20
851.8491971054
 30
0.0
 11
956.7130844733
 21
859.8491971054
 31
0.0
  0
LINE
  5
D8
330
1F
100
AcDbEntity
  8
0
  6
Continuous
 62
     7
370
    25
100
AcDbLine
 10
957.4310331912
 20
851.8491971054
 30
0.0
 11
956.7130844733
 21
851.8491971054
 31
0.0
  0
LINE
  5
D9
330
1F
100
AcDbEntity
  8
0
  6
Continuous
 62
     7
370
    25
100
AcDbLine
 10
955.3797511399
 20
855.3363765926
 30
0.0
 11
955.3797511399
 21
854.515863772
 31
0.0
  0
LINE
  5
DA
330
1F
100
AcDbEntity
  8
0
  6
Continuous
 62
     7
370
    25
100
AcDbLine
 10
952.302828063
 20
855.3363765926
 30
0.0
 11
955.3797511399
 21
855.3363765926
 31
0.0
  0
LINE
  5
DB
330
1F
100
AcDbEntity
  8
0
  6
Continuous
 62
     7
370
    25
100
AcDbLine
 10
952.302828063
 20
854.515863772
 30
0.0
 11
952.302828063
 21
855.3363765926
 31
0.0
  0
LINE
  5
DC
330
1F
100
AcDbEntity
  8
0
  6
Continuous
 62
     7
370
    25
100
AcDbLine
 10
955.3797511399
 20
854.515863772
 30
0.0
 11
952.302828063
 21
854.515863772
 31
0.0
  0
SPLINE
  5
DD
330
1F
100
AcDbEntity
  8
0
  6
Continuous
 62
     7
370
    25
100
AcDbSpline
210
0.0
220
0.0
230
1.0
 70
     8
 71
     3
 72
    31
 73
    27
 74
     0
 42
0.00000001
 43
0.00000001
 40
0.0
 40
0.0
 40
0.0
 40
0.0
 40
0.0337881161627106
 40
0.0671939323738803
 40
0.0998624108568254
 40
0.1325666121262584
 40
0.1651511732547858
 40
0.1979131873557924
 40
0.2313190035669617
 40
0.265083278267373
 40
0.2992553087581151
 40
0.3343985665049788
 40
0.3699428235093071
 40
0.4062835607000603
 40
0.4440638196985091
 40
0.4829977068727747
 40
0.5233544466133042
 40
0.5655365896041499
 40
0.6096129240658184
 40
0.6563908113764169
 40
0.7058854949364558
 40
0.7583245002617313
 40
0.8138317829411499
 40
0.8727945590393889
 40
0.9347222295400733
 40
1.0
 40
1.0
 40
1.0
 40
1.0
 10
934.2595588322507
 20
860.0543253105075
 30
0.0
 10
934.3231827830722
 20
860.0532103043918
 30
0.0
 10
934.4497108034051
 20
860.0509929080391
 30
0.0
 10
934.636774518253
 20
860.0296810393886
 30
0.0
 10
934.8195166478863
 20
859.9943184723099
 30
0.0
 10
934.9971581077799
 20
859.9442133875494
 30
0.0
 10
935.1711580768491
 20
859.8820518408994
 30
0.0
 10
935.3401555800392
 20
859.8041384303641
 30
0.0
 10
935.5052003380781
 20
859.713443876434
 30
0.0
 10
935.6636695666951
 20
859.6068750140188
 30
0.0
 10
935.8173029732004
 20
859.4880583827119
 30
0.0
 10
935.9623268885653
 20
859.3537437111613
 30
0.0
 10
936.0987545134736
 20
859.205287209976
 30
0.0
 10
936.2282980686423
 20
859.0442772353779
 30
0.0
 10
936.347282290812
 20
858.8676256129012
 30
0.0
 10
936.4605929930644
 20
858.6784047904689
 30
0.0
 10
936.562014789411
 20
858.4733056709401
 30
0.0
 10
936.6596940469622
 20
858.2557503158748
 30
0.0
 10
936.744007159509
 20
858.0197190957454
 30
0.0
 10
936.82004429156
 20
857.7665425002754
 30
0.0
 10
936.881481934017
 20
857.4932300731821
 30
0.0
 10
936.932657413647
 20
857.2012157982218
 30
0.0
 10
936.9723028900942
 20
856.8894272651015
 30
0.0
 10
937.0011775005594
 20
856.558532829646
 30
0.0
 10
937.0164302663682
 20
856.2083147938957
 30
0.0
 10
937.0193027262691
 20
855.9688682814908
 30
0.0
 10
937.0207767809687
 20
855.8459919771741
 30
0.0
  0
SPLINE
  5
DE
330
1F
100
AcDbEntity
  8
0
  6
Continuous
 62
     7
370
    25
100
AcDbSpline
210
0.0
220
0.0
230
1.0
 70
     8
 71
     3
 72
    31
 73
    27
 74
     0
 42
0.00000001
 43
0.00000001
 40
0.0
 40
0.0
 40
0.0
 40
0.0
 40
0.0685946222587427
 40
0.1332460424433002
 40
0.1943125864682573
 40
0.2512792231169663
 40
0.3045134392563468
 40
0.3542349066533263
 40
0.4004805887739903
 40
0.4434107549384921
 40
0.4840148686163453
 40
0.5232523007732024
 40
0.5610423727283604
 40
0.5979002393643995
 40
0.6335184888561969
 40
0.6683143511696527
 40
0.7024956712863815
 40
0.7366853535134588
 40
0.7702931693607898
 40
0.8034372550192489
 40
0.8359129516660292
 40
0.8684602457892913
 40
0.9008465382431833
 40
0.9334665246307081
 40
0.9662575752981233
 40
1.0
 40
1.0
 40
1.0
 40
1.0
 10
931.5848793450713
 20
855.8459919771741
 30
0.0
 10
931.5856291008598
 20
855.9742145777096
 30
0.0
 10
931.5870855122857
 20
856.2232888274181
 30
0.0
 10
931.6032876172966
 20
856.5862251521422
 30
0.0
 10
931.630202685441
 20
856.9267058127026
 30
0.0
 10
931.6670881090987
 20
857.2447471065047
 30
0.0
 10
931.7119749210384
 20
857.540431139688
 30
0.0
 10
931.77189603327
 20
857.8129677274283
 30
0.0
 10
931.8400395821042
 20
858.0636182568295
 30
0.0
 10
931.9190166010995
 20
858.2932000819176
 30
0.0
 10
932.0081315474272
 20
858.504806260254
 30
0.0
 10
932.1051241433635
 20
858.7023495774968
 30
0.0
 10
932.2138436734743
 20
858.8855311371307
 30
0.0
 10
932.3280766173077
 20
859.0572746580905
 30
0.0
 10
932.4524470667428
 20
859.2147688176158
 30
0.0
 10
932.583415730668
 20
859.3602377605152
 30
0.0
 10
932.7260943049929
 20
859.490319475861
 30
0.0
 10
932.8756326096178
 20
859.6088253098842
 30
0.0
 10
933.0333845282274
 20
859.7127098165629
 30
0.0
 10
933.1948534794119
 20
859.8042132191132
 30
0.0
 10
933.3611508642256
 20
859.8823843442734
 30
0.0
 10
933.5327307108494
 20
859.9438481976666
 30
0.0
 10
933.7080508431686
 20
859.9946158474327
 30
0.0
 10
933.887724138463
 20
860.0293334420534
 30
0.0
 10
934.0720472560317
 20
860.0511778043149
 30
0.0
 10
934.1964619641418
 20
860.053266187721
 30
0.0
 10
934.2595588322507
 20
860.0543253105075
 30
0.0
  0
SPLINE
  5
DF
330
1F
100
AcDbEntity
  8
0
  6
Continuous
 62
     7
370
    25
100
AcDbSpline
210
0.0
220
0.0
230
1.0
 70
     8
 71
     3
 72
    31
 73
    27
 74
     0
 42
0.00000001
 43
0.00000001
 40
0.0
 40
0.0
 40
0.0
 40
0.0
 40
0.033787146346991
 40
0.0666216577242936
 40
0.0992848780959716
 40
0.1313611650426506
 40
0.1635851875953425
 40
0.196103926987068
 40
0.2289022543238174
 40
0.2621580559050071
 40
0.2959912222583152
 40
0.330217845724799
 40
0.3650598258919532
 40
0.4009507373401077
 40
0.4376203820767376
 40
0.4757075294370924
 40
0.5153806916250492
 40
0.5564135414931645
 40
0.5997648298727317
 40
0.6464241555840872
 40
0.6964314445175672
 40
0.7497815178015583
 40
0.8065733069755329
 40
0.8674355315654002
 40
0.9318867532508747
 40
1.0
 40
1.0
 40
1.0
 40
1.0
 10
934.2595588322507
 20
851.6440689002511
 30
0.0
 10
934.1964637145702
 20
851.6451348555855
 30
0.0
 10
934.0720524579633
 20
851.6472367114425
 30
0.0
 10
933.8877040569589
 20
851.6689823834155
 30
0.0
 10
933.7087727576676
 20
851.7039435336151
 30
0.0
 10
933.5343756055817
 20
851.7528957715376
 30
0.0
 10
933.3636178568189
 20
851.8128153974016
 30
0.0
 10
933.1988263444629
 20
851.8908809599226
 30
0.0
 10
933.0381687817413
 20
851.9807874032506
 30
0.0
 10
932.882073796557
 20
852.0831769379666
 30
0.0
 10
932.7334745713232
 20
852.2004836422601
 30
0.0
 10
932.5915349020344
 20
852.3302305878292
 30
0.0
 10
932.4598205726699
 20
852.4756555279375
 30
0.0
 10
932.3372283541161
 20
852.6344622093266
 30
0.0
 10
932.2207161525258
 20
852.8051896203729
 30
0.0
 10
932.1135404420817
 20
852.9901687587625
 30
0.0
 10
932.0144070613547
 20
853.1886661541672
 30
0.0
 10
931.9237933683982
 20
853.4019642357104
 30
0.0
 10
931.8434535660783
 20
853.6331754993898
 30
0.0
 10
931.7724873761048
 20
853.8849450502527
 30
0.0
 10
931.7164550161732
 20
854.1594950756562
 30
0.0
 10
931.6684939754123
 20
854.4546204861828
 30
0.0
 10
931.629809671313
 20
854.7715894699219
 30
0.0
 10
931.6033997848709
 20
855.1105741057776
 30
0.0
 10
931.5870767790749
 20
855.4713631547517
 30
0.0
 10
931.5856251895433
 20
855.7188369246182
 30
0.0
 10
931.5848793450713
 20
855.8459919771741
 30
0.0
  0
SPLINE
  5
E0
330
1F
100
AcDbEntity
  8
0
  6
Continuous
 62
     7
370
    25
100
AcDbSpline
210
0.0
220
0.0
230
1.0
 70
     8
 71
     3
 72
    31
 73
    27
 74
     0
 42
0.00000001
 43
0.00000001
 40
0.0
 40
0.0
 40
0.0
 40
0.0
 40
0.0650632896172782
 40
0.1267731664665232
 40
0.1855157632260794
 40
0.2407646791677157
 40
0.2929797960235988
 40
0.3422503727797678
 40
0.3889192861856594
 40
0.4327756640583106
 40
0.4746284326311173
 40
0.5147746906379522
 40
0.5536058934984418
 40
0.591426406431174
 40
0.6280281199460673
 40
0.66380363411032
 40
0.6989843361316631
 40
0.7335914893067046
 40
0.7676284691511387
 40
0.8012083477865914
 40
0.8342638397266224
 40
0.866980694728776
 40
0.8997197415181601
 40
0.9327019124985377
 40
0.9661758834327493
 40
0.9999999999999999
 40
0.9999999999999999
 40
0.9999999999999999
 40
0.9999999999999999
 10
937.0207767809687
 20
855.8459919771741
 30
0.0
 10
937.0192874448684
 20
855.7236516161664
 30
0.0
 10
937.0163855342136
 20
855.4852764119177
 30
0.0
 10
937.001348490173
 20
855.1366341826154
 30
0.0
 10
936.9717287617644
 20
854.8074957979328
 30
0.0
 10
936.9346773599159
 20
854.4970718837416
 30
0.0
 10
936.8833608731194
 20
854.2066544692661
 30
0.0
 10
936.8202633502593
 20
853.9352385870537
 30
0.0
 10
936.750205469524
 20
853.6816521375329
 30
0.0
 10
936.6637259401301
 20
853.4479725681387
 30
0.0
 10
936.5690728879079
 20
853.2309400587335
 30
0.0
 10
936.4660895823641
 20
853.0282722911227
 30
0.0
 10
936.3557585513112
 20
852.838177907855
 30
0.0
 10
936.23555570559
 20
852.662178486298
 30
0.0
 10
936.1074336182838
 20
852.4990272701314
 30
0.0
 10
935.9686501010427
 20
852.3516041326423
 30
0.0
 10
935.8231173350953
 20
852.2163568824408
 30
0.0
 10
935.6690318131891
 20
852.0960103053844
 30
0.0
 10
935.5080911246584
 20
851.9906736090727
 30
0.0
 10
935.3436132345444
 20
851.896470522472
 30
0.0
 10
935.1726797868936
 20
851.8205100766437
 30
0.0
 10
934.9991644663689
 20
851.7552871258375
 30
0.0
 10
934.8205853438205
 20
851.7054575215262
 30
0.0
 10
934.6371650222446
 20
851.6710029946221
 30
0.0
 10
934.449836482979
 20
851.6468387695826
 30
0.0
 10
934.3232043342219
 20
851.6449953870105
 30
0.0
 10
934.2595588322507
 20
851.6440689002511
 30
0.0
  0
LINE
  5
E1
330
1F
100
AcDbEntity
  8
0
  6
Continuous
 62
     7
370
    25
100
AcDbLine
 10
947.3797511399
 20
856.4645817208
 30
0.0
 11
947.8621229348
 21
856.4645817208
 31
0.0
  0
SPLINE
  5
E2
330
1F
100
AcDbEntity
  8
0
  6
Continuous
 62
     7
370
    25
100
AcDbSpline
210
0.0
220
0.0
230
1.0
 70
     8
 71
     3
 72
    23
 73
    19
 74
     0
 42
0.00000001
 43
0.00000001
 40
0.0
 40
0.0
 40
0.0
 40
0.0
 40
0.0723010339955061
 40
0.1397003317393863
 40
0.2022885114847731
 40
0.2605995332222011
 40
0.3131903291553334
 40
0.3617389329854281
 40
0.405706475632223
 40
0.4455399848948731
 40
0.5188319558616092
 40
0.5897782395835778
 40
0.6588674786561485
 40
0.7284304780610662
 40
0.7972827036081003
 40
0.8648153774014441
 40
0.9313637528792688
 40
0.9999999999999999
 40
0.9999999999999999
 40
0.9999999999999999
 40
0.9999999999999999
 10
947.8621229348149
 20
856.4645817207639
 30
0.0
 10
947.9326344670811
 20
856.4654958304931
 30
0.0
 10
948.068877116801
 20
856.4672620767741
 30
0.0
 10
948.2661797375068
 20
856.4723215443443
 30
0.0
 10
948.4493226362408
 20
856.486488500726
 30
0.0
 10
948.6179896832671
 20
856.5006513854223
 30
0.0
 10
948.7719152694765
 20
856.5236790143681
 30
0.0
 10
948.9107583814813
 20
856.5510895810248
 30
0.0
 10
949.0366980316265
 20
856.5800790783882
 30
0.0
 10
949.1819312785669
 20
856.6293807627319
 30
0.0
 10
949.3466694464712
 20
856.7022440202952
 30
0.0
 10
949.5222879702527
 20
856.8153225028551
 30
0.0
 10
949.6771096150272
 20
856.9500067387388
 30
0.0
 10
949.8078460440998
 20
857.1054146513217
 30
0.0
 10
949.9148436910224
 20
857.2765373618545
 30
0.0
 10
949.9891607542321
 20
857.4606445171339
 30
0.0
 10
950.0395545466495
 20
857.6531476760723
 30
0.0
 10
950.0441066183231
 20
857.785303682449
 30
0.0
 10
950.0464178066098
 20
857.8524022335845
 30
0.0
  0
SPLINE
  5
E3
330
1F
100
AcDbEntity
  8
0
  6
Continuous
 62
     7
370
    25
100
AcDbSpline
210
0.0
220
0.0
230
1.0
 70
     8
 71
     3
 72
    23
 73
    19
 74
     0
 42
0.00000001
 43
0.00000001
 40
0.0
 40
0.0
 40
0.0
 40
0.0
 40
0.0570031325129265
 40
0.1118178691207245
 40
0.1644023722182133
 40
0.2158698048987947
 40
0.2668411100818684
 40
0.3174789632053574
 40
0.3699021362727589
 40
0.4234004494436375
 40
0.4797183982994501
 40
0.5392414966442969
 40
0.6024306889434231
 40
0.6710295461473359
 40
0.7444847975608481
 40
0.8234539713786851
 40
0.9087403127306665
 40
1.0
 40
1.0
 40
1.0
 40
1.0
 10
950.0464178066098
 20
857.8524022335845
 30
0.0
 10
950.0452151090468
 20
857.896803997044
 30
0.0
 10
950.0428558864435
 20
857.9839029047071
 30
0.0
 10
950.0235340519179
 20
858.1108728570646
 30
0.0
 10
949.9906938817794
 20
858.230287148521
 30
0.0
 10
949.9485126400876
 20
858.3437822578336
 30
0.0
 10
949.8895670658789
 20
858.4478093440514
 30
0.0
 10
949.8201648640458
 20
858.5459652199252
 30
0.0
 10
949.7363118576692
 20
858.6349072050609
 30
0.0
 10
949.6408665715984
 20
858.7180374869247
 30
0.0
 10
949.5311325764935
 20
858.7917392647487
 30
0.0
 10
949.4071753380495
 20
858.8562895805741
 30
0.0
 10
949.2673177904683
 20
858.9082684986994
 30
0.0
 10
949.1139169790821
 20
858.953791132934
 30
0.0
 10
948.9446116362282
 20
858.985764375947
 30
0.0
 10
948.7613555141513
 20
859.0124006905919
 30
0.0
 10
948.5626475849468
 20
859.0259612437452
 30
0.0
 10
948.4251730648881
 20
859.0277563588872
 30
0.0
 10
948.354110114302
 20
859.0286842848665
 30
0.0
  0
LINE
  5
E4
330
1F
100
AcDbEntity
  8
0
  6
Continuous
 62
     7
370
    25
100
AcDbLine
 10
948.3541101143
 20
859.0286842849
 30
0.0
 11
947.3797511399
 21
859.0286842849
 31
0.0
  0
LINE
  5
E5
330
1F
100
AcDbEntity
  8
0
  6
Continuous
 62
     7
370
    25
100
AcDbLine
 10
947.3797511399
 20
859.0286842849
 30
0.0
 11
947.3797511399
 21
856.4645817208
 31
0.0
  0
SPLINE
  5
E6
330
1F
100
AcDbEntity
  8
0
  6
Continuous
 62
     7
370
    25
100
AcDbSpline
210
0.0
220
0.0
230
1.0
 70
     8
 71
     3
 72
    19
 73
    15
 74
     0
 42
0.00000001
 43
0.00000001
 40
0.0
 40
0.0
 40
0.0
 40
0.0
 40
0.1128134007444572
 40
0.2253938839207276
 40
0.3395948145626994
 40
0.4596754102248647
 40
0.5217351900879328
 40
0.5839258387389143
 40
0.6481741447653692
 40
0.7138810381130626
 40
0.7810044549073875
 40
0.8514509275565524
 40
0.9240506926641744
 40
1.0
 40
1.0
 40
1.0
 40
1.0
 10
934.2835972937893
 20
852.4645817207639
 30
0.0
 10
934.3721862575738
 20
852.4682337911903
 30
0.0
 10
934.5491812819961
 20
852.4755303918807
 30
0.0
 10
934.8077728137545
 20
852.545927505879
 30
0.0
 10
935.0588134310855
 20
852.6521435960817
 30
0.0
 10
935.25554929458
 20
852.7777378941829
 30
0.0
 10
935.4052236797261
 20
852.8973455043572
 30
0.0
 10
935.5124625142539
 20
852.9993218433582
 30
0.0
 10
935.6108900535299
 20
853.1135066829156
 30
0.0
 10
935.7042433674834
 20
853.2367050735783
 30
0.0
 10
935.789864111883
 20
853.3712707516898
 30
0.0
 10
935.8677227123292
 20
853.516556638012
 30
0.0
 10
935.9387703638611
 20
853.6729661875257
 30
0.0
 10
935.9792481831759
 20
853.7821541626475
 30
0.0
 10
935.9999434476354
 20
853.8379791566614
 30
0.0
  0
SPLINE
  5
E7
330
1F
100
AcDbEntity
  8
0
  6
Continuous
 62
     7
370
    25
100
AcDbSpline
210
0.0
220
0.0
230
1.0
 70
     8
 71
     3
 72
    15
 73
    11
 74
     0
 42
0.00000001
 43
0.00000001
 40
0.0
 40
0.0
 40
0.0
 40
0.0
 40
0.1105883385953369
 40
0.224541754053591
 40
0.3425034940501052
 40
0.464324098417359
 40
0.5907560327017657
 40
0.7222274753555104
 40
0.8588428362087219
 40
1.0
 40
1.0
 40
1.0
 40
1.0
 10
935.9999434476354
 20
853.8379791566614
 30
0.0
 10
936.0240617740212
 20
853.9093614182988
 30
0.0
 10
936.0730323199239
 20
854.0542980222838
 30
0.0
 10
936.1361449468285
 20
854.2791292270392
 30
0.0
 10
936.1858487164369
 20
854.5150212588974
 30
0.0
 10
936.2305649810071
 20
854.7605643828251
 30
0.0
 10
936.2610862516296
 20
855.0175694137074
 30
0.0
 10
936.2856526819912
 20
855.285241148372
 30
0.0
 10
936.3001228235667
 20
855.5637814049102
 30
0.0
 10
936.3019165403011
 20
855.7530270990708
 30
0.0
 10
936.30282806302
 20
855.8491971053793
 30
0.0
  0
SPLINE
  5
E8
330
1F
100
AcDbEntity
  8
0
  6
Continuous
 62
     7
370
    25
100
AcDbSpline
210
0.0
220
0.0
230
1.0
 70
     8
 71
     3
 72
    27
 73
    23
 74
     0
 42
0.00000001
 43
0.00000001
 40
0.0
 40
0.0
 40
0.0
 40
0.0
 40
0.0656811979906367
 40
0.1284864641740656
 40
0.1881751303280079
 40
0.2451061306699844
 40
0.2994484245294763
 40
0.3508229360093826
 40
0.3999416805337762
 40
0.4466717436323702
 40
0.4912545333734976
 40
0.5333763442704372
 40
0.5738527549682232
 40
0.6125263117194526
 40
0.6495971364453285
 40
0.68553204155385
 40
0.7201057860682002
 40
0.7538376629736507
 40
0.8189254160467137
 40
0.8804934616501641
 40
0.9403113338460578
 40
1.0
 40
1.0
 40
1.0
 40
1.0
 10
936.30282806302
 20
855.8491971053793
 30
0.0
 10
936.3015704876306
 20
855.9453515568491
 30
0.0
 10
936.2991104013321
 20
856.1334502192047
 30
0.0
 10
936.2897070008723
 20
856.4089203464324
 30
0.0
 10
936.2654245448906
 20
856.6705609427962
 30
0.0
 10
936.2384551303433
 20
856.9194991660289
 30
0.0
 10
936.1986900535612
 20
857.1543570007822
 30
0.0
 10
936.1558150664064
 20
857.3771005556537
 30
0.0
 10
936.0982122954572
 20
857.5849703266693
 30
0.0
 10
936.036681381231
 20
857.781220799153
 30
0.0
 10
935.9662576200163
 20
857.9636222951548
 30
0.0
 10
935.8887359417133
 20
858.1330252354107
 30
0.0
 10
935.8059433502413
 20
858.2902474634262
 30
0.0
 10
935.7160182291915
 20
858.4348576156011
 30
0.0
 10
935.6200280964708
 20
858.5675034279694
 30
0.0
 10
935.5154394125907
 20
858.6855253583856
 30
0.0
 10
935.4064008461659
 20
858.7925812854909
 30
0.0
 10
935.2536758499975
 20
858.9147814434832
 30
0.0
 10
935.0537346161681
 20
859.0393796045875
 30
0.0
 10
934.8049445650996
 20
859.154044198554
 30
0.0
 10
934.5460402353827
 20
859.2198917245446
 30
0.0
 10
934.3710151974582
 20
859.2291755806317
 30
0.0
 10
934.2835972937893
 20
859.2338124899948
 30
0.0
  0
SPLINE
  5
E9
330
1F
100
AcDbEntity
  8
0
  6
Continuous
 62
     7
370
    25
100
AcDbSpline
210
0.0
220
0.0
230
1.0
 70
     8
 71
     3
 72
    27
 73
    23
 74
     0
 42
0.00000001
 43
0.00000001
 40
0.0
 40
0.0
 40
0.0
 40
0.0
 40
0.0603866193110626
 40
0.1208832485859964
 40
0.1827546186251401
 40
0.2478110297583505
 40
0.2812991000432497
 40
0.3150876241506567
 40
0.3497023955502757
 40
0.3848565811185573
 40
0.4209661972261024
 40
0.4585111882611395
 40
0.4971747221273131
 40
0.5376020478662706
 40
0.5805030184200131
 40
0.6274675400267061
 40
0.6783882095592453
 40
0.733983220592561
 40
0.7937467045508348
 40
0.8577136721607319
 40
0.9266978643613873
 40
1.0
 40
1.0
 40
1.0
 40
1.0
 10
934.2835972937893
 20
859.2338124899948
 30
0.0
 10
934.195115940448
 20
859.2291691833724
 30
0.0
 10
934.0179920419221
 20
859.2198741111348
 30
0.0
 10
933.7563967168323
 20
859.1542895314968
 30
0.0
 10
933.5056439130784
 20
859.0399741807822
 30
0.0
 10
933.3062313995268
 20
858.9143687580053
 30
0.0
 10
933.1533998875094
 20
858.7947383318531
 30
0.0
 10
933.0457823026484
 20
858.6909978654337
 30
0.0
 10
932.9448767661506
 20
858.577520712599
 30
0.0
 10
932.8519220229789
 20
858.4531734786553
 30
0.0
 10
932.7648608042538
 20
858.3195383533545
 30
0.0
 10
932.6849042040807
 20
858.1755640339826
 30
0.0
 10
932.6128645933926
 20
858.020520915753
 30
0.0
 10
932.5463856535522
 20
857.854540491938
 30
0.0
 10
932.4879335666352
 20
857.672641190371
 30
0.0
 10
932.4397187935381
 20
857.4720263478716
 30
0.0
 10
932.3951769578355
 20
857.2515420237821
 30
0.0
 10
932.3636449146342
 20
857.0098974341931
 30
0.0
 10
932.3356134728931
 20
856.7486810836349
 30
0.0
 10
932.3175989632879
 20
856.4669043562536
 30
0.0
 10
932.3035846605011
 20
856.1650429153339
 30
0.0
 10
932.3030853133862
 20
855.9565876958992
 30
0.0
 10
932.30282806302
 20
855.8491971053793
 30
0.0
  0
SPLINE
  5
EA
330
1F
100
AcDbEntity
  8
0
  6
Continuous
 62
     7
370
    25
100
AcDbSpline
210
0.0
220
0.0
230
1.0
 70
     8
 71
     3
 72
    27
 73
    23
 74
     0
 42
0.00000001
 43
0.00000001
 40
0.0
 40
0.0
 40
0.0
 40
0.0
 40
0.0729510658758663
 40
0.1415836941865471
 40
0.2059264601708678
 40
0.2653013571846064
 40
0.3205972327139289
 40
0.3718165030988104
 40
0.418789769709452
 40
0.4616987286157648
 40
0.5021335821035656
 40
0.5408043152926488
 40
0.5781805253279672
 40
0.6142968652075143
 40
0.649678243264788
 40
0.6842994600896384
 40
0.718358952772361
 40
0.7520808646475975
 40
0.817652438602386
 40
0.8797220764054368
 40
0.9399655597309876
 40
1.0
 40
1.0
 40
1.0
 40
1.0
 10
932.30282806302
 20
855.8491971053793
 30
0.0
 10
932.3031010848887
 20
855.7423429366848
 30
0.0
 10
932.303630966725
 20
855.5349599771439
 30
0.0
 10
932.3174737109015
 20
855.2336039520559
 30
0.0
 10
932.3363313840432
 20
854.9525289147596
 30
0.0
 10
932.3606543490378
 20
854.691377974268
 30
0.0
 10
932.3967753742402
 20
854.4510350885313
 30
0.0
 10
932.4372480321091
 20
854.2298472415251
 30
0.0
 10
932.4865008083816
 20
854.0289849852651
 30
0.0
 10
932.5447751349348
 20
853.847069989369
 30
0.0
 10
932.6111502135484
 20
853.6810149756653
 30
0.0
 10
932.68362075908
 20
853.5264979125171
 30
0.0
 10
932.7614738400055
 20
853.3816934863781
 30
0.0
 10
932.8486033269837
 20
853.2479023815231
 30
0.0
 10
932.9434949000786
 20
853.1246882922137
 30
0.0
 10
933.0440052066785
 20
853.0098703897627
 30
0.0
 10
933.153885399232
 20
852.907477289567
 30
0.0
 10
933.3058939536164
 20
852.7846730494997
 30
0.0
 10
933.5065716094497
 20
852.6577721724035
 30
0.0
 10
933.7594183642636
 20
852.5472668242169
 30
0.0
 10
934.0192319665072
 20
852.4778212095144
 30
0.0
 10
934.1955776809915
 20
852.4689897673313
 30
0.0
 10
934.2835972937893
 20
852.4645817207639
 30
0.0
  0
SPLINE
  5
EB
330
1F
100
AcDbEntity
  8
0
  6
Continuous
 62
     7
370
    25
100
AcDbSpline
210
0.0
220
0.0
230
1.0
 70
     8
 71
     3
 72
    19
 73
    15
 74
     0
 42
0.00000001
 43
0.00000001
 40
0.0
 40
0.0
 40
0.0
 40
0.0
 40
0.1128134007444587
 40
0.2253938839207276
 40
0.3395948145626994
 40
0.4596754102248647
 40
0.5217351900879328
 40
0.5839258387389143
 40
0.6481741447653692
 40
0.7138810381130626
 40
0.7810044549073875
 40
0.8514509275565524
 40
0.9240506926641749
 40
1.0
 40
1.0
 40
1.0
 40
1.0
 10
928.1297511399431
 20
852.4645817207639
 30
0.0
 10
928.2183401037277
 20
852.4682337911903
 30
0.0
 10
928.3953351281499
 20
852.4755303918807
 30
0.0
 10
928.6539266599083
 20
852.545927505879
 30
0.0
 10
928.9049672772393
 20
852.6521435960817
 30
0.0
 10
929.1017031407338
 20
852.7777378941829
 30
0.0
 10
929.2513775258799
 20
852.8973455043572
 30
0.0
 10
929.3586163604077
 20
852.9993218433582
 30
0.0
 10
929.4570438996838
 20
853.1135066829156
 30
0.0
 10
929.5503972136372
 20
853.2367050735783
 30
0.0
 10
929.636017958037
 20
853.3712707516898
 30
0.0
 10
929.7138765584831
 20
853.516556638012
 30
0.0
 10
929.7849242100149
 20
853.6729661875257
 30
0.0
 10
929.8254020293298
 20
853.7821541626475
 30
0.0
 10
929.8460972937893
 20
853.8379791566614
 30
0.0
  0
SPLINE
  5
EC
330
1F
100
AcDbEntity
  8
0
  6
Continuous
 62
     7
370
    25
100
AcDbSpline
210
0.0
220
0.0
230
1.0
 70
     8
 71
     3
 72
    27
 73
    23
 74
     0
 42
0.00000001
 43
0.00000001
 40
0.0
 40
0.0
 40
0.0
 40
0.0
 40
0.0729510658758663
 40
0.1415836941865472
 40
0.2059264601708678
 40
0.2653013571846064
 40
0.3205972327139291
 40
0.3718165030988105
 40
0.4187897697094521
 40
0.4616987286157648
 40
0.5021335821035656
 40
0.5408043152926488
 40
0.5781805253279676
 40
0.6142968652075143
 40
0.649678243264788
 40
0.6842994600896385
 40
0.7183589527723611
 40
0.7520808646475976
 40
0.8176524386023869
 40
0.8797220764054375
 40
0.9399655597309876
 40
1.0
 40
1.0
 40
1.0
 40
1.0
 10
926.1489819091738
 20
855.8491971053793
 30
0.0
 10
926.1492549310425
 20
855.7423429366848
 30
0.0
 10
926.1497848128788
 20
855.5349599771439
 30
0.0
 10
926.1636275570554
 20
855.2336039520559
 30
0.0
 10
926.182485230197
 20
854.9525289147596
 30
0.0
 10
926.2068081951917
 20
854.691377974268
 30
0.0
 10
926.242929220394
 20
854.4510350885313
 30
0.0
 10
926.283401878263
 20
854.2298472415251
 30
0.0
 10
926.3326546545354
 20
854.0289849852651
 30
0.0
 10
926.3909289810887
 20
853.847069989369
 30
0.0
 10
926.4573040597023
 20
853.6810149756653
 30
0.0
 10
926.5297746052338
 20
853.5264979125171
 30
0.0
 10
926.6076276861594
 20
853.3816934863781
 30
0.0
 10
926.6947571731375
 20
853.2479023815231
 30
0.0
 10
926.7896487462324
 20
853.1246882922137
 30
0.0
 10
926.8901590528325
 20
853.0098703897627
 30
0.0
 10
927.0000392453859
 20
852.907477289567
 30
0.0
 10
927.1520477997703
 20
852.7846730494997
 30
0.0
 10
927.3527254556035
 20
852.6577721724035
 30
0.0
 10
927.6055722104174
 20
852.5472668242169
 30
0.0
 10
927.865385812661
 20
852.4778212095144
 30
0.0
 10
928.0417315271453
 20
852.4689897673313
 30
0.0
 10
928.1297511399431
 20
852.4645817207639
 30
0.0
  0
SPLINE
  5
ED
330
1F
100
AcDbEntity
  8
0
  6
Continuous
 62
     7
370
    25
100
AcDbSpline
210
0.0
220
0.0
230
1.0
 70
     8
 71
     3
 72
    15
 73
    11
 74
     0
 42
0.00000001
 43
0.00000001
 40
0.0
 40
0.0
 40
0.0
 40
0.0
 40
0.1105883385953369
 40
0.224541754053591
 40
0.3425034940501052
 40
0.464324098417359
 40
0.5907560327017657
 40
0.7222274753555105
 40
0.8588428362087219
 40
1.0
 40
1.0
 40
1.0
 40
1.0
 10
929.8460972937893
 20
853.8379791566614
 30
0.0
 10
929.870215620175
 20
853.9093614182988
 30
0.0
 10
929.9191861660778
 20
854.0542980222838
 30
0.0
 10
929.9822987929823
 20
854.2791292270392
 30
0.0
 10
930.0320025625908
 20
854.5150212588974
 30
0.0
 10
930.0767188271609
 20
854.7605643828251
 30
0.0
 10
930.1072400977835
 20
855.0175694137074
 30
0.0
 10
930.131806528145
 20
855.285241148372
 30
0.0
 10
930.1462766697206
 20
855.5637814049101
 30
0.0
 10
930.1480703864551
 20
855.7530270990708
 30
0.0
 10
930.1489819091738
 20
855.8491971053793
 30
0.0
  0
SPLINE
  5
EE
330
1F
100
AcDbEntity
  8
0
  6
Continuous
 62
     7
370
    25
100
AcDbSpline
210
0.0
220
0.0
230
1.0
 70
     8
 71
     3
 72
    27
 73
    23
 74
     0
 42
0.00000001
 43
0.00000001
 40
0.0
 40
0.0
 40
0.0
 40
0.0
 40
0.0656811979906367
 40
0.1284864641740656
 40
0.1881751303280078
 40
0.2451061306699843
 40
0.2994484245294762
 40
0.3508229360093825
 40
0.3999416805337758
 40
0.4466717436323698
 40
0.4912545333734973
 40
0.5333763442704369
 40
0.5738527549682232
 40
0.6125263117194522
 40
0.6495971364453285
 40
0.6855320415538501
 40
0.7201057860682001
 40
0.7538376629736501
 40
0.8189254160467135
 40
0.8804934616501632
 40
0.940311333846057
 40
1.0
 40
1.0
 40
1.0
 40
1.0
 10
930.1489819091738
 20
855.8491971053793
 30
0.0
 10
930.1477243337844
 20
855.9453515568491
 30
0.0
 10
930.1452642474859
 20
856.1334502192047
 30
0.0
 10
930.1358608470262
 20
856.4089203464324
 30
0.0
 10
930.1115783910445
 20
856.6705609427962
 30
0.0
 10
930.0846089764971
 20
856.9194991660289
 30
0.0
 10
930.044843899715
 20
857.154357000782
 30
0.0
 10
930.0019689125602
 20
857.3771005556537
 30
0.0
 10
929.9443661416111
 20
857.5849703266693
 30
0.0
 10
929.8828352273848
 20
857.781220799153
 30
0.0
 10
929.8124114661701
 20
857.9636222951548
 30
0.0
 10
929.7348897878671
 20
858.1330252354107
 30
0.0
 10
929.6520971963951
 20
858.2902474634262
 30
0.0
 10
929.5621720753453
 20
858.4348576156011
 30
0.0
 10
929.4661819426246
 20
858.5675034279694
 30
0.0
 10
929.3615932587446
 20
858.6855253583856
 30
0.0
 10
929.2525546923197
 20
858.7925812854909
 30
0.0
 10
929.0998296961515
 20
858.9147814434831
 30
0.0
 10
928.899888462322
 20
859.0393796045875
 30
0.0
 10
928.6510984112534
 20
859.154044198554
 30
0.0
 10
928.3921940815366
 20
859.2198917245446
 30
0.0
 10
928.217169043612
 20
859.2291755806317
 30
0.0
 10
928.1297511399431
 20
859.2338124899948
 30
0.0
  0
SPLINE
  5
EF
330
1F
100
AcDbEntity
  8
0
  6
Continuous
 62
     7
370
    25
100
AcDbSpline
210
0.0
220
0.0
230
1.0
 70
     8
 71
     3
 72
    27
 73
    23
 74
     0
 42
0.00000001
 43
0.00000001
 40
0.0
 40
0.0
 40
0.0
 40
0.0
 40
0.0603866193110626
 40
0.1208832485859964
 40
0.1827546186251395
 40
0.2478110297583506
 40
0.2812991000432497
 40
0.3150876241506568
 40
0.3497023955502758
 40
0.3848565811185569
 40
0.4209661972261021
 40
0.4585111882611392
 40
0.4971747221273131
 40
0.5376020478662706
 40
0.5805030184200131
 40
0.6274675400267059
 40
0.6783882095592452
 40
0.733983220592561
 40
0.7937467045508348
 40
0.8577136721607319
 40
0.9266978643613873
 40
1.0
 40
1.0
 40
1.0
 40
1.0
 10
928.1297511399431
 20
859.2338124899948
 30
0.0
 10
928.0412697866018
 20
859.2291691833724
 30
0.0
 10
927.8641458880759
 20
859.2198741111348
 30
0.0
 10
927.6025505629862
 20
859.1542895314968
 30
0.0
 10
927.3517977592322
 20
859.0399741807822
 30
0.0
 10
927.1523852456806
 20
858.9143687580053
 30
0.0
 10
926.9995537336632
 20
858.7947383318531
 30
0.0
 10
926.8919361488022
 20
858.6909978654337
 30
0.0
 10
926.7910306123046
 20
858.577520712599
 30
0.0
 10
926.6980758691328
 20
858.4531734786553
 30
0.0
 10
926.6110146504076
 20
858.3195383533545
 30
0.0
 10
926.5310580502346
 20
858.1755640339826
 30
0.0
 10
926.4590184395465
 20
858.020520915753
 30
0.0
 10
926.3925394997061
 20
857.854540491938
 30
0.0
 10
926.334087412789
 20
857.672641190371
 30
0.0
 10
926.2858726396919
 20
857.4720263478716
 30
0.0
 10
926.2413308039893
 20
857.2515420237821
 30
0.0
 10
926.209798760788
 20
857.0098974341932
 30
0.0
 10
926.1817673190469
 20
856.7486810836349
 30
0.0
 10
926.1637528094417
 20
856.4669043562536
 30
0.0
 10
926.1497385066549
 20
856.1650429153339
 30
0.0
 10
926.1492391595401
 20
855.9565876958992
 30
0.0
 10
926.1489819091738
 20
855.8491971053793
 30
0.0
  0
LINE
  5
F0
330
1F
100
AcDbEntity
  8
0
  6
Continuous
 62
     7
370
    25
100
AcDbLine
 10
957.4310331912
 20
859.0286842849
 30
0.0
 11
957.4310331912
 21
856.3620176182
 31
0.0
  0
LINE
  5
F1
330
1F
100
AcDbEntity
  8
0
  6
Continuous
 62
     7
370
    25
100
AcDbLine
 10
957.4310331912
 20
856.3620176182
 30
0.0
 11
958.8316742169
 21
856.3443894131
 31
0.0
  0
SPLINE
  5
F2
330
1F
100
AcDbEntity
  8
0
  6
Continuous
 62
     7
370
    25
100
AcDbSpline
210
0.0
220
0.0
230
1.0
 70
     8
 71
     3
 72
    23
 73
    19
 74
     0
 42
0.00000001
 43
0.00000001
 40
0.0
 40
0.0
 40
0.0
 40
0.0
 40
0.0725383714064934
 40
0.140033830501253
 40
0.2024956806336236
 40
0.2605750556694149
 40
0.3132283378464649
 40
0.3615831937532644
 40
0.4048783612951277
 40
0.4441274373055401
 40
0.5163996933371979
 40
0.5865066709977654
 40
0.6550853737960498
 40
0.7243837831470357
 40
0.7939735287256623
 40
0.8616376821817783
 40
0.9301109423064015
 40
1.0
 40
1.0
 40
1.0
 40
1.0
 10
958.8316742168662
 20
856.3443894130717
 30
0.0
 10
958.9000626187242
 20
856.3443540677205
 30
0.0
 10
959.0320850185706
 20
856.3442858342487
 30
0.0
 10
959.2227963859608
 20
856.353394916487
 30
0.0
 10
959.3997318997963
 20
856.3639104197198
 30
0.0
 10
959.5623480720782
 20
856.3793068162045
 30
0.0
 10
959.71071820804
 20
856.4010696904539
 30
0.0
 10
959.8450897026102
 20
856.423039377124
 30
0.0
 10
959.9644206349413
 20
856.4548230630635
 30
0.0
 10
960.1040759532633
 20
856.4976186496672
 30
0.0
 10
960.2596950332103
 20
856.5706074854637
 30
0.0
 10
960.4289922869775
 20
856.6765500913006
 30
0.0
 10
960.5724679129233
 20
856.8115917100437
 30
0.0
 10
960.6966240198069
 20
856.9634267530756
 30
0.0
 10
960.7951517408089
 20
857.1323390489066
 30
0.0
 10
960.8672797232466
 20
857.3130680471374
 30
0.0
 10
960.9096595115062
 20
857.5037602746156
 30
0.0
 10
960.915342239862
 20
857.6342474491419
 30
0.0
 10
960.9182126784046
 20
857.7001586438408
 30
0.0
  0
SPLINE
  5
F3
330
1F
100
AcDbEntity
  8
0
  6
Continuous
 62
     7
370
    25
100
AcDbSpline
210
0.0
220
0.0
230
1.0
 70
     8
 71
     3
 72
    23
 73
    19
 74
     0
 42
0.00000001
 43
0.00000001
 40
0.0
 40
0.0
 40
0.0
 40
0.0
 40
0.0700437554181535
 40
0.1392383167626478
 40
0.2081974550441388
 40
0.2791733744245656
 40
0.3499868116864767
 40
0.4183538456626547
 40
0.487609583757151
 40
0.5574110731083888
 40
0.5953301567632416
 40
0.6379640515652192
 40
0.6859127777112931
 40
0.7381851646524784
 40
0.7961026471849414
 40
0.8585165439469269
 40
0.9266577264685187
 40
1.0
 40
1.0
 40
1.0
 40
1.0
 10
960.9182126784046
 20
857.7001586438408
 30
0.0
 10
960.915326629272
 20
857.7644752460096
 30
0.0
 10
960.90958952079
 20
857.8923286909373
 30
0.0
 10
960.8669475478513
 20
858.0797087151881
 30
0.0
 10
960.795291973306
 20
858.258533182358
 30
0.0
 10
960.695962614415
 20
858.4253288060229
 30
0.0
 10
960.5754114602191
 20
858.5766175008006
 30
0.0
 10
960.4352986759725
 20
858.7080395055157
 30
0.0
 10
960.2759540786383
 20
858.8136891117582
 30
0.0
 10
960.1277295505635
 20
858.8818794698124
 30
0.0
 10
959.9960696967864
 20
858.9235143850881
 30
0.0
 10
959.8817109313378
 20
858.9526454489904
 30
0.0
 10
959.7525893896546
 20
858.9759039775502
 30
0.0
 10
959.6086630364882
 20
858.9947371267987
 30
0.0
 10
959.45104741619
 20
859.0108593238807
 30
0.0
 10
959.2783884107166
 20
859.0217987004155
 30
0.0
 10
959.0913400832551
 20
859.0282020289561
 30
0.0
 10
958.9614873498496
 20
859.0285196409714
 30
0.0
 10
958.8941742168662
 20
859.0286842848665
 30
0.0
  0
LINE
  5
F4
330
1F
100
AcDbEntity
  8
0
  6
Continuous
 62
     7
370
    25
100
AcDbLine
 10
958.8941742169
 20
859.0286842849
 30
0.0
 11
957.4310331912
 21
859.0286842849
 31
0.0
  0
LINE
  5
F5
330
1F
100
AcDbEntity
  8
0
  6
Continuous
 62
     7
370
    25
100
AcDbLine
 10
947.3797511399
 20
855.6440689003
 30
0.0
 11
947.3797511399
 21
852.6697099259
 31
0.0
  0
LINE
  5
F6
330
1F
100
AcDbEntity
  8
0
  6
Continuous
 62
     7
370
    25
100
AcDbLine
 10
947.3797511399
 20
852.6697099259
 30
0.0
 11
948.4021870374
 21
852.6697099259
 31
0.0
  0
SPLINE
  5
F7
330
1F
100
AcDbEntity
  8
0
  6
Continuous
 62
     7
370
    25
100
AcDbSpline
210
0.0
220
0.0
230
1.0
 70
     8
 71
     3
 72
    23
 73
    19
 74
     0
 42
0.00000001
 43
0.00000001
 40
0.0
 40
0.0
 40
0.0
 40
0.0
 40
0.0725024889330346
 40
0.1397389892678949
 40
0.2017951348259232
 40
0.2598219344148621
 40
0.3122059893845976
 40
0.3607734341243382
 40
0.4045403426007489
 40
0.4436980985527635
 40
0.5168407942439702
 40
0.587874335944282
 40
0.6579654175616318
 40
0.7289693886473126
 40
0.7993077199548838
 40
0.8666357778344737
 40
0.9331163290572759
 40
1.0
 40
1.0
 40
1.0
 40
1.0
 10
948.402187037379
 20
852.6697099258922
 30
0.0
 10
948.4753731537517
 20
852.6705870627991
 30
0.0
 10
948.6164297447854
 20
852.6722776285523
 30
0.0
 10
948.8200896993474
 20
852.6777966104055
 30
0.0
 10
949.0088510794642
 20
852.690350383432
 30
0.0
 10
949.18185253256
 20
852.7101123255205
 30
0.0
 10
949.3409621385731
 20
852.731548780771
 30
0.0
 10
949.4842711740677
 20
852.760374565735
 30
0.0
 10
949.6129413305509
 20
852.7934007612216
 30
0.0
 10
949.762139748241
 20
852.844450297759
 30
0.0
 10
949.9301477671689
 20
852.9237565169983
 30
0.0
 10
950.1112011531932
 20
853.0433318916686
 30
0.0
 10
950.2721753660937
 20
853.185785166578
 30
0.0
 10
950.4088731014232
 20
853.3506558275463
 30
0.0
 10
950.5209027895282
 20
853.5299274319536
 30
0.0
 10
950.6024009725764
 20
853.7199739461313
 30
0.0
 10
950.6526657879344
 20
853.9176551516591
 30
0.0
 10
950.6587507463114
 20
854.0524362089002
 30
0.0
 10
950.6618024219944
 20
854.1200304387127
 30
0.0
  0
SPLINE
  5
F8
330
1F
100
AcDbEntity
  8
0
  6
Continuous
 62
     7
370
    25
100
AcDbSpline
210
0.0
220
0.0
230
1.0
 70
     8
 71
     3
 72
    19
 73
    15
 74
     0
 42
0.00000001
 43
0.00000001
 40
0.0
 40
0.0
 40
0.0
 40
0.0
 40
0.0602873979279692
 40
0.1196023547075216
 40
0.1775033710185429
 40
0.2351426637323308
 40
0.2921325932269357
 40
0.3508712086415661
 40
0.4100978625665962
 40
0.4707315215304479
 40
0.5948287040804158
 40
0.7225788240942896
 40
0.8566913895440168
 40
1.0
 40
1.0
 40
1.0
 40
1.0
 10
950.6618024219944
 20
854.1200304387127
 30
0.0
 10
950.661171326366
 20
854.1623009313186
 30
0.0
 10
950.6599193147384
 20
854.2461600896845
 30
0.0
 10
950.6410379091986
 20
854.3693962478283
 30
0.0
 10
950.6135776353843
 20
854.4887696725352
 30
0.0
 10
950.5780772150814
 20
854.6046045079289
 30
0.0
 10
950.5263755760161
 20
854.7148065110097
 30
0.0
 10
950.4660177588343
 20
854.8215552185222
 30
0.0
 10
950.3952488407893
 20
854.9249917429194
 30
0.0
 10
950.2849764616633
 20
855.0557626079465
 30
0.0
 10
950.124583354189
 20
855.2064300660114
 30
0.0
 10
949.8966821531767
 20
855.3539443569066
 30
0.0
 10
949.6375454721041
 20
855.4729107731066
 30
0.0
 10
949.4495969169132
 20
855.5234238618801
 30
0.0
 10
949.3525075501996
 20
855.5495176181998
 30
0.0
  0
SPLINE
  5
F9
330
1F
100
AcDbEntity
  8
0
  6
Continuous
 62
     7
370
    25
100
AcDbSpline
210
0.0
220
0.0
230
1.0
 70
     8
 71
     3
 72
    15
 73
    11
 74
     0
 42
0.00000001
 43
0.00000001
 40
0.0
 40
0.0
 40
0.0
 40
0.0
 40
0.0793064855229972
 40
0.1719528189279295
 40
0.2770565073915884
 40
0.3947305758644747
 40
0.5261773212767582
 40
0.6713447665976112
 40
0.8292852571892513
 40
1.0
 40
1.0
 40
1.0
 40
1.0
 10
949.3525075501996
 20
855.5495176181998
 30
0.0
 10
949.3135839025372
 20
855.5574149529551
 30
0.0
 10
949.2291894057395
 20
855.5745380036643
 30
0.0
 10
949.0915720790451
 20
855.5926127542687
 30
0.0
 10
948.9344615215541
 20
855.6087157483078
 30
0.0
 10
948.7574949450375
 20
855.6206269658248
 30
0.0
 10
948.5604484510634
 20
855.6329390653632
 30
0.0
 10
948.3429012083533
 20
855.6377272279284
 30
0.0
 10
948.1057416319894
 20
855.6434398224276
 30
0.0
 10
947.941187637933
 20
855.6438538435518
 30
0.0
 10
947.8557126784046
 20
855.6440689002511
 30
0.0
  0
LINE
  5
FA
330
1F
100
AcDbEntity
  8
0
  6
Continuous
 62
     7
370
    25
100
AcDbLine
 10
947.8557126784
 20
855.6440689003
 30
0.0
 11
947.3797511399
 21
855.6440689003
 31
0.0
  0
ENDSEC
  0
SECTION
  2
OBJECTS
  0
DICTIONARY
  5
C
330
0
100
AcDbDictionary
281
     1
  3
ACAD_DETAILVIEWSTYLE
350
102
  3
ACAD_GROUP
350
D
  3
ACAD_LAYOUT
350
1A
  3
ACAD_MATERIAL
350
43
  3
ACAD_MLEADERSTYLE
350
5B
  3
ACAD_MLINESTYLE
350
17
  3
ACAD_PLOTSETTINGS
350
19
  3
ACAD_PLOTSTYLENAME
350
E
  3
ACAD_SCALELIST
350
47
  3
ACAD_SECTIONVIEWSTYLE
350
103
  3
ACAD_TABLESTYLE
350
59
  3
ACAD_VISUALSTYLE
350
2A
  3
ACDB_RECOMPOSE_DATA
350
FF
  3
AcDbVariableDictionary
350
FB
  0
SUN
  5
5D
330
29
100
AcDbSun
 90
        1
290
     0
 63
     7
421
 16777215
 40
1.0
291
     1
 91
  2455826
 92
 54000000
292
     0
 70
     2
 71
   256
280
     1
  0
DICTIONARY
  5
102
102
{ACAD_REACTORS
330
C
102
}
330
C
100
AcDbDictionary
281
     1
  0
DICTIONARY
  5
D
102
{ACAD_REACTORS
330
C
102
}
330
C
100
AcDbDictionary
281
     1
  0
DICTIONARY
  5
1A
102
{ACAD_REACTORS
330
C
102
}
330
C
100
AcDbDictionary
281
     1
  3
Layout1
350
1E
  3
Layout2
350
26
  3
Model
350
22
  0
DICTIONARY
  5
43
102
{ACAD_REACTORS
330
C
102
}
330
C
100
AcDbDictionary
281
     1
  3
ByBlock
350
45
  3
ByLayer
350
44
  3
Global
350
46
  0
DICTIONARY
  5
5B
102
{ACAD_REACTORS
330
C
102
}
330
C
100
AcDbDictionary
281
     1
  3
Standard
350
5C
  0
DICTIONARY
  5
17
102
{ACAD_REACTORS
330
C
102
}
330
C
100
AcDbDictionary
281
     1
  3
Standard
350
18
  0
DICTIONARY
  5
19
102
{ACAD_REACTORS
330
C
102
}
330
C
100
AcDbDictionary
281
     1
  0
ACDBDICTIONARYWDFLT
  5
E
102
{ACAD_REACTORS
330
C
102
}
330
C
100
AcDbDictionary
281
     1
  3
Normal
350
F
100
AcDbDictionaryWithDefault
340
F
  0
DICTIONARY
  5
47
102
{ACAD_REACTORS
330
C
102
}
330
C
100
AcDbDictionary
281
     1
  3
A0
350
48
  3
A1
350
49
  3
A2
350
4A
  3
A3
350
4B
  3
A4
350
4C
  3
A5
350
4D
  3
A6
350
4E
  3
A7
350
4F
  3
A8
350
50
  3
A9
350
51
  3
B0
350
52
  3
B1
350
53
  3
B2
350
54
  3
B3
350
55
  3
B4
350
56
  3
B5
350
57
  3
B6
350
58
  0
DICTIONARY
  5
103
102
{ACAD_REACTORS
330
C
102
}
330
C
100
AcDbDictionary
281
     1
  0
DICTIONARY
  5
59
102
{ACAD_REACTORS
330
C
102
}
330
C
100
AcDbDictionary
281
     1
  3
Standard
350
5A
  0
DICTIONARY
  5
2A
102
{ACAD_REACTORS
330
C
102
}
330
C
100
AcDbDictionary
281
     1
  3
2dWireframe
350
2F
  3
Basic
350
32
  3
Brighten
350
36
  3
ColorChange
350
3A
  3
Conceptual
350
34
  3
Dim
350
35
  3
EdgeColorOff
350
3D
  3
Facepattern
350
39
  3
Flat
350
2B
  3
FlatWithEdges
350
2C
  3
Gouraud
350
2D
  3
GouraudWithEdges
350
2E
  3
Hidden
350
31
  3
JitterOff
350
3B
  3
Linepattern
350
38
  3
OverhangOff
350
3C
  3
Realistic
350
33
  3
Shaded
350
42
  3
Shaded with edges
350
41
  3
Shades of Gray
350
3E
  3
Sketchy
350
3F
  3
Thicken
350
37
  3
Wireframe
350
30
  3
X-Ray
350
40
  0
XRECORD
  5
FF
102
{ACAD_REACTORS
330
C
102
}
330
C
100
AcDbXrecord
280
     1
 90
        1
330
5A
  0
DICTIONARY
  5
FB
102
{ACAD_REACTORS
330
C
102
}
330
C
100
AcDbDictionary
281
     1
  3
CANNOSCALE
350
FC
  3
CENTEREXE
350
104
  3
CENTERLTYPEFILE
350
105
  3
CMLEADERSTYLE
350
101
  3
CTABLESTYLE
350
100
  0
LAYOUT
  5
1E
102
{ACAD_REACTORS
330
1A
102
}
330
1A
100
AcDbPlotSettings
  1

  2
none_device
  4

  6

 40
0.0
 41
0.0
 42
0.0
 43
0.0
 44
0.0
 45
0.0
 46
0.0
 47
0.0
 48
0.0
 49
0.0
140
0.0
141
0.0
142
1.0
143
1.0
 70
   688
 72
     1
 73
     0
 74
     5
  7

 75
    16
 76
     0
 77
     2
 78
   300
147
1.0
148
0.0
149
0.0
100
AcDbLayout
  1
Layout1
 70
     1
 71
     1
 10
0.0
 20
0.0
 11
420.0
 21
297.0
 12
0.0
 22
0.0
 32
0.0
 14
1.0000000000E+20
 24
1.0000000000E+20
 34
1.0000000000E+20
 15
-1.0000000000E+20
 25
-1.0000000000E+20
 35
-1.0000000000E+20
146
0.0
 13
0.0
 23
0.0
 33
0.0
 16
1.0
 26
0.0
 36
0.0
 17
0.0
 27
1.0
 37
0.0
 76
     0
330
1B
  0
LAYOUT
  5
26
102
{ACAD_REACTORS
330
1A
102
}
330
1A
100
AcDbPlotSettings
  1

  2
none_device
  4

  6

 40
0.0
 41
0.0
 42
0.0
 43
0.0
 44
0.0
 45
0.0
 46
0.0
 47
0.0
 48
0.0
 49
0.0
140
0.0
141
0.0
142
1.0
143
1.0
 70
   688
 72
     1
 73
     0
 74
     5
  7

 75
    16
 76
     0
 77
     2
 78
   300
147
1.0
148
0.0
149
0.0
100
AcDbLayout
  1
Layout2
 70
     1
 71
     2
 10
0.0
 20
0.0
 11
0.0
 21
0.0
 12
0.0
 22
0.0
 32
0.0
 14
0.0
 24
0.0
 34
0.0
 15
0.0
 25
0.0
 35
0.0
146
0.0
 13
0.0
 23
0.0
 33
0.0
 16
1.0
 26
0.0
 36
0.0
 17
0.0
 27
1.0
 37
0.0
 76
     0
330
23
  0
LAYOUT
  5
22
102
{ACAD_REACTORS
330
1A
102
}
330
1A
100
AcDbPlotSettings
  1

  2
none_device
  4
Letter_(8.50_x_11.00_Inches)
  6

 40
6.35
 41
6.35
 42
6.35000508
 43
6.35000508
 44
215.9
 45
279.4
 46
0.0
 47
0.0
 48
0.0
 49
0.0
140
0.0
141
0.0
142
1.0
143
1.0
 70
  1712
 72
     1
 73
     0
 74
     0
  7

 75
     0
 76
     0
 77
     2
 78
   300
147
1.0
148
0.0
149
0.0
100
AcDbLayout
  1
Model
 70
     1
 71
     0
 10
0.0
 20
0.0
 11
420.0
 21
297.0
 12
0.0
 22
0.0
 32
0.0
 14
0.0
 24
0.0
 34
0.0
 15
420.0
 25
297.0
 35
0.0
146
0.0
 13
0.0
 23
0.0
 33
0.0
 16
1.0
 26
0.0
 36
0.0
 17
0.0
 27
1.0
 37
0.0
 76
     0
330
1F
331
29
  0
MATERIAL
  5
45
102
{ACAD_REACTORS
330
43
102
}
330
43
100
AcDbMaterial
  1
ByBlock
 72
     1
 94
      127
  0
MATERIAL
  5
44
102
{ACAD_REACTORS
330
43
102
}
330
43
100
AcDbMaterial
  1
ByLayer
 72
     1
 94
      127
  0
MATERIAL
  5
46
102
{ACAD_REACTORS
330
43
102
}
330
43
100
AcDbMaterial
  1
Global
 72
     1
 94
      127
  0
MLEADERSTYLE
  5
5C
102
{ACAD_REACTORS
330
5B
102
}
330
5B
100
AcDbMLeaderStyle
179
     2
170
     2
171
     1
172
     0
 90
        2
 40
0.0
 41
0.0
173
     1
 91
-1056964608
340
14
 92
       -2
290
     1
 42
2.0
291
     1
 43
8.0
  3
Standard
341
0
 44
4.0
300

342
11
174
     1
178
     6
175
     1
176
     0
 93
-1056964608
 45
4.0
292
     0
297
     0
 46
4.0
343
0
 94
-1056964608
 47
1.0
 49
1.0
140
1.0
293
     1
141
0.0
294
     1
177
     0
142
1.0
295
     0
296
     0
143
3.75
271
     0
272
     9
273
     9
298
     0
  0
MLINESTYLE
  5
18
102
{ACAD_REACTORS
330
17
102
}
330
17
100
AcDbMlineStyle
  2
Standard
 70
     0
  3

 62
   256
 51
90.0
 52
90.0
 71
     2
 49
0.5
 62
   256
  6
BYLAYER
 49
-0.5
 62
   256
  6
BYLAYER
  0
ACDBPLACEHOLDER
  5
F
102
{ACAD_REACTORS
330
E
102
}
330
E
  0
SCALE
  5
48
102
{ACAD_REACTORS
330
47
102
}
330
47
100
AcDbScale
 70
     0
300
1:1
140
1.0
141
1.0
290
     1
  0
SCALE
  5
49
102
{ACAD_REACTORS
330
47
102
}
330
47
100
AcDbScale
 70
     0
300
1:2
140
1.0
141
2.0
290
     0
  0
SCALE
  5
4A
102
{ACAD_REACTORS
330
47
102
}
330
47
100
AcDbScale
 70
     0
300
1:4
140
1.0
141
4.0
290
     0
  0
SCALE
  5
4B
102
{ACAD_REACTORS
330
47
102
}
330
47
100
AcDbScale
 70
     0
300
1:5
140
1.0
141
5.0
290
     0
  0
SCALE
  5
4C
102
{ACAD_REACTORS
330
47
102
}
330
47
100
AcDbScale
 70
     0
300
1:8
140
1.0
141
8.0
290
     0
  0
SCALE
  5
4D
102
{ACAD_REACTORS
330
47
102
}
330
47
100
AcDbScale
 70
     0
300
1:10
140
1.0
141
10.0
290
     0
  0
SCALE
  5
4E
102
{ACAD_REACTORS
330
47
102
}
330
47
100
AcDbScale
 70
     0
300
1:16
140
1.0
141
16.0
290
     0
  0
SCALE
  5
4F
102
{ACAD_REACTORS
330
47
102
}
330
47
100
AcDbScale
 70
     0
300
1:20
140
1.0
141
20.0
290
     0
  0
SCALE
  5
50
102
{ACAD_REACTORS
330
47
102
}
330
47
100
AcDbScale
 70
     0
300
1:30
140
1.0
141
30.0
290
     0
  0
SCALE
  5
51
102
{ACAD_REACTORS
330
47
102
}
330
47
100
AcDbScale
 70
     0
300
1:40
140
1.0
141
40.0
290
     0
  0
SCALE
  5
52
102
{ACAD_REACTORS
330
47
102
}
330
47
100
AcDbScale
 70
     0
300
1:50
140
1.0
141
50.0
290
     0
  0
SCALE
  5
53
102
{ACAD_REACTORS
330
47
102
}
330
47
100
AcDbScale
 70
     0
300
1:100
140
1.0
141
100.0
290
     0
  0
SCALE
  5
54
102
{ACAD_REACTORS
330
47
102
}
330
47
100
AcDbScale
 70
     0
300
2:1
140
2.0
141
1.0
290
     0
  0
SCALE
  5
55
102
{ACAD_REACTORS
330
47
102
}
330
47
100
AcDbScale
 70
     0
300
4:1
140
4.0
141
1.0
290
     0
  0
SCALE
  5
56
102
{ACAD_REACTORS
330
47
102
}
330
47
100
AcDbScale
 70
     0
300
8:1
140
8.0
141
1.0
290
     0
  0
SCALE
  5
57
102
{ACAD_REACTORS
330
47
102
}
330
47
100
AcDbScale
 70
     0
300
10:1
140
10.0
141
1.0
290
     0
  0
SCALE
  5
58
102
{ACAD_REACTORS
330
47
102
}
330
47
100
AcDbScale
 70
     0
300
100:1
140
100.0
141
1.0
290
     0
  0
TABLESTYLE
  5
5A
102
{ACAD_REACTORS
330
59
102
}
102
{ACAD_XDICTIONARY
360
FD
102
}
330
59
100
AcDbTableStyle
  3
Standard
 70
     0
 71
     0
 40
0.06
 41
0.06
280
     0
281
     0
  7
Standard
140
4.5
170
     2
 62
     0
 63
   257
283
     0
 90
        4
 91
        0
  1

274
    -2
284
     1
 64
     0
275
    -2
285
     1
 65
     0
276
    -2
286
     1
 66
     0
277
    -2
287
     1
 67
     0
278
    -2
288
     1
 68
     0
279
    -2
289
     1
 69
     0
  7
Standard
140
6.0
170
     5
 62
     0
 63
   257
283
     0
 90
        4
 91
        0
  1

274
    -2
284
     1
 64
     0
275
    -2
285
     1
 65
     0
276
    -2
286
     1
 66
     0
277
    -2
287
     1
 67
     0
278
    -2
288
     1
 68
     0
279
    -2
289
     1
 69
     0
  7
Standard
140
4.5
170
     5
 62
     0
 63
   257
283
     0
 90
        4
 91
        0
  1

274
    -2
284
     1
 64
     0
275
    -2
285
     1
 65
     0
276
    -2
286
     1
 66
     0
277
    -2
287
     1
 67
     0
278
    -2
288
     1
 68
     0
279
    -2
289
     1
 69
     0
  0
VISUALSTYLE
  5
2F
102
{ACAD_REACTORS
330
2A
102
}
330
2A
100
AcDbVisualStyle
  2
2dWireframe
 70
     4
177
     3
291
     0
 70
    58
 90
        0
176
     1
 90
        2
176
     1
 90
        0
176
     1
 90
        0
176
     1
 40
0.6
176
     1
 40
30.0
176
     1
 62
     7
420
 16777215
176
     1
 90
        1
176
     1
 90
        4
176
     1
 62
     7
176
     1
 62
   257
176
     1
 90
        1
176
     1
 90
        1
176
     1
 40
1.0
176
     1
 90
        0
176
     1
 62
   257
176
     1
 40
1.0
176
     1
 90
        1
176
     1
 90
        6
176
     1
 90
        2
176
     1
 62
     7
176
     1
 90
        5
176
     1
 90
        0
176
     1
 90
        0
176
     1
290
     0
176
     1
 90
        1
176
     1
 40
0.0
176
     1
 90
        0
176
     1
290
     1
176
     1
290
     1
176
     1
290
     0
176
     1
290
     0
176
     1
290
     0
176
     1
290
     0
176
     1
290
     0
176
     1
290
     0
176
     1
290
     0
176
     1
 90
       50
176
     1
 40
0.0
176
     1
 40
1.0
176
     1
 90
        0
176
     1
 62
    18
420
        0
176
     1
 90
       50
176
     1
 90
        3
176
     1
 62
     5
420
      255
176
     1
290
     0
176
     1
 90
       50
176
     1
 90
       50
176
     1
 90
       50
176
     1
290
     0
176
     1
 90
       50
176
     1
 62
   256
176
     0
 40
1.0
176
     0
 90
        2
176
     1
  1
strokes_ogs.tif
176
     1
290
     0
176
     1
 40
1.0
176
     1
 40
1.0
176
     1
  0
VISUALSTYLE
  5
32
102
{ACAD_REACTORS
330
2A
102
}
330
2A
100
AcDbVisualStyle
  2
Basic
 70
     7
177
     3
291
     1
 70
    58
 90
        1
176
     1
 90
        0
176
     1
 90
        1
176
     1
 90
        0
176
     1
 40
0.6
176
     1
 40
30.0
176
     1
 62
     7
420
 16777215
176
     1
 90
        0
176
     1
 90
        4
176
     1
 62
     7
176
     1
 62
   257
176
     1
 90
        1
176
     1
 90
        1
176
     1
 40
1.0
176
     1
 90
        8
176
     1
 62
     7
176
     1
 40
1.0
176
     1
 90
        1
176
     1
 90
        6
176
     1
 90
        2
176
     1
 62
     7
176
     1
 90
        5
176
     1
 90
        0
176
     1
 90
        0
176
     1
290
     0
176
     1
 90
        1
176
     1
 40
0.0
176
     1
 90
        0
176
     1
290
     0
176
     1
290
     1
176
     1
290
     1
176
     1
290
     0
176
     1
290
     0
176
     1
290
     0
176
     1
290
     0
176
     1
290
     0
176
     1
290
     0
176
     1
 90
       50
176
     1
 40
0.0
176
     1
 40
1.0
176
     1
 90
        0
176
     1
 62
    18
420
        0
176
     1
 90
       50
176
     1
 90
        3
176
     1
 62
     5
420
      255
176
     1
290
     0
176
     1
 90
       50
176
     1
 90
       50
176
     1
 90
       50
176
     1
290
     0
176
     1
 90
       50
176
     1
 62
   256
176
     0
 40
1.0
176
     0
 90
        2
176
     1
  1
strokes_ogs.tif
176
     1
290
     0
176
     1
 40
1.0
176
     1
 40
1.0
176
     1
  0
VISUALSTYLE
  5
36
102
{ACAD_REACTORS
330
2A
102
}
330
2A
100
AcDbVisualStyle
  2
Brighten
 70
    12
177
     3
291
     1
 70
    58
 90
        2
176
     1
 90
        2
176
     1
 90
        0
176
     1
 90
        0
176
     1
 40
0.6
176
     1
 40
30.0
176
     1
 62
     7
420
 16777215
176
     1
 90
        1
176
     1
 90
        4
176
     1
 62
     7
176
     1
 62
   257
176
     1
 90
        1
176
     1
 90
        1
176
     1
 40
1.0
176
     1
 90
        8
176
     1
 62
     7
176
     1
 40
1.0
176
     1
 90
        1
176
     1
 90
        6
176
     1
 90
        2
176
     1
 62
     7
176
     1
 90
        5
176
     1
 90
        0
176
     1
 90
        0
176
     1
290
     0
176
     1
 90
        1
176
     1
 40
50.0
176
     1
 90
        0
176
     1
290
     0
176
     1
290
     1
176
     1
290
     1
176
     1
290
     0
176
     1
290
     0
176
     1
290
     0
176
     1
290
     0
176
     1
290
     0
176
     1
290
     0
176
     1
 90
       50
176
     1
 40
0.0
176
     1
 40
1.0
176
     1
 90
        0
176
     1
 62
    18
420
        0
176
     1
 90
       50
176
     1
 90
        3
176
     1
 62
     5
420
      255
176
     1
290
     0
176
     1
 90
       50
176
     1
 90
       50
176
     1
 90
       50
176
     1
290
     0
176
     1
 90
       50
176
     1
 62
   256
176
     0
 40
1.0
176
     0
 90
        2
176
     1
  1
strokes_ogs.tif
176
     1
290
     0
176
     1
 40
1.0
176
     1
 40
1.0
176
     1
  0
VISUALSTYLE
  5
3A
102
{ACAD_REACTORS
330
2A
102
}
330
2A
100
AcDbVisualStyle
  2
ColorChange
 70
    16
177
     3
291
     1
 70
    58
 90
        2
176
     1
 90
        2
176
     1
 90
        3
176
     1
 90
        0
176
     1
 40
0.6
176
     1
 40
30.0
176
     1
 62
     8
420
  8421504
176
     1
 90
        1
176
     1
 90
        4
176
     1
 62
     7
176
     1
 62
   257
176
     1
 90
        1
176
     1
 90
        1
176
     1
 40
1.0
176
     1
 90
        8
176
     1
 62
     8
420
  8421504
176
     1
 40
1.0
176
     1
 90
        1
176
     1
 90
        6
176
     1
 90
        2
176
     1
 62
     7
176
     1
 90
        5
176
     1
 90
        0
176
     1
 90
        0
176
     1
290
     0
176
     1
 90
        1
176
     1
 40
0.0
176
     1
 90
        0
176
     1
290
     0
176
     1
290
     1
176
     1
290
     1
176
     1
290
     0
176
     1
290
     0
176
     1
290
     0
176
     1
290
     0
176
     1
290
     0
176
     1
290
     0
176
     1
 90
       50
176
     1
 40
0.0
176
     1
 40
1.0
176
     1
 90
        0
176
     1
 62
    18
420
        0
176
     1
 90
       50
176
     1
 90
        3
176
     1
 62
     5
420
      255
176
     1
290
     0
176
     1
 90
       50
176
     1
 90
       50
176
     1
 90
       50
176
     1
290
     0
176
     1
 90
       50
176
     1
 62
   256
176
     0
 40
1.0
176
     0
 90
        2
176
     1
  1
strokes_ogs.tif
176
     1
290
     0
176
     1
 40
1.0
176
     1
 40
1.0
176
     1
  0
VISUALSTYLE
  5
34
102
{ACAD_REACTORS
330
2A
102
}
330
2A
100
AcDbVisualStyle
  2
Conceptual
 70
     9
177
     3
291
     0
 70
    58
 90
        3
176
     1
 90
        2
176
     1
 90
        0
176
     1
 90
        0
176
     1
 40
0.6
176
     1
 40
30.0
176
     1
 62
     7
420
 16777215
176
     1
 90
        2
176
     1
 90
        2
176
     1
 62
     7
176
     1
 62
   257
176
     1
 90
        1
176
     1
 90
        1
176
     1
 40
179.0
176
     1
 90
        8
176
     1
 62
     7
176
     1
 40
1.0
176
     1
 90
        1
176
     1
 90
        6
176
     1
 90
        2
176
     1
 62
     7
176
     1
 90
        3
176
     1
 90
        0
176
     1
 90
        0
176
     1
290
     0
176
     1
 90
        1
176
     1
 40
0.0
176
     1
 90
        0
176
     1
290
     0
176
     1
290
     1
176
     1
290
     1
176
     1
290
     0
176
     1
290
     0
176
     1
290
     0
176
     1
290
     0
176
     1
290
     0
176
     1
290
     0
176
     1
 90
       50
176
     1
 40
0.0
176
     1
 40
1.0
176
     1
 90
        0
176
     1
 62
    18
420
        0
176
     1
 90
       50
176
     1
 90
        3
176
     1
 62
     5
420
      255
176
     1
290
     0
176
     1
 90
       50
176
     1
 90
       50
176
     1
 90
       50
176
     1
290
     0
176
     1
 90
       50
176
     1
 62
   256
176
     0
 40
1.0
176
     0
 90
        2
176
     1
  1
strokes_ogs.tif
176
     1
290
     0
176
     1
 40
1.0
176
     1
 40
1.0
176
     1
  0
VISUALSTYLE
  5
35
102
{ACAD_REACTORS
330
2A
102
}
330
2A
100
AcDbVisualStyle
  2
Dim
 70
    11
177
     3
291
     1
 70
    58
 90
        2
176
     1
 90
        2
176
     1
 90
        0
176
     1
 90
        0
176
     1
 40
0.6
176
     1
 40
30.0
176
     1
 62
     7
420
 16777215
176
     1
 90
        1
176
     1
 90
        4
176
     1
 62
     7
176
     1
 62
   257
176
     1
 90
        1
176
     1
 90
        1
176
     1
 40
1.0
176
     1
 90
        8
176
     1
 62
     7
176
     1
 40
1.0
176
     1
 90
        1
176
     1
 90
        6
176
     1
 90
        2
176
     1
 62
     7
176
     1
 90
        5
176
     1
 90
        0
176
     1
 90
        0
176
     1
290
     0
176
     1
 90
        1
176
     1
 40
-50.0
176
     1
 90
        0
176
     1
290
     0
176
     1
290
     1
176
     1
290
     1
176
     1
290
     0
176
     1
290
     0
176
     1
290
     0
176
     1
290
     0
176
     1
290
     0
176
     1
290
     0
176
     1
 90
       50
176
     1
 40
0.0
176
     1
 40
1.0
176
     1
 90
        0
176
     1
 62
    18
420
        0
176
     1
 90
       50
176
     1
 90
        3
176
     1
 62
     5
420
      255
176
     1
290
     0
176
     1
 90
       50
176
     1
 90
       50
176
     1
 90
       50
176
     1
290
     0
176
     1
 90
       50
176
     1
 62
   256
176
     0
 40
1.0
176
     0
 90
        2
176
     1
  1
strokes_ogs.tif
176
     1
290
     0
176
     1
 40
1.0
176
     1
 40
1.0
176
     1
  0
VISUALSTYLE
  5
3D
102
{ACAD_REACTORS
330
2A
102
}
330
2A
100
AcDbVisualStyle
  2
EdgeColorOff
 70
    22
177
     3
291
     1
 70
    58
 90
        2
176
     0
 90
        2
176
     0
 90
        0
176
     0
 90
        0
176
     0
 40
0.6
176
     0
 40
30.0
176
     0
 62
     7
420
 16777215
176
     0
 90
        1
176
     0
 90
        4
176
     0
 62
     7
176
     0
 62
   257
176
     0
 90
        1
176
     0
 90
        1
176
     0
 40
1.0
176
     0
 90
        8
176
     2
 62
     7
176
     0
 40
1.0
176
     0
 90
        1
176
     0
 90
        6
176
     0
 90
        2
176
     0
 62
     7
176
     0
 90
        5
176
     0
 90
        0
176
     0
 90
        0
176
     0
290
     0
176
     0
 90
        1
176
     0
 40
0.0
176
     0
 90
        0
176
     0
290
     0
176
     0
290
     1
176
     0
290
     1
176
     0
290
     0
176
     0
290
     0
176
     0
290
     0
176
     0
290
     0
176
     0
290
     0
176
     0
290
     0
176
     0
 90
       50
176
     0
 40
0.0
176
     0
 40
1.0
176
     0
 90
        0
176
     0
 62
    18
420
        0
176
     0
 90
       50
176
     0
 90
        3
176
     0
 62
     5
420
      255
176
     0
290
     0
176
     0
 90
       50
176
     0
 90
       50
176
     0
 90
       50
176
     0
290
     0
176
     0
 90
       50
176
     0
 62
   256
176
     0
 40
1.0
176
     0
 90
        2
176
     0
  1
strokes_ogs.tif
176
     0
290
     0
176
     0
 40
1.0
176
     0
 40
1.0
176
     0
  0
VISUALSTYLE
  5
39
102
{ACAD_REACTORS
330
2A
102
}
330
2A
100
AcDbVisualStyle
  2
Facepattern
 70
    15
177
     3
291
     1
 70
    58
 90
        2
176
     1
 90
        2
176
     1
 90
        0
176
     1
 90
        0
176
     1
 40
0.6
176
     1
 40
30.0
176
     1
 62
     7
420
 16777215
176
     1
 90
        1
176
     1
 90
        4
176
     1
 62
     7
176
     1
 62
   257
176
     1
 90
        1
176
     1
 90
        1
176
     1
 40
1.0
176
     1
 90
        8
176
     1
 62
     7
176
     1
 40
1.0
176
     1
 90
        1
176
     1
 90
        6
176
     1
 90
        2
176
     1
 62
     7
176
     1
 90
        5
176
     1
 90
        0
176
     1
 90
        0
176
     1
290
     0
176
     1
 90
        1
176
     1
 40
0.0
176
     1
 90
        0
176
     1
290
     0
176
     1
290
     1
176
     1
290
     1
176
     1
290
     0
176
     1
290
     0
176
     1
290
     0
176
     1
290
     0
176
     1
290
     0
176
     1
290
     0
176
     1
 90
       50
176
     1
 40
0.0
176
     1
 40
1.0
176
     1
 90
        0
176
     1
 62
    18
420
        0
176
     1
 90
       50
176
     1
 90
        3
176
     1
 62
     5
420
      255
176
     1
290
     0
176
     1
 90
       50
176
     1
 90
       50
176
     1
 90
       50
176
     1
290
     0
176
     1
 90
       50
176
     1
 62
   256
176
     0
 40
1.0
176
     0
 90
        2
176
     1
  1
strokes_ogs.tif
176
     1
290
     0
176
     1
 40
1.0
176
     1
 40
1.0
176
     1
  0
VISUALSTYLE
  5
2B
102
{ACAD_REACTORS
330
2A
102
}
330
2A
100
AcDbVisualStyle
  2
Flat
 70
     0
177
     3
291
     1
 70
    58
 90
        2
176
     1
 90
        1
176
     1
 90
        1
176
     1
 90
        2
176
     1
 40
0.6
176
     1
 40
30.0
176
     1
 62
     7
420
 16777215
176
     1
 90
        0
176
     1
 90
        0
176
     1
 62
     7
176
     1
 62
   257
176
     1
 90
        1
176
     1
 90
        1
176
     1
 40
1.0
176
     1
 90
        8
176
     1
 62
     7
176
     1
 40
1.0
176
     1
 90
        1
176
     1
 90
        6
176
     1
 90
        2
176
     1
 62
     7
176
     1
 90
        5
176
     1
 90
        0
176
     1
 90
        0
176
     1
290
     0
176
     1
 90
       13
176
     1
 40
0.0
176
     1
 90
        0
176
     1
290
     0
176
     1
290
     1
176
     1
290
     1
176
     1
290
     0
176
     1
290
     0
176
     1
290
     0
176
     1
290
     0
176
     1
290
     0
176
     1
290
     0
176
     1
 90
       50
176
     1
 40
0.0
176
     1
 40
1.0
176
     1
 90
        0
176
     1
 62
    18
420
        0
176
     1
 90
       50
176
     1
 90
        3
176
     1
 62
     5
420
      255
176
     1
290
     0
176
     1
 90
       50
176
     1
 90
       50
176
     1
 90
       50
176
     1
290
     0
176
     1
 90
       50
176
     1
 62
   256
176
     0
 40
1.0
176
     0
 90
        2
176
     1
  1
strokes_ogs.tif
176
     1
290
     0
176
     1
 40
1.0
176
     1
 40
1.0
176
     1
  0
VISUALSTYLE
  5
2C
102
{ACAD_REACTORS
330
2A
102
}
330
2A
100
AcDbVisualStyle
  2
FlatWithEdges
 70
     1
177
     3
291
     1
 70
    58
 90
        2
176
     1
 90
        1
176
     1
 90
        1
176
     1
 90
        2
176
     1
 40
0.6
176
     1
 40
30.0
176
     1
 62
     7
420
 16777215
176
     1
 90
        1
176
     1
 90
        0
176
     1
 62
     7
176
     1
 62
   257
176
     1
 90
        1
176
     1
 90
        1
176
     1
 40
1.0
176
     1
 90
        0
176
     1
 62
   257
176
     1
 40
1.0
176
     1
 90
        1
176
     1
 90
        6
176
     1
 90
        2
176
     1
 62
     7
176
     1
 90
        5
176
     1
 90
        0
176
     1
 90
        0
176
     1
290
     0
176
     1
 90
       13
176
     1
 40
0.0
176
     1
 90
        0
176
     1
290
     0
176
     1
290
     1
176
     1
290
     1
176
     1
290
     0
176
     1
290
     0
176
     1
290
     0
176
     1
290
     0
176
     1
290
     0
176
     1
290
     0
176
     1
 90
       50
176
     1
 40
0.0
176
     1
 40
1.0
176
     1
 90
        0
176
     1
 62
    18
420
        0
176
     1
 90
       50
176
     1
 90
        3
176
     1
 62
     5
420
      255
176
     1
290
     0
176
     1
 90
       50
176
     1
 90
       50
176
     1
 90
       50
176
     1
290
     0
176
     1
 90
       50
176
     1
 62
   256
176
     0
 40
1.0
176
     0
 90
        2
176
     1
  1
strokes_ogs.tif
176
     1
290
     0
176
     1
 40
1.0
176
     1
 40
1.0
176
     1
  0
VISUALSTYLE
  5
2D
102
{ACAD_REACTORS
330
2A
102
}
330
2A
100
AcDbVisualStyle
  2
Gouraud
 70
     2
177
     3
291
     1
 70
    58
 90
        2
176
     1
 90
        2
176
     1
 90
        1
176
     1
 90
        2
176
     1
 40
0.6
176
     1
 40
30.0
176
     1
 62
     7
420
 16777215
176
     1
 90
        0
176
     1
 90
        0
176
     1
 62
     7
176
     1
 62
   257
176
     1
 90
        1
176
     1
 90
        1
176
     1
 40
1.0
176
     1
 90
        0
176
     1
 62
     7
176
     1
 40
1.0
176
     1
 90
        1
176
     1
 90
        6
176
     1
 90
        2
176
     1
 62
     7
176
     1
 90
        5
176
     1
 90
        0
176
     1
 90
        0
176
     1
290
     0
176
     1
 90
       13
176
     1
 40
0.0
176
     1
 90
        0
176
     1
290
     0
176
     1
290
     1
176
     1
290
     1
176
     1
290
     0
176
     1
290
     0
176
     1
290
     0
176
     1
290
     0
176
     1
290
     0
176
     1
290
     0
176
     1
 90
       50
176
     1
 40
0.0
176
     1
 40
1.0
176
     1
 90
        0
176
     1
 62
    18
420
        0
176
     1
 90
       50
176
     1
 90
        3
176
     1
 62
     5
420
      255
176
     1
290
     0
176
     1
 90
       50
176
     1
 90
       50
176
     1
 90
       50
176
     1
290
     0
176
     1
 90
       50
176
     1
 62
   256
176
     0
 40
1.0
176
     0
 90
        2
176
     1
  1
strokes_ogs.tif
176
     1
290
     0
176
     1
 40
1.0
176
     1
 40
1.0
176
     1
  0
VISUALSTYLE
  5
2E
102
{ACAD_REACTORS
330
2A
102
}
330
2A
100
AcDbVisualStyle
  2
GouraudWithEdges
 70
     3
177
     3
291
     1
 70
    58
 90
        2
176
     1
 90
        2
176
     1
 90
        1
176
     1
 90
        2
176
     1
 40
0.6
176
     1
 40
30.0
176
     1
 62
     7
420
 16777215
176
     1
 90
        1
176
     1
 90
        0
176
     1
 62
     7
176
     1
 62
   257
176
     1
 90
        1
176
     1
 90
        1
176
     1
 40
1.0
176
     1
 90
        0
176
     1
 62
   257
176
     1
 40
1.0
176
     1
 90
        1
176
     1
 90
        6
176
     1
 90
        2
176
     1
 62
     7
176
     1
 90
        5
176
     1
 90
        0
176
     1
 90
        0
176
     1
290
     0
176
     1
 90
       13
176
     1
 40
0.0
176
     1
 90
        0
176
     1
290
     0
176
     1
290
     1
176
     1
290
     1
176
     1
290
     0
176
     1
290
     0
176
     1
290
     0
176
     1
290
     0
176
     1
290
     0
176
     1
290
     0
176
     1
 90
       50
176
     1
 40
0.0
176
     1
 40
1.0
176
     1
 90
        0
176
     1
 62
    18
420
        0
176
     1
 90
       50
176
     1
 90
        3
176
     1
 62
     5
420
      255
176
     1
290
     0
176
     1
 90
       50
176
     1
 90
       50
176
     1
 90
       50
176
     1
290
     0
176
     1
 90
       50
176
     1
 62
   256
176
     0
 40
1.0
176
     0
 90
        2
176
     1
  1
strokes_ogs.tif
176
     1
290
     0
176
     1
 40
1.0
176
     1
 40
1.0
176
     1
  0
VISUALSTYLE
  5
31
102
{ACAD_REACTORS
330
2A
102
}
330
2A
100
AcDbVisualStyle
  2
Hidden
 70
     6
177
     3
291
     0
 70
    58
 90
        1
176
     1
 90
        2
176
     1
 90
        2
176
     1
 90
        0
176
     1
 40
0.6
176
     1
 40
30.0
176
     1
 62
     7
420
 16777215
176
     1
 90
        2
176
     1
 90
        2
176
     1
 62
     7
176
     1
 62
   257
176
     1
 90
        2
176
     1
 90
        1
176
     1
 40
40.0
176
     1
 90
        0
176
     1
 62
   257
176
     1
 40
1.0
176
     1
 90
        1
176
     1
 90
        6
176
     1
 90
        2
176
     1
 62
     7
176
     1
 90
        3
176
     1
 90
        0
176
     1
 90
        0
176
     1
290
     0
176
     1
 90
        1
176
     1
 40
0.0
176
     1
 90
        0
176
     1
290
     0
176
     1
290
     1
176
     1
290
     1
176
     1
290
     0
176
     1
290
     0
176
     1
290
     0
176
     1
290
     0
176
     1
290
     0
176
     1
290
     0
176
     1
 90
       50
176
     1
 40
0.0
176
     1
 40
1.0
176
     1
 90
        0
176
     1
 62
    18
420
        0
176
     1
 90
       50
176
     1
 90
        3
176
     1
 62
     5
420
      255
176
     1
290
     0
176
     1
 90
       50
176
     1
 90
       50
176
     1
 90
       50
176
     1
290
     0
176
     1
 90
       50
176
     1
 62
   256
176
     0
 40
1.0
176
     0
 90
        2
176
     1
  1
strokes_ogs.tif
176
     1
290
     0
176
     1
 40
1.0
176
     1
 40
1.0
176
     1
  0
VISUALSTYLE
  5
3B
102
{ACAD_REACTORS
330
2A
102
}
330
2A
100
AcDbVisualStyle
  2
JitterOff
 70
    20
177
     3
291
     1
 70
    58
 90
        2
176
     0
 90
        2
176
     0
 90
        0
176
     0
 90
        0
176
     0
 40
0.6
176
     0
 40
30.0
176
     0
 62
     7
420
 16777215
176
     0
 90
        1
176
     0
 90
        4
176
     0
 62
     7
176
     0
 62
   257
176
     0
 90
        1
176
     0
 90
        1
176
     0
 40
1.0
176
     0
 90
       10
176
     2
 62
     7
176
     0
 40
1.0
176
     0
 90
        1
176
     0
 90
        6
176
     0
 90
        2
176
     0
 62
     7
176
     0
 90
        5
176
     0
 90
        0
176
     0
 90
        0
176
     0
290
     0
176
     0
 90
        1
176
     0
 40
0.0
176
     0
 90
        0
176
     0
290
     0
176
     0
290
     1
176
     0
290
     1
176
     0
290
     0
176
     0
290
     0
176
     0
290
     0
176
     0
290
     0
176
     0
290
     0
176
     0
290
     0
176
     0
 90
       50
176
     0
 40
0.0
176
     0
 40
1.0
176
     0
 90
        0
176
     0
 62
    18
420
        0
176
     0
 90
       50
176
     0
 90
        3
176
     0
 62
     5
420
      255
176
     0
290
     0
176
     0
 90
       50
176
     0
 90
       50
176
     0
 90
       50
176
     0
290
     0
176
     0
 90
       50
176
     0
 62
   256
176
     0
 40
1.0
176
     0
 90
        2
176
     0
  1
strokes_ogs.tif
176
     0
290
     0
176
     0
 40
1.0
176
     0
 40
1.0
176
     0
  0
VISUALSTYLE
  5
38
102
{ACAD_REACTORS
330
2A
102
}
330
2A
100
AcDbVisualStyle
  2
Linepattern
 70
    14
177
     3
291
     1
 70
    58
 90
        2
176
     1
 90
        2
176
     1
 90
        0
176
     1
 90
        0
176
     1
 40
0.6
176
     1
 40
30.0
176
     1
 62
     7
420
 16777215
176
     1
 90
        1
176
     1
 90
        4
176
     1
 62
     7
176
     1
 62
   257
176
     1
 90
        7
176
     1
 90
        7
176
     1
 40
1.0
176
     1
 90
        8
176
     1
 62
     7
176
     1
 40
1.0
176
     1
 90
        1
176
     1
 90
        6
176
     1
 90
        2
176
     1
 62
     7
176
     1
 90
        5
176
     1
 90
        0
176
     1
 90
        0
176
     1
290
     0
176
     1
 90
        1
176
     1
 40
0.0
176
     1
 90
        0
176
     1
290
     0
176
     1
290
     1
176
     1
290
     1
176
     1
290
     0
176
     1
290
     0
176
     1
290
     0
176
     1
290
     0
176
     1
290
     0
176
     1
290
     0
176
     1
 90
       50
176
     1
 40
0.0
176
     1
 40
1.0
176
     1
 90
        0
176
     1
 62
    18
420
        0
176
     1
 90
       50
176
     1
 90
        3
176
     1
 62
     5
420
      255
176
     1
290
     0
176
     1
 90
       50
176
     1
 90
       50
176
     1
 90
       50
176
     1
290
     0
176
     1
 90
       50
176
     1
 62
   256
176
     0
 40
1.0
176
     0
 90
        2
176
     1
  1
strokes_ogs.tif
176
     1
290
     0
176
     1
 40
1.0
176
     1
 40
1.0
176
     1
  0
VISUALSTYLE
  5
3C
102
{ACAD_REACTORS
330
2A
102
}
330
2A
100
AcDbVisualStyle
  2
OverhangOff
 70
    21
177
     3
291
     1
 70
    58
 90
        2
176
     0
 90
        2
176
     0
 90
        0
176
     0
 90
        0
176
     0
 40
0.6
176
     0
 40
30.0
176
     0
 62
     7
420
 16777215
176
     0
 90
        1
176
     0
 90
        4
176
     0
 62
     7
176
     0
 62
   257
176
     0
 90
        1
176
     0
 90
        1
176
     0
 40
1.0
176
     0
 90
        9
176
     2
 62
     7
176
     0
 40
1.0
176
     0
 90
        1
176
     0
 90
        6
176
     0
 90
        2
176
     0
 62
     7
176
     0
 90
        5
176
     0
 90
        0
176
     0
 90
        0
176
     0
290
     0
176
     0
 90
        1
176
     0
 40
0.0
176
     0
 90
        0
176
     0
290
     0
176
     0
290
     1
176
     0
290
     1
176
     0
290
     0
176
     0
290
     0
176
     0
290
     0
176
     0
290
     0
176
     0
290
     0
176
     0
290
     0
176
     0
 90
       50
176
     0
 40
0.0
176
     0
 40
1.0
176
     0
 90
        0
176
     0
 62
    18
420
        0
176
     0
 90
       50
176
     0
 90
        3
176
     0
 62
     5
420
      255
176
     0
290
     0
176
     0
 90
       50
176
     0
 90
       50
176
     0
 90
       50
176
     0
290
     0
176
     0
 90
       50
176
     0
 62
   256
176
     0
 40
1.0
176
     0
 90
        2
176
     0
  1
strokes_ogs.tif
176
     0
290
     0
176
     0
 40
1.0
176
     0
 40
1.0
176
     0
  0
VISUALSTYLE
  5
33
102
{ACAD_REACTORS
330
2A
102
}
330
2A
100
AcDbVisualStyle
  2
Realistic
 70
     8
177
     3
291
     0
 70
    58
 90
        2
176
     1
 90
        3
176
     1
 90
        0
176
     1
 90
        2
176
     1
 40
0.6
176
     1
 40
30.0
176
     1
 62
     7
420
 16777215
176
     1
 90
        0
176
     1
 90
        0
176
     1
 62
     7
176
     1
 62
   257
176
     1
 90
        1
176
     1
 90
        1
176
     1
 40
1.0
176
     1
 90
        8
176
     1
 62
   257
176
     1
 40
1.0
176
     1
 90
        1
176
     1
 90
        6
176
     1
 90
        2
176
     1
 62
     7
176
     1
 90
        3
176
     1
 90
        0
176
     1
 90
        0
176
     1
290
     0
176
     1
 90
       13
176
     1
 40
0.0
176
     1
 90
        0
176
     1
290
     0
176
     1
290
     1
176
     1
290
     1
176
     1
290
     0
176
     1
290
     0
176
     1
290
     0
176
     1
290
     0
176
     1
290
     0
176
     1
290
     0
176
     1
 90
       50
176
     1
 40
0.0
176
     1
 40
1.0
176
     1
 90
        0
176
     1
 62
    18
420
        0
176
     1
 90
       50
176
     1
 90
        3
176
     1
 62
     5
420
      255
176
     1
290
     0
176
     1
 90
       50
176
     1
 90
       50
176
     1
 90
       50
176
     1
290
     0
176
     1
 90
       50
176
     1
 62
   256
176
     0
 40
1.0
176
     0
 90
        2
176
     1
  1
strokes_ogs.tif
176
     1
290
     0
176
     1
 40
1.0
176
     1
 40
1.0
176
     1
  0
VISUALSTYLE
  5
42
102
{ACAD_REACTORS
330
2A
102
}
330
2A
100
AcDbVisualStyle
  2
Shaded
 70
    27
177
     3
291
     0
 70
    58
 90
        2
176
     1
 90
        2
176
     1
 90
        1
176
     1
 90
        2
176
     1
 40
0.6
176
     1
 40
30.0
176
     1
 62
     7
420
 16777215
176
     1
 90
        0
176
     1
 90
        4
176
     1
 62
     7
176
     1
 62
   257
176
     1
 90
        1
176
     1
 90
        1
176
     1
 40
1.0
176
     1
 90
        8
176
     1
 62
   257
176
     1
 40
1.0
176
     1
 90
        1
176
     1
 90
        6
176
     1
 90
        2
176
     1
 62
     8
420
  7895160
176
     1
 90
        3
176
     1
 90
        0
176
     1
 90
        0
176
     1
290
     0
176
     1
 90
        5
176
     1
 40
0.0
176
     1
 90
        0
176
     1
290
     0
176
     1
290
     1
176
     1
290
     1
176
     1
290
     0
176
     1
290
     0
176
     1
290
     0
176
     1
290
     0
176
     1
290
     0
176
     1
290
     0
176
     1
 90
       50
176
     1
 40
0.0
176
     1
 40
1.0
176
     1
 90
        0
176
     1
 62
    18
420
        0
176
     1
 90
       50
176
     1
 90
        3
176
     1
 62
     5
420
      255
176
     1
290
     0
176
     1
 90
       50
176
     1
 90
       50
176
     1
 90
       50
176
     1
290
     0
176
     1
 90
       50
176
     1
 62
   256
176
     0
 40
1.0
176
     0
 90
        2
176
     1
  1
strokes_ogs.tif
176
     1
290
     0
176
     1
 40
1.0
176
     1
 40
1.0
176
     1
  0
VISUALSTYLE
  5
41
102
{ACAD_REACTORS
330
2A
102
}
330
2A
100
AcDbVisualStyle
  2
Shaded with edges
 70
    26
177
     3
291
     0
 70
    58
 90
        2
176
     1
 90
        2
176
     1
 90
        1
176
     1
 90
        2
176
     1
 40
0.6
176
     1
 40
30.0
176
     1
 62
     7
420
 16777215
176
     1
 90
        1
176
     1
 90
       10
176
     1
 62
     7
176
     1
 62
   257
176
     1
 90
        2
176
     1
 90
        1
176
     1
 40
1.0
176
     1
 90
        8
176
     1
 62
   257
176
     1
 40
1.0
176
     1
 90
        1
176
     1
 90
        6
176
     1
 90
        2
176
     1
 62
     7
176
     1
 90
        3
176
     1
 90
        0
176
     1
 90
        0
176
     1
290
     0
176
     1
 90
        5
176
     1
 40
0.0
176
     1
 90
        0
176
     1
290
     0
176
     1
290
     1
176
     1
290
     1
176
     1
290
     0
176
     1
290
     0
176
     1
290
     0
176
     1
290
     0
176
     1
290
     0
176
     1
290
     0
176
     1
 90
       50
176
     1
 40
0.0
176
     1
 40
1.0
176
     1
 90
        0
176
     1
 62
    18
420
        0
176
     1
 90
       50
176
     1
 90
        3
176
     1
 62
     5
420
      255
176
     1
290
     0
176
     1
 90
       50
176
     1
 90
       50
176
     1
 90
       50
176
     1
290
     0
176
     1
 90
       50
176
     1
 62
   256
176
     0
 40
1.0
176
     0
 90
        2
176
     1
  1
strokes_ogs.tif
176
     1
290
     0
176
     1
 40
1.0
176
     1
 40
1.0
176
     1
  0
VISUALSTYLE
  5
3E
102
{ACAD_REACTORS
330
2A
102
}
330
2A
100
AcDbVisualStyle
  2
Shades of Gray
 70
    23
177
     3
291
     0
 70
    58
 90
        2
176
     1
 90
        2
176
     1
 90
        3
176
     1
 90
        0
176
     1
 40
0.6
176
     1
 40
30.0
176
     1
 62
     7
420
 16777215
176
     1
 90
        2
176
     1
 90
        2
176
     1
 62
     7
176
     1
 62
     7
176
     1
 90
        1
176
     1
 90
        1
176
     1
 40
40.0
176
     1
 90
        8
176
     1
 62
     7
176
     1
 40
1.0
176
     1
 90
        1
176
     1
 90
        6
176
     1
 90
        2
176
     1
 62
     7
176
     1
 90
        3
176
     1
 90
        0
176
     1
 90
        0
176
     1
290
     0
176
     1
 90
        1
176
     1
 40
0.0
176
     1
 90
        0
176
     1
290
     0
176
     1
290
     1
176
     1
290
     1
176
     1
290
     0
176
     1
290
     0
176
     1
290
     0
176
     1
290
     0
176
     1
290
     0
176
     1
290
     0
176
     1
 90
       50
176
     1
 40
0.0
176
     1
 40
1.0
176
     1
 90
        0
176
     1
 62
    18
420
        0
176
     1
 90
       50
176
     1
 90
        3
176
     1
 62
     5
420
      255
176
     1
290
     0
176
     1
 90
       50
176
     1
 90
       50
176
     1
 90
       50
176
     1
290
     0
176
     1
 90
       50
176
     1
 62
   256
176
     0
 40
1.0
176
     0
 90
        2
176
     1
  1
strokes_ogs.tif
176
     1
290
     0
176
     1
 40
1.0
176
     1
 40
1.0
176
     1
  0
VISUALSTYLE
  5
3F
102
{ACAD_REACTORS
330
2A
102
}
330
2A
100
AcDbVisualStyle
  2
Sketchy
 70
    24
177
     3
291
     0
 70
    58
 90
        1
176
     1
 90
        2
176
     1
 90
        2
176
     1
 90
        0
176
     1
 40
0.6
176
     1
 40
30.0
176
     1
 62
     7
420
 16777215
176
     1
 90
        2
176
     1
 90
        2
176
     1
 62
     7
176
     1
 62
     7
176
     1
 90
        1
176
     1
 90
        1
176
     1
 40
40.0
176
     1
 90
       11
176
     1
 62
     7
176
     1
 40
1.0
176
     1
 90
        1
176
     1
 90
        6
176
     1
 90
        2
176
     1
 62
     7
176
     1
 90
        6
176
     1
 90
        0
176
     1
 90
        0
176
     1
290
     0
176
     1
 90
        1
176
     1
 40
0.0
176
     1
 90
        0
176
     1
290
     0
176
     1
290
     1
176
     1
290
     1
176
     1
290
     0
176
     1
290
     0
176
     1
290
     0
176
     1
290
     0
176
     1
290
     0
176
     1
290
     0
176
     1
 90
       50
176
     1
 40
0.0
176
     1
 40
1.0
176
     1
 90
        0
176
     1
 62
    18
420
        0
176
     1
 90
       50
176
     1
 90
        3
176
     1
 62
     5
420
      255
176
     1
290
     0
176
     1
 90
       50
176
     1
 90
       50
176
     1
 90
       50
176
     1
290
     0
176
     1
 90
       50
176
     1
 62
   256
176
     0
 40
1.0
176
     0
 90
        2
176
     1
  1
strokes_ogs.tif
176
     1
290
     0
176
     1
 40
1.0
176
     1
 40
1.0
176
     1
  0
VISUALSTYLE
  5
37
102
{ACAD_REACTORS
330
2A
102
}
330
2A
100
AcDbVisualStyle
  2
Thicken
 70
    13
177
     3
291
     1
 70
    58
 90
        2
176
     1
 90
        2
176
     1
 90
        0
176
     1
 90
        0
176
     1
 40
0.6
176
     1
 40
30.0
176
     1
 62
     7
420
 16777215
176
     1
 90
        1
176
     1
 90
        4
176
     1
 62
     7
176
     1
 62
   257
176
     1
 90
        1
176
     1
 90
        1
176
     1
 40
1.0
176
     1
 90
       12
176
     1
 62
     7
176
     1
 40
1.0
176
     1
 90
        1
176
     1
 90
        6
176
     1
 90
        2
176
     1
 62
     7
176
     1
 90
        5
176
     1
 90
        0
176
     1
 90
        0
176
     1
290
     0
176
     1
 90
        1
176
     1
 40
0.0
176
     1
 90
        0
176
     1
290
     0
176
     1
290
     1
176
     1
290
     1
176
     1
290
     0
176
     1
290
     0
176
     1
290
     0
176
     1
290
     0
176
     1
290
     0
176
     1
290
     0
176
     1
 90
       50
176
     1
 40
0.0
176
     1
 40
1.0
176
     1
 90
        0
176
     1
 62
    18
420
        0
176
     1
 90
       50
176
     1
 90
        3
176
     1
 62
     5
420
      255
176
     1
290
     0
176
     1
 90
       50
176
     1
 90
       50
176
     1
 90
       50
176
     1
290
     0
176
     1
 90
       50
176
     1
 62
   256
176
     0
 40
1.0
176
     0
 90
        2
176
     1
  1
strokes_ogs.tif
176
     1
290
     0
176
     1
 40
1.0
176
     1
 40
1.0
176
     1
  0
VISUALSTYLE
  5
30
102
{ACAD_REACTORS
330
2A
102
}
330
2A
100
AcDbVisualStyle
  2
Wireframe
 70
     5
177
     3
291
     0
 70
    58
 90
        0
176
     1
 90
        2
176
     1
 90
        0
176
     1
 90
        0
176
     1
 40
0.6
176
     1
 40
30.0
176
     1
 62
     7
420
 16777215
176
     1
 90
        1
176
     1
 90
        4
176
     1
 62
     7
176
     1
 62
   257
176
     1
 90
        1
176
     1
 90
        1
176
     1
 40
1.0
176
     1
 90
        0
176
     1
 62
   257
176
     1
 40
1.0
176
     1
 90
        1
176
     1
 90
        6
176
     1
 90
        2
176
     1
 62
     7
176
     1
 90
        3
176
     1
 90
        0
176
     1
 90
        0
176
     1
290
     0
176
     1
 90
        1
176
     1
 40
0.0
176
     1
 90
        0
176
     1
290
     0
176
     1
290
     1
176
     1
290
     1
176
     1
290
     0
176
     1
290
     0
176
     1
290
     0
176
     1
290
     0
176
     1
290
     0
176
     1
290
     0
176
     1
 90
       50
176
     1
 40
0.0
176
     1
 40
1.0
176
     1
 90
        0
176
     1
 62
    18
420
        0
176
     1
 90
       50
176
     1
 90
        3
176
     1
 62
     5
420
      255
176
     1
290
     0
176
     1
 90
       50
176
     1
 90
       50
176
     1
 90
       50
176
     1
290
     0
176
     1
 90
       50
176
     1
 62
   256
176
     0
 40
1.0
176
     0
 90
        2
176
     1
  1
strokes_ogs.tif
176
     1
290
     0
176
     1
 40
1.0
176
     1
 40
1.0
176
     1
  0
VISUALSTYLE
  5
40
102
{ACAD_REACTORS
330
2A
102
}
330
2A
100
AcDbVisualStyle
  2
X-Ray
 70
    25
177
     3
291
     0
 70
    58
 90
        2
176
     1
 90
        2
176
     1
 90
        1
176
     1
 90
        1
176
     1
 40
0.5
176
     1
 40
30.0
176
     1
 62
     7
420
 16777215
176
     1
 90
        1
176
     1
 90
        0
176
     1
 62
     7
176
     1
 62
   257
176
     1
 90
        1
176
     1
 90
        1
176
     1
 40
1.0
176
     1
 90
        8
176
     1
 62
     7
176
     1
 40
1.0
176
     1
 90
        1
176
     1
 90
        6
176
     1
 90
        2
176
     1
 62
     7
176
     1
 90
        3
176
     1
 90
        0
176
     1
 90
        0
176
     1
290
     0
176
     1
 90
       13
176
     1
 40
0.0
176
     1
 90
        0
176
     1
290
     0
176
     1
290
     1
176
     1
290
     1
176
     1
290
     0
176
     1
290
     0
176
     1
290
     0
176
     1
290
     0
176
     1
290
     0
176
     1
290
     0
176
     1
 90
       50
176
     1
 40
0.0
176
     1
 40
1.0
176
     1
 90
        0
176
     1
 62
    18
420
        0
176
     1
 90
       50
176
     1
 90
        3
176
     1
 62
     5
420
      255
176
     1
290
     0
176
     1
 90
       50
176
     1
 90
       50
176
     1
 90
       50
176
     1
290
     0
176
     1
 90
       50
176
     1
 62
   256
176
     0
 40
1.0
176
     0
 90
        2
176
     1
  1
strokes_ogs.tif
176
     1
290
     0
176
     1
 40
1.0
176
     1
 40
1.0
176
     1
  0
DICTIONARYVAR
  5
FC
102
{ACAD_REACTORS
330
FB
102
}
330
FB
100
DictionaryVariables
280
     0
  1
1:1
  0
DICTIONARYVAR
  5
104
102
{ACAD_REACTORS
330
FB
102
}
330
FB
100
DictionaryVariables
280
     0
  1
3.500000
  0
DICTIONARYVAR
  5
105
102
{ACAD_REACTORS
330
FB
102
}
330
FB
100
DictionaryVariables
280
     0
  1
acadiso.lin
  0
DICTIONARYVAR
  5
101
102
{ACAD_REACTORS
330
FB
102
}
330
FB
100
DictionaryVariables
280
     0
  1
Standard
  0
DICTIONARYVAR
  5
100
102
{ACAD_REACTORS
330
FB
102
}
330
FB
100
DictionaryVariables
280
     0
  1
Standard
  0
DICTIONARY
  5
FD
330
5A
100
AcDbDictionary
280
     1
281
     1
  3
ACAD_ROUNDTRIP_2008_TABLESTYLE_CELLSTYLEMAP
360
FE
  0
CELLSTYLEMAP
  5
FE
102
{ACAD_REACTORS
330
FD
102
}
330
FD
100
AcDbCellStyleMap
 90
        3
300
CELLSTYLE
  1
TABLEFORMAT_BEGIN
 90
        5
170
     1
 91
        0
 92
    32768
 62
   257
 93
        1
300
CONTENTFORMAT
  1
CONTENTFORMAT_BEGIN
 90
        0
 91
        0
 92
        4
 93
        0
300

 40
0.0
140
1.0
 94
        5
 62
     0
340
11
144
6.0
309
CONTENTFORMAT_END
171
     1
301
MARGIN
  1
CELLMARGIN_BEGIN
 40
1.5
 40
1.5
 40
1.5
 40
1.5
 40
1.5
 40
1.5
309
CELLMARGIN_END
 94
        6
 95
        1
302
GRIDFORMAT
  1
GRIDFORMAT_BEGIN
 90
        0
 91
        1
 62
     0
 92
       -2
340
14
 93
        0
 40
0.045
309
GRIDFORMAT_END
 95
        2
302
GRIDFORMAT
  1
GRIDFORMAT_BEGIN
 90
        0
 91
        1
 62
     0
 92
       -2
340
14
 93
        0
 40
0.045
309
GRIDFORMAT_END
 95
        4
302
GRIDFORMAT
  1
GRIDFORMAT_BEGIN
 90
        0
 91
        1
 62
     0
 92
       -2
340
14
 93
        0
 40
0.045
309
GRIDFORMAT_END
 95
        8
302
GRIDFORMAT
  1
GRIDFORMAT_BEGIN
 90
        0
 91
        1
 62
     0
 92
       -2
340
14
 93
        0
 40
0.045
309
GRIDFORMAT_END
 95
       16
302
GRIDFORMAT
  1
GRIDFORMAT_BEGIN
 90
        0
 91
        1
 62
     0
 92
       -2
340
14
 93
        0
 40
0.045
309
GRIDFORMAT_END
 95
       32
302
GRIDFORMAT
  1
GRIDFORMAT_BEGIN
 90
        0
 91
        1
 62
     0
 92
       -2
340
14
 93
        0
 40
0.045
309
GRIDFORMAT_END
309
TABLEFORMAT_END
  1
CELLSTYLE_BEGIN
 90
        1
 91
        1
300
_TITLE
309
CELLSTYLE_END
300
CELLSTYLE
  1
TABLEFORMAT_BEGIN
 90
        5
170
     1
 91
        0
 92
        0
 62
   257
 93
        1
300
CONTENTFORMAT
  1
CONTENTFORMAT_BEGIN
 90
        0
 91
        0
 92
        4
 93
        0
300

 40
0.0
140
1.0
 94
        5
 62
     0
340
11
144
4.5
309
CONTENTFORMAT_END
171
     1
301
MARGIN
  1
CELLMARGIN_BEGIN
 40
1.5
 40
1.5
 40
1.5
 40
1.5
 40
1.5
 40
1.5
309
CELLMARGIN_END
 94
        6
 95
        1
302
GRIDFORMAT
  1
GRIDFORMAT_BEGIN
 90
        0
 91
        1
 62
     0
 92
       -2
340
14
 93
        0
 40
0.045
309
GRIDFORMAT_END
 95
        2
302
GRIDFORMAT
  1
GRIDFORMAT_BEGIN
 90
        0
 91
        1
 62
     0
 92
       -2
340
14
 93
        0
 40
0.045
309
GRIDFORMAT_END
 95
        4
302
GRIDFORMAT
  1
GRIDFORMAT_BEGIN
 90
        0
 91
        1
 62
     0
 92
       -2
340
14
 93
        0
 40
0.045
309
GRIDFORMAT_END
 95
        8
302
GRIDFORMAT
  1
GRIDFORMAT_BEGIN
 90
        0
 91
        1
 62
     0
 92
       -2
340
14
 93
        0
 40
0.045
309
GRIDFORMAT_END
 95
       16
302
GRIDFORMAT
  1
GRIDFORMAT_BEGIN
 90
        0
 91
        1
 62
     0
 92
       -2
340
14
 93
        0
 40
0.045
309
GRIDFORMAT_END
 95
       32
302
GRIDFORMAT
  1
GRIDFORMAT_BEGIN
 90
        0
 91
        1
 62
     0
 92
       -2
340
14
 93
        0
 40
0.045
309
GRIDFORMAT_END
309
TABLEFORMAT_END
  1
CELLSTYLE_BEGIN
 90
        2
 91
        1
300
_HEADER
309
CELLSTYLE_END
300
CELLSTYLE
  1
TABLEFORMAT_BEGIN
 90
        5
170
     1
 91
        0
 92
        0
 62
   257
 93
        1
300
CONTENTFORMAT
  1
CONTENTFORMAT_BEGIN
 90
        0
 91
        0
 92
        4
 93
        0
300

 40
0.0
140
1.0
 94
        2
 62
     0
340
11
144
4.5
309
CONTENTFORMAT_END
171
     1
301
MARGIN
  1
CELLMARGIN_BEGIN
 40
1.5
 40
1.5
 40
1.5
 40
1.5
 40
1.5
 40
1.5
309
CELLMARGIN_END
 94
        6
 95
        1
302
GRIDFORMAT
  1
GRIDFORMAT_BEGIN
 90
        0
 91
        1
 62
     0
 92
       -2
340
14
 93
        0
 40
0.045
309
GRIDFORMAT_END
 95
        2
302
GRIDFORMAT
  1
GRIDFORMAT_BEGIN
 90
        0
 91
        1
 62
     0
 92
       -2
340
14
 93
        0
 40
0.045
309
GRIDFORMAT_END
 95
        4
302
GRIDFORMAT
  1
GRIDFORMAT_BEGIN
 90
        0
 91
        1
 62
     0
 92
       -2
340
14
 93
        0
 40
0.045
309
GRIDFORMAT_END
 95
        8
302
GRIDFORMAT
  1
GRIDFORMAT_BEGIN
 90
        0
 91
        1
 62
     0
 92
       -2
340
14
 93
        0
 40
0.045
309
GRIDFORMAT_END
 95
       16
302
GRIDFORMAT
  1
GRIDFORMAT_BEGIN
 90
        0
 91
        1
 62
     0
 92
       -2
340
14
 93
        0
 40
0.045
309
GRIDFORMAT_END
 95
       32
302
GRIDFORMAT
  1
GRIDFORMAT_BEGIN
 90
        0
 91
        1
 62
     0
 92
       -2
340
14
 93
        0
 40
0.045
309
GRIDFORMAT_END
309
TABLEFORMAT_END
  1
CELLSTYLE_BEGIN
 90
        3
 91
        2
300
_DATA
309
CELLSTYLE_END
  0
ENDSEC
  0
EOF
