  0
SECTION
  2
HEADER
  9
$ACADVER
  1
AC1027
  9
$ACADMAINTVER
 70
   105
  9
$DWGCODEPAGE
  3
ANSI_1252
  9
$LASTSAVEDBY
  1
Nick
  9
$REQUIREDVERSIONS
160
                 0
  9
$INSBASE
 10
0.0
 20
0.0
 30
0.0
  9
$EXTMIN
 10
0.0
 20
0.0
 30
0.0
  9
$EXTMAX
 10
420.0
 20
297.0
 30
0.0
  9
$LIMMIN
 10
0.0
 20
0.0
  9
$LIMMAX
 10
420.0
 20
297.0
  9
$ORTHOMODE
 70
     0
  9
$REGENMODE
 70
     1
  9
$FILLMODE
 70
     1
  9
$QTEXTMODE
 70
     0
  9
$MIRRTEXT
 70
     1
  9
$LTSCALE
 40
1.0
  9
$ATTMODE
 70
     1
  9
$TEXTSIZE
 40
4.2333333333
  9
$TRACEWID
 40
1.0
  9
$TEXTSTYLE
  7
Standard
  9
$CLAYER
  8
0
  9
$CELTYPE
  6
ByLayer
  9
$CECOLOR
 62
   256
  9
$CELTSCALE
 40
1.0
  9
$DISPSILH
 70
     0
  9
$DIMSCALE
 40
1.0
  9
$DIMASZ
 40
3.302
  9
$DIMEXO
 40
1.0
  9
$DIMDLI
 40
3.75
  9
$DIMRND
 40
0.0
  9
$DIMDLE
 40
0.0
  9
$DIMEXE
 40
1.0
  9
$DIMTP
 40
0.0
  9
$DIMTM
 40
0.0
  9
$DIMTXT
 40
4.2333333333
  9
$DIMCEN
 40
2.5
  9
$DIMTSZ
 40
0.0
  9
$DIMTOL
 70
     0
  9
$DIMLIM
 70
     0
  9
$DIMTIH
 70
     1
  9
$DIMTOH
 70
     1
  9
$DIMSE1
 70
     0
  9
$DIMSE2
 70
     0
  9
$DIMTAD
 70
     1
  9
$DIMZIN
 70
     1
  9
$DIMBLK
  1

  9
$DIMASO
 70
     1
  9
$DIMSHO
 70
     1
  9
$DIMPOST
  1

  9
$DIMAPOST
  1

  9
$DIMALT
 70
     0
  9
$DIMALTD
 70
     3
  9
$DIMALTF
 40
0.0393700787
  9
$DIMLFAC
 40
1.0
  9
$DIMTOFL
 70
     1
  9
$DIMTVP
 40
0.0
  9
$DIMTIX
 70
     0
  9
$DIMSOXD
 70
     0
  9
$DIMSAH
 70
     0
  9
$DIMBLK1
  1

  9
$DIMBLK2
  1

  9
$DIMSTYLE
  2
ISO-25
  9
$DIMCLRD
 70
     0
  9
$DIMCLRE
 70
     0
  9
$DIMCLRT
 70
     0
  9
$DIMTFAC
 40
1.0
  9
$DIMGAP
 40
1.524
  9
$DIMJUST
 70
     0
  9
$DIMSD1
 70
     0
  9
$DIMSD2
 70
     0
  9
$DIMTOLJ
 70
     0
  9
$DIMTZIN
 70
     1
  9
$DIMALTZ
 70
     0
  9
$DIMALTTZ
 70
     0
  9
$DIMUPT
 70
     0
  9
$DIMDEC
 70
     0
  9
$DIMTDEC
 70
     0
  9
$DIMALTU
 70
     2
  9
$DIMALTTD
 70
     3
  9
$DIMTXSTY
  7
Standard
  9
$DIMAUNIT
 70
     0
  9
$DIMADEC
 70
     2
  9
$DIMALTRND
 40
0.0
  9
$DIMAZIN
 70
     0
  9
$DIMDSEP
 70
    44
  9
$DIMATFIT
 70
     3
  9
$DIMFRAC
 70
     0
  9
$DIMLDRBLK
  1

  9
$DIMLUNIT
 70
     2
  9
$DIMLWD
 70
    -2
  9
$DIMLWE
 70
    -2
  9
$DIMTMOVE
 70
     0
  9
$DIMFXL
 40
1.0
  9
$DIMFXLON
 70
     0
  9
$DIMJOGANG
 40
0.7853981634
  9
$DIMTFILL
 70
     0
  9
$DIMTFILLCLR
 70
     0
  9
$DIMARCSYM
 70
     0
  9
$DIMLTYPE
  6

  9
$DIMLTEX1
  6

  9
$DIMLTEX2
  6

  9
$DIMTXTDIRECTION
 70
     0
  9
$LUNITS
 70
     2
  9
$LUPREC
 70
     0
  9
$SKETCHINC
 40
1.0
  9
$FILLETRAD
 40
0.0
  9
$AUNITS
 70
     0
  9
$AUPREC
 70
     2
  9
$MENU
  1
.
  9
$ELEVATION
 40
0.0
  9
$PELEVATION
 40
0.0
  9
$THICKNESS
 40
0.0
  9
$LIMCHECK
 70
     0
  9
$CHAMFERA
 40
0.0
  9
$CHAMFERB
 40
0.0
  9
$CHAMFERC
 40
0.0
  9
$CHAMFERD
 40
0.0
  9
$SKPOLY
 70
     0
  9
$TDCREATE
 40
2460934.572274086
  9
$TDUCREATE
 40
2460934.155607419
  9
$TDUPDATE
 40
2460934.572274341
  9
$TDUUPDATE
 40
2460934.155607674
  9
$TDINDWG
 40
0.0000000116
  9
$TDUSRTIMER
 40
0.0000000116
  9
$USRTIMER
 70
     1
  9
$ANGBASE
 50
0.0
  9
$ANGDIR
 70
     0
  9
$PDMODE
 70
     0
  9
$PDSIZE
 40
-1.0
  9
$PLINEWID
 40
0.0
  9
$SPLFRAME
 70
     0
  9
$SPLINETYPE
 70
     6
  9
$SPLINESEGS
 70
     8
  9
$HANDSEED
  5
119
  9
$SURFTAB1
 70
     6
  9
$SURFTAB2
 70
     6
  9
$SURFTYPE
 70
     6
  9
$SURFU
 70
     6
  9
$SURFV
 70
     6
  9
$UCSBASE
  2

  9
$UCSNAME
  2

  9
$UCSORG
 10
0.0
 20
0.0
 30
0.0
  9
$UCSXDIR
 10
1.0
 20
0.0
 30
0.0
  9
$UCSYDIR
 10
0.0
 20
1.0
 30
0.0
  9
$UCSORTHOREF
  2

  9
$UCSORTHOVIEW
 70
     0
  9
$UCSORGTOP
 10
0.0
 20
0.0
 30
0.0
  9
$UCSORGBOTTOM
 10
0.0
 20
0.0
 30
0.0
  9
$UCSORGLEFT
 10
0.0
 20
0.0
 30
0.0
  9
$UCSORGRIGHT
 10
0.0
 20
0.0
 30
0.0
  9
$UCSORGFRONT
 10
0.0
 20
0.0
 30
0.0
  9
$UCSORGBACK
 10
0.0
 20
0.0
 30
0.0
  9
$PUCSBASE
  2

  9
$PUCSNAME
  2

  9
$PUCSORG
 10
0.0
 20
0.0
 30
0.0
  9
$PUCSXDIR
 10
1.0
 20
0.0
 30
0.0
  9
$PUCSYDIR
 10
0.0
 20
1.0
 30
0.0
  9
$PUCSORTHOREF
  2

  9
$PUCSORTHOVIEW
 70
     0
  9
$PUCSORGTOP
 10
0.0
 20
0.0
 30
0.0
  9
$PUCSORGBOTTOM
 10
0.0
 20
0.0
 30
0.0
  9
$PUCSORGLEFT
 10
0.0
 20
0.0
 30
0.0
  9
$PUCSORGRIGHT
 10
0.0
 20
0.0
 30
0.0
  9
$PUCSORGFRONT
 10
0.0
 20
0.0
 30
0.0
  9
$PUCSORGBACK
 10
0.0
 20
0.0
 30
0.0
  9
$USERI1
 70
     0
  9
$USERI2
 70
     0
  9
$USERI3
 70
     0
  9
$USERI4
 70
     0
  9
$USERI5
 70
     0
  9
$USERR1
 40
0.0
  9
$USERR2
 40
0.0
  9
$USERR3
 40
0.0
  9
$USERR4
 40
0.0
  9
$USERR5
 40
0.0
  9
$WORLDVIEW
 70
     1
  9
$SHADEDGE
 70
     3
  9
$SHADEDIF
 70
    70
  9
$TILEMODE
 70
     1
  9
$MAXACTVP
 70
    64
  9
$PINSBASE
 10
0.0
 20
0.0
 30
0.0
  9
$PLIMCHECK
 70
     0
  9
$PEXTMIN
 10
1.0000000000E+20
 20
1.0000000000E+20
 30
1.0000000000E+20
  9
$PEXTMAX
 10
-1.0000000000E+20
 20
-1.0000000000E+20
 30
-1.0000000000E+20
  9
$PLIMMIN
 10
0.0
 20
0.0
  9
$PLIMMAX
 10
420.0
 20
297.0
  9
$UNITMODE
 70
     0
  9
$VISRETAIN
 70
     1
  9
$PLINEGEN
 70
     0
  9
$PSLTSCALE
 70
     1
  9
$TREEDEPTH
 70
  3020
  9
$CMLSTYLE
  2
Standard
  9
$CMLJUST
 70
     0
  9
$CMLSCALE
 40
20.0
  9
$PROXYGRAPHICS
 70
     1
  9
$MEASUREMENT
 70
     1
  9
$CELWEIGHT
370
    -1
  9
$ENDCAPS
280
     0
  9
$JOINSTYLE
280
     0
  9
$LWDISPLAY
290
     1
  9
$INSUNITS
 70
     4
  9
$HYPERLINKBASE
  1

  9
$STYLESHEET
  1

  9
$XEDIT
290
     1
  9
$CEPSNTYPE
380
     0
  9
$PSTYLEMODE
290
     1
  9
$FINGERPRINTGUID
  2
{b6ec0b77-3e6b-4378-8bb9-d272619127c9}
  9
$VERSIONGUID
  2
{FAEB1C32-E019-11D5-929B-00C0DF256EC4}
  9
$EXTNAMES
290
     1
  9
$PSVPSCALE
 40
0.0
  9
$OLESTARTUP
290
     0
  9
$SORTENTS
280
   127
  9
$INDEXCTL
280
     0
  9
$HIDETEXT
280
     1
  9
$XCLIPFRAME
280
     2
  9
$HALOGAP
280
     0
  9
$OBSCOLOR
 70
   257
  9
$OBSLTYPE
280
     0
  9
$INTERSECTIONDISPLAY
280
     0
  9
$INTERSECTIONCOLOR
 70
   257
  9
$DIMASSOC
280
     2
  9
$PROJECTNAME
  1

  9
$CAMERADISPLAY
290
     0
  9
$LENSLENGTH
 40
50.0
  9
$CAMERAHEIGHT
 40
0.0
  9
$STEPSPERSEC
 40
2.0
  9
$STEPSIZE
 40
6.0
  9
$3DDWFPREC
 40
2.0
  9
$PSOLWIDTH
 40
5.0
  9
$PSOLHEIGHT
 40
80.0
  9
$LOFTANG1
 40
1.5707963268
  9
$LOFTANG2
 40
1.5707963268
  9
$LOFTMAG1
 40
0.0
  9
$LOFTMAG2
 40
0.0
  9
$LOFTPARAM
 70
     7
  9
$LOFTNORMALS
280
     1
  9
$LATITUDE
 40
37.795
  9
$LONGITUDE
 40
-122.394
  9
$NORTHDIRECTION
 40
0.0
  9
$TIMEZONE
 70
 -8000
  9
$LIGHTGLYPHDISPLAY
280
     1
  9
$TILEMODELIGHTSYNCH
280
     1
  9
$CMATERIAL
347
44
  9
$SOLIDHIST
280
     0
  9
$SHOWHIST
280
     1
  9
$DWFFRAME
280
     2
  9
$DGNFRAME
280
     2
  9
$REALWORLDSCALE
290
     1
  9
$INTERFERECOLOR
 62
   256
  9
$CSHADOW
280
     0
  9
$SHADOWPLANELOCATION
 40
0.0
  0
ENDSEC
  0
SECTION
  2
CLASSES
  0
CLASS
  1
ACDBDICTIONARYWDFLT
  2
AcDbDictionaryWithDefault
  3
ObjectDBX Classes
 90
        0
 91
        3
280
     0
281
     0
  0
CLASS
  1
VISUALSTYLE
  2
AcDbVisualStyle
  3
ObjectDBX Classes
 90
     4095
 91
        3
280
     0
281
     0
  0
CLASS
  1
MATERIAL
  2
AcDbMaterial
  3
ObjectDBX Classes
 90
     1153
 91
        3
280
     0
281
     0
  0
CLASS
  1
SCALE
  2
AcDbScale
  3
ObjectDBX Classes
 90
     1153
 91
        3
280
     0
281
     0
  0
CLASS
  1
TABLESTYLE
  2
AcDbTableStyle
  3
ObjectDBX Classes
 90
     4095
 91
        3
280
     0
281
     0
  0
CLASS
  1
MLEADERSTYLE
  2
AcDbMLeaderStyle
  3
ACDB_MLEADERSTYLE_CLASS
 90
     4095
 91
        3
280
     0
281
     0
  0
CLASS
  1
SUN
  2
AcDbSun
  3
SCENEOE
 90
     1153
 91
        3
280
     0
281
     0
  0
CLASS
  1
DICTIONARYVAR
  2
AcDbDictionaryVar
  3
ObjectDBX Classes
 90
        0
 91
        3
280
     0
281
     0
  0
CLASS
  1
CELLSTYLEMAP
  2
AcDbCellStyleMap
  3
ObjectDBX Classes
 90
     1152
 91
        3
280
     0
281
     0
  0
ENDSEC
  0
SECTION
  2
TABLES
  0
TABLE
  2
VPORT
  5
8
330
0
100
AcDbSymbolTable
 70
     1
  0
VPORT
  5
29
330
8
100
AcDbSymbolTableRecord
100
AcDbViewportTableRecord
  2
*Active
 70
     0
 10
0.0
 20
0.0
 11
1.0
 21
1.0
 12
210.0
 22
148.5
 13
0.0
 23
0.0
 14
10.0
 24
10.0
 15
10.0
 25
10.0
 16
0.0
 26
0.0
 36
1.0
 17
0.0
 27
0.0
 37
0.0
 40
297.0
 41
1.4141414141
 42
50.0
 43
0.0
 44
0.0
 50
0.0
 51
0.0
 71
     0
 72
  2000
 73
     1
 74
     3
 75
     0
 76
     0
 77
     0
 78
     0
281
     0
 65
     1
110
0.0
120
0.0
130
0.0
111
1.0
121
0.0
131
0.0
112
0.0
122
1.0
132
0.0
 79
     0
146
0.0
348
2F
 60
     3
 61
     5
292
     1
282
     1
141
0.0
142
0.0
 63
   250
361
5D
  0
ENDTAB
  0
TABLE
  2
LTYPE
  5
5
330
0
100
AcDbSymbolTable
 70
     6
  0
LTYPE
  5
14
330
5
100
AcDbSymbolTableRecord
100
AcDbLinetypeTableRecord
  2
ByBlock
 70
     0
  3

 72
    65
 73
     0
 40
0.0
  0
LTYPE
  5
15
330
5
100
AcDbSymbolTableRecord
100
AcDbLinetypeTableRecord
  2
ByLayer
 70
     0
  3

 72
    65
 73
     0
 40
0.0
  0
LTYPE
  5
16
330
5
100
AcDbSymbolTableRecord
100
AcDbLinetypeTableRecord
  2
Continuous
 70
     0
  3
Solid line
 72
    65
 73
     0
 40
0.0
  0
LTYPE
  5
5E
330
5
100
AcDbSymbolTableRecord
100
AcDbLinetypeTableRecord
  2
HIDDEN
 70
     0
  3
Hidden __ __ __ __ __ __ __ __ __ __ __ __ __ __
 72
    65
 73
     2
 40
1.905
 49
1.27
 74
     0
 49
-0.635
 74
     0
  0
LTYPE
  5
5F
330
5
100
AcDbSymbolTableRecord
100
AcDbLinetypeTableRecord
  2
PHANTOM
 70
     0
  3
Phantom ______  __  __  ______  __  __  ______
 72
    65
 73
     6
 40
12.7
 49
6.35
 74
     0
 49
-1.27
 74
     0
 49
1.27
 74
     0
 49
-1.27
 74
     0
 49
1.27
 74
     0
 49
-1.27
 74
     0
  0
LTYPE
  5
60
330
5
100
AcDbSymbolTableRecord
100
AcDbLinetypeTableRecord
  2
CENTER
 70
     0
  3
Center ____ _ ____ _ ____ _ ____ _ ____ _ ____
 72
    65
 73
     4
 40
10.16
 49
6.35
 74
     0
 49
-1.27
 74
     0
 49
1.27
 74
     0
 49
-1.27
 74
     0
  0
LTYPE
  5
61
330
5
100
AcDbSymbolTableRecord
100
AcDbLinetypeTableRecord
  2
CENTERX2
 70
     0
  3
Center (2x) ________  __  ________  __  _____
 72
    65
 73
     4
 40
20.32
 49
12.7
 74
     0
 49
-2.54
 74
     0
 49
2.54
 74
     0
 49
-2.54
 74
     0
  0
LTYPE
  5
62
330
5
100
AcDbSymbolTableRecord
100
AcDbLinetypeTableRecord
  2
DOT2
 70
     0
  3
Dot (.5x) ........................................
 72
    65
 73
     2
 40
0.635
 49
0.0
 74
     0
 49
-0.635
 74
     0
  0
ENDTAB
  0
TABLE
  2
LAYER
  5
2
330
0
100
AcDbSymbolTable
 70
    13
  0
LAYER
  5
10
330
2
100
AcDbSymbolTableRecord
100
AcDbLayerTableRecord
  2
0
 70
     0
 62
     7
  6
Continuous
370
    -3
390
F
347
46
348
0
  0
LAYER
  5
63
330
2
100
AcDbSymbolTableRecord
100
AcDbLayerTableRecord
  2
DRAWING-SHEET
 70
     0
 62
   179
  6
Continuous
370
    -3
390
F
347
46
348
0
  0
LAYER
  5
64
330
2
100
AcDbSymbolTableRecord
100
AcDbLayerTableRecord
  2
BORDER
 70
     0
 62
   179
  6
Continuous
370
    -3
390
F
347
46
348
0
  0
LAYER
  5
65
330
2
100
AcDbSymbolTableRecord
100
AcDbLayerTableRecord
  2
DIMENSIONS
 70
     0
 62
     7
  6
Continuous
370
    -3
390
F
347
46
348
0
  0
LAYER
  5
66
330
2
100
AcDbSymbolTableRecord
100
AcDbLayerTableRecord
  2
CENTRE_LINES
 70
     0
 62
     7
  6
Continuous
370
    -3
390
F
347
46
348
0
  0
LAYER
  5
67
330
2
100
AcDbSymbolTableRecord
100
AcDbLayerTableRecord
  2
FORMAT
 70
     0
 62
     7
  6
Continuous
370
    -3
390
F
347
46
348
0
  0
LAYER
  5
68
330
2
100
AcDbSymbolTableRecord
100
AcDbLayerTableRecord
  2
SLD-0
 70
     0
 62
   179
  6
Continuous
370
    -3
390
F
347
46
348
0
  0
LAYER
  5
69
330
2
100
AcDbSymbolTableRecord
100
AcDbLayerTableRecord
  2
OUTLINE
 70
     0
 62
     4
  6
Continuous
370
    -3
390
F
347
46
348
0
  0
LAYER
  5
6A
330
2
100
AcDbSymbolTableRecord
100
AcDbLayerTableRecord
  2
4
 70
     0
 62
     7
  6
Continuous
370
    70
390
F
347
46
348
0
  0
LAYER
  5
6B
330
2
100
AcDbSymbolTableRecord
100
AcDbLayerTableRecord
  2
TEXT25
 70
     0
 62
   179
  6
Continuous
370
    -3
390
F
347
46
348
0
  0
LAYER
  5
6C
330
2
100
AcDbSymbolTableRecord
100
AcDbLayerTableRecord
  2
TEXT35
 70
     0
 62
     7
  6
Continuous
370
    -3
390
F
347
46
348
0
  0
LAYER
  5
6D
330
2
100
AcDbSymbolTableRecord
100
AcDbLayerTableRecord
  2
TEXT5
 70
     0
 62
     7
  6
Continuous
370
    -3
390
F
347
46
348
0
  0
LAYER
  5
6E
330
2
100
AcDbSymbolTableRecord
100
AcDbLayerTableRecord
  2
5
 70
     0
 62
     7
  6
Continuous
370
    35
390
F
347
46
348
0
  0
ENDTAB
  0
TABLE
  2
STYLE
  5
3
330
0
100
AcDbSymbolTable
 70
     3
  0
STYLE
  5
11
330
3
100
AcDbSymbolTableRecord
100
AcDbTextStyleTableRecord
  2
Standard
 70
     0
 40
0.0
 41
1.0
 50
0.0
 71
     0
 42
4.2333333333
  3
txt
  4

  0
STYLE
  5
75
330
3
100
AcDbSymbolTableRecord
100
AcDbTextStyleTableRecord
  2
SLDTEXTSTYLE0
 70
     0
 40
0.0
 41
0.75
 50
0.0
 71
     0
 42
4.2333333333
  3
TXT
  4

  0
STYLE
  5
7B
330
3
100
AcDbSymbolTableRecord
100
AcDbTextStyleTableRecord
  2
SLDTEXTSTYLE1
 70
     0
 40
0.0
 41
0.6
 50
0.0
 71
     0
 42
4.2333333333
  3
TXT
  4

  0
ENDTAB
  0
TABLE
  2
VIEW
  5
6
330
0
100
AcDbSymbolTable
 70
     0
  0
ENDTAB
  0
TABLE
  2
UCS
  5
7
330
0
100
AcDbSymbolTable
 70
     0
  0
ENDTAB
  0
TABLE
  2
APPID
  5
9
330
0
100
AcDbSymbolTable
 70
     1
  0
APPID
  5
12
330
9
100
AcDbSymbolTableRecord
100
AcDbRegAppTableRecord
  2
ACAD
 70
     0
  0
ENDTAB
  0
TABLE
  2
DIMSTYLE
  5
A
330
0
100
AcDbSymbolTable
 70
     1
100
AcDbDimStyleTable
  0
DIMSTYLE
105
27
330
A
100
AcDbSymbolTableRecord
100
AcDbDimStyleTableRecord
  2
ISO-25
 70
     0
 41
2.5
 42
0.625
 43
3.75
 44
1.25
 73
     0
 74
     0
 77
     1
 78
     8
140
2.5
141
2.5
143
0.0393700787
147
0.625
171
     3
172
     1
178
     0
271
     2
272
     2
274
     3
278
    44
283
     0
284
     8
340
11
  0
ENDTAB
  0
TABLE
  2
BLOCK_RECORD
  5
1
330
0
100
AcDbSymbolTable
 70
     6
  0
BLOCK_RECORD
  5
1F
330
1
100
AcDbSymbolTableRecord
100
AcDbBlockTableRecord
  2
*Model_Space
340
22
 70
     0
280
     1
281
     0
  0
BLOCK_RECORD
  5
1B
330
1
100
AcDbSymbolTableRecord
100
AcDbBlockTableRecord
  2
*Paper_Space
340
1E
 70
     0
280
     1
281
     0
  0
BLOCK_RECORD
  5
23
330
1
100
AcDbSymbolTableRecord
100
AcDbBlockTableRecord
  2
*Paper_Space0
340
26
 70
     0
280
     1
281
     0
  0
BLOCK_RECORD
  5
6F
330
1
100
AcDbSymbolTableRecord
100
AcDbBlockTableRecord
  2
Block1
340
0
 70
     0
280
     1
281
     0
  0
BLOCK_RECORD
  5
72
330
1
100
AcDbSymbolTableRecord
100
AcDbBlockTableRecord
  2
SW_NOTE_0
340
0
102
{BLKREFS
331
77
102
}
 70
     0
280
     1
281
     0
  0
BLOCK_RECORD
  5
78
330
1
100
AcDbSymbolTableRecord
100
AcDbBlockTableRecord
  2
SW_NOTE_0_1
340
0
102
{BLKREFS
331
7D
102
}
 70
     0
280
     1
281
     0
  0
BLOCK_RECORD
  5
7E
330
1
100
AcDbSymbolTableRecord
100
AcDbBlockTableRecord
  2
SW_NOTE_0_2
340
0
102
{BLKREFS
331
82
102
}
 70
     0
280
     1
281
     0
  0
BLOCK_RECORD
  5
83
330
1
100
AcDbSymbolTableRecord
100
AcDbBlockTableRecord
  2
SW_NOTE_0_3
340
0
102
{BLKREFS
331
87
102
}
 70
     0
280
     1
281
     0
  0
ENDTAB
  0
ENDSEC
  0
SECTION
  2
BLOCKS
  0
BLOCK
  5
20
330
1F
100
AcDbEntity
  8
0
100
AcDbBlockBegin
  2
*Model_Space
 70
     0
 10
0.0
 20
0.0
 30
0.0
  3
*Model_Space
  1

  0
ENDBLK
  5
21
330
1F
100
AcDbEntity
  8
0
100
AcDbBlockEnd
  0
BLOCK
  5
1C
330
1B
100
AcDbEntity
 67
     1
  8
0
100
AcDbBlockBegin
  2
*Paper_Space
 70
     0
 10
0.0
 20
0.0
 30
0.0
  3
*Paper_Space
  1

  0
ENDBLK
  5
1D
330
1B
100
AcDbEntity
 67
     1
  8
0
100
AcDbBlockEnd
  0
BLOCK
  5
24
330
23
100
AcDbEntity
  8
0
100
AcDbBlockBegin
  2
*Paper_Space0
 70
     0
 10
0.0
 20
0.0
 30
0.0
  3
*Paper_Space0
  1

  0
ENDBLK
  5
25
330
23
100
AcDbEntity
  8
0
100
AcDbBlockEnd
  0
BLOCK
  5
70
330
6F
100
AcDbEntity
  8
0
100
AcDbBlockBegin
  2
Block1
 70
     0
 10
0.0
 20
0.0
 30
0.0
  3
Block1
  1

  0
INSERT
  5
77
330
6F
100
AcDbEntity
  8
0
  6
Continuous
 62
     7
370
     0
100
AcDbBlockReference
  2
SW_NOTE_0
 10
40.5248655077
 20
20.5912386523
 30
0.0
  0
INSERT
  5
7D
330
6F
100
AcDbEntity
  8
DRAWING-SHEET
 62
     7
100
AcDbBlockReference
  2
SW_NOTE_0_1
 10
3.556761253
 20
-0.3611706024
 30
0.0
  0
INSERT
  5
82
330
6F
100
AcDbEntity
  8
DRAWING-SHEET
 62
     7
100
AcDbBlockReference
  2
SW_NOTE_0_2
 10
7.9590819428
 20
3.0109637777
 30
0.0
  0
INSERT
  5
87
330
6F
100
AcDbEntity
  8
DRAWING-SHEET
 62
     7
100
AcDbBlockReference
  2
SW_NOTE_0_3
 10
0.0721004934
 20
6.5234823937
 30
0.0
  0
ENDBLK
  5
71
330
6F
100
AcDbEntity
  8
0
100
AcDbBlockEnd
  0
BLOCK
  5
73
330
72
100
AcDbEntity
  8
0
100
AcDbBlockBegin
  2
SW_NOTE_0
 70
     0
 10
0.0
 20
0.0
 30
0.0
  3
SW_NOTE_0
  1

  0
MTEXT
  5
76
330
72
100
AcDbEntity
  8
0
  6
Continuous
 62
     0
370
     0
100
AcDbMText
 10
0.0
 20
1.9336016097
 30
0.0
 40
1.5
 41
0.0
 46
0.0
 71
     1
 72
     1
  1
TITLE:
  7
SLDTEXTSTYLE0
 73
     1
 44
1.0
  0
ENDBLK
  5
74
330
72
100
AcDbEntity
  8
0
100
AcDbBlockEnd
  0
BLOCK
  5
79
330
78
100
AcDbEntity
  8
0
100
AcDbBlockBegin
  2
SW_NOTE_0_1
 70
     0
 10
0.0
 20
0.0
 30
0.0
  3
SW_NOTE_0_1
  1

  0
MTEXT
  5
7C
330
78
100
AcDbEntity
  8
DRAWING-SHEET
 62
     0
100
AcDbMText
 10
0.0
 20
2.7285267159
 30
0.0
 40
2.1166666667
 41
0.0
 46
0.0
 71
     1
 72
     1
  1
Email: roddyeng.com.au
  7
SLDTEXTSTYLE1
 73
     1
 44
1.0
  0
ENDBLK
  5
7A
330
78
100
AcDbEntity
  8
0
100
AcDbBlockEnd
  0
BLOCK
  5
7F
330
7E
100
AcDbEntity
  8
0
100
AcDbBlockBegin
  2
SW_NOTE_0_2
 70
     0
 10
0.0
 20
0.0
 30
0.0
  3
SW_NOTE_0_2
  1

  0
MTEXT
  5
81
330
7E
100
AcDbEntity
  8
DRAWING-SHEET
 62
     0
100
AcDbMText
 10
0.0
 20
2.7285267159
 30
0.0
 40
2.1166666667
 41
0.0
 46
0.0
 71
     1
 72
     1
  1
Ph: - 02 6947 4039
  7
SLDTEXTSTYLE1
 73
     1
 44
1.0
  0
ENDBLK
  5
80
330
7E
100
AcDbEntity
  8
0
100
AcDbBlockEnd
  0
BLOCK
  5
84
330
83
100
AcDbEntity
  8
0
100
AcDbBlockBegin
  2
SW_NOTE_0_3
 70
     0
 10
0.0
 20
0.0
 30
0.0
  3
SW_NOTE_0_3
  1

  0
MTEXT
  5
86
330
83
100
AcDbEntity
  8
DRAWING-SHEET
 62
     0
100
AcDbMText
 10
0.0
 20
2.7285267159
 30
0.0
 40
2.1166666667
 41
0.0
 46
0.0
 71
     1
 72
     1
  1
14 Waratah St TUMUT NSW 2720
  7
SLDTEXTSTYLE1
 73
     1
 44
1.0
  0
ENDBLK
  5
85
330
83
100
AcDbEntity
  8
0
100
AcDbBlockEnd
  0
ENDSEC
  0
SECTION
  2
ENTITIES
  0
SPLINE
  5
88
330
1F
100
AcDbEntity
  8
0
  6
Continuous
 62
     7
370
    25
100
AcDbSpline
210
0.0
220
0.0
230
1.0
 70
     8
 71
     3
 72
    19
 73
    15
 74
     0
 42
0.00000001
 43
0.00000001
 40
0.0
 40
0.0
 40
0.0
 40
0.0
 40
0.074058426273383
 40
0.1488703523168785
 40
0.2266676683691797
 40
0.3077347594511144
 40
0.39115720380598
 40
0.4739293555425543
 40
0.5579277515150556
 40
0.6449892900513604
 40
0.7333640555176183
 40
0.8210920421841613
 40
0.9092872149973381
 40
1.0
 40
1.0
 40
1.0
 40
1.0
 10
921.4118096744788
 20
845.4521700641528
 30
0.0
 10
921.4155477867023
 20
845.5374216261681
 30
0.0
 10
921.4230620441841
 20
845.7087921333662
 30
0.0
 10
921.4838239198076
 20
845.9638918438134
 30
0.0
 10
921.5828412146947
 20
846.2144439924401
 30
0.0
 10
921.7175177792963
 20
846.4592341931727
 30
0.0
 10
921.8852599876307
 20
846.6899775409719
 30
0.0
 10
922.0865092352443
 20
846.8969282753377
 30
0.0
 10
922.3164596279773
 20
847.078211663875
 30
0.0
 10
922.5739633239854
 20
847.2303857730144
 30
0.0
 10
922.851074719948
 20
847.3542341359571
 30
0.0
 10
923.1434535173958
 20
847.4396705309713
 30
0.0
 10
923.4460055017578
 20
847.4955245120169
 30
0.0
 10
923.6519431459831
 20
847.5018482940484
 30
0.0
 10
923.75636095653
 20
847.5050546795375
 30
0.0
  0
SPLINE
  5
89
330
1F
100
AcDbEntity
  8
0
  6
Continuous
 62
     7
370
    25
100
AcDbSpline
210
0.0
220
0.0
230
1.0
 70
     8
 71
     3
 72
    15
 73
    11
 74
     0
 42
0.00000001
 43
0.00000001
 40
0.0
 40
0.0
 40
0.0
 40
0.0
 40
0.145860060391668
 40
0.2824259030758204
 40
0.4108504003575522
 40
0.5350294213479333
 40
0.6547010781259425
 40
0.7701334325965058
 40
0.8845558441988611
 40
1.0
 40
1.0
 40
1.0
 40
1.0
 10
922.580078905248
 20
843.7566572436401
 30
0.0
 10
922.4872986202824
 20
843.8072510004854
 30
0.0
 10
922.307650019434
 20
843.9052146749049
 30
0.0
 10
922.0697770111314
 20
844.0852073745463
 30
0.0
 10
921.865455586093
 20
844.2801509512667
 30
0.0
 10
921.7003019458294
 20
844.4941619108632
 30
0.0
 10
921.5703082816646
 20
844.7205547664151
 30
0.0
 10
921.4811228998434
 20
844.9579130575678
 30
0.0
 10
921.4207880792626
 20
845.201835602723
 30
0.0
 10
921.4148113315113
 20
845.368478337758
 30
0.0
 10
921.4118096744788
 20
845.4521700641528
 30
0.0
  0
SPLINE
  5
8A
330
1F
100
AcDbEntity
  8
0
  6
Continuous
 62
     7
370
    25
100
AcDbSpline
210
0.0
220
0.0
230
1.0
 70
     8
 71
     3
 72
    23
 73
    19
 74
     0
 42
0.00000001
 43
0.00000001
 40
0.0
 40
0.0
 40
0.0
 40
0.0
 40
0.0588535860286673
 40
0.1163154589633496
 40
0.172674843411456
 40
0.2287803868808985
 40
0.2845803591252741
 40
0.3402565063845437
 40
0.3966298050124553
 40
0.4535072628751903
 40
0.5123181897799942
 40
0.5726484440568299
 40
0.6360219358218008
 40
0.7023629463891918
 40
0.7714830560569286
 40
0.8441844774898994
 40
0.9200697939721533
 40
1.0
 40
1.0
 40
1.0
 40
1.0
 10
921.0015532642224
 20
841.5643495513324
 30
0.0
 10
921.0028741351452
 20
841.6204848474166
 30
0.0
 10
921.0054846423037
 20
841.7314280060016
 30
0.0
 10
921.0235528668316
 20
841.8953350420821
 30
0.0
 10
921.052600778382
 20
842.0548690644234
 30
0.0
 10
921.0920509653387
 20
842.210619335686
 30
0.0
 10
921.1455161686948
 20
842.3614519585904
 30
0.0
 10
921.2100696158822
 20
842.5080816127148
 30
0.0
 10
921.2853426501155
 20
842.6506738388729
 30
0.0
 10
921.3723853130915
 20
842.7900084241732
 30
0.0
 10
921.4736470822372
 20
842.9241330235545
 30
0.0
 10
921.5883068531786
 20
843.055323868377
 30
0.0
 10
921.7186562672704
 20
843.1815452789764
 30
0.0
 10
921.8632452019002
 20
843.3043393930716
 30
0.0
 10
922.020421292107
 20
843.4258844760881
 30
0.0
 10
922.1942670760732
 20
843.5396118557708
 30
0.0
 10
922.3801739738807
 20
843.6535729180862
 30
0.0
 10
922.5123006152689
 20
843.7217062333679
 30
0.0
 10
922.580078905248
 20
843.7566572436401
 30
0.0
  0
SPLINE
  5
8B
330
1F
100
AcDbEntity
  8
0
  6
Continuous
 62
     7
370
    25
100
AcDbSpline
210
0.0
220
0.0
230
1.0
 70
     8
 71
     3
 72
    23
 73
    19
 74
     0
 42
0.00000001
 43
0.00000001
 40
0.0
 40
0.0
 40
0.0
 40
0.0
 40
0.0785564333527027
 40
0.1528628401420922
 40
0.2235596934382875
 40
0.2903749439782087
 40
0.3554030728222039
 40
0.4182911570440922
 40
0.4803885637756455
 40
0.5430726152062784
 40
0.6049239444620939
 40
0.664398309113298
 40
0.7219425547367025
 40
0.7783748910546731
 40
0.8338299406509386
 40
0.8888612363188838
 40
0.944088939577886
 40
1.0
 40
1.0
 40
1.0
 40
1.0
 10
923.7082840334532
 20
839.0947982692811
 30
0.0
 10
923.6008248594736
 20
839.097432504606
 30
0.0
 10
923.391720221791
 20
839.1025584589827
 30
0.0
 10
923.0873593588408
 20
839.1372885883025
 30
0.0
 10
922.8036494849088
 20
839.1981522835671
 30
0.0
 10
922.5389409859404
 20
839.2814542477317
 30
0.0
 10
922.2948296868789
 20
839.389820483883
 30
0.0
 10
922.0720111699123
 20
839.5246968467343
 30
0.0
 10
921.8672706619036
 20
839.6806544288168
 30
0.0
 10
921.6868215794665
 20
839.862172321848
 30
0.0
 10
921.5266194220806
 20
840.056590315728
 30
0.0
 10
921.3858924436406
 20
840.2571654237527
 30
0.0
 10
921.2689231212916
 20
840.4639159552705
 30
0.0
 10
921.1698897605017
 20
840.6737590802668
 30
0.0
 10
921.0940771372244
 20
840.8896360039952
 30
0.0
 10
921.0415692279023
 20
841.1104360340145
 30
0.0
 10
921.0082222243747
 20
841.3357735033908
 30
0.0
 10
921.0037853445974
 20
841.4878458537313
 30
0.0
 10
921.0015532642224
 20
841.5643495513324
 30
0.0
  0
SPLINE
  5
8C
330
1F
100
AcDbEntity
  8
0
  6
Continuous
 62
     7
370
    25
100
AcDbSpline
210
0.0
220
0.0
230
1.0
 70
     8
 71
     3
 72
    15
 73
    11
 74
     0
 42
0.00000001
 43
0.00000001
 40
0.0
 40
0.0
 40
0.0
 40
0.0
 40
0.1192834503733708
 40
0.2370928820686309
 40
0.3547960442151283
 40
0.4745763009408482
 40
0.5974600658149762
 40
0.7249261546156146
 40
0.8588831991927639
 40
1.0
 40
1.0
 40
1.0
 40
1.0
 10
925.8316814693505
 20
839.9730033974863
 30
0.0
 10
925.7680552423693
 20
839.9030747707642
 30
0.0
 10
925.6415890353395
 20
839.7640816447545
 30
0.0
 10
925.4249423436455
 20
839.5836226504896
 30
0.0
 10
925.1871780377805
 20
839.4319668925624
 30
0.0
 10
924.9292161346063
 20
839.3083739907364
 30
0.0
 10
924.651746188536
 20
839.2121777417651
 30
0.0
 10
924.3548273208553
 20
839.1430519865347
 30
0.0
 10
924.037880685613
 20
839.1034578626111
 30
0.0
 10
923.820039608777
 20
839.0977344575838
 30
0.0
 10
923.7082840334532
 20
839.0947982692811
 30
0.0
  0
SPLINE
  5
8D
330
1F
100
AcDbEntity
  8
0
  6
Continuous
 62
     7
370
    25
100
AcDbSpline
210
0.0
220
0.0
230
1.0
 70
     8
 71
     3
 72
    15
 73
    11
 74
     0
 42
0.00000001
 43
0.00000001
 40
0.0
 40
0.0
 40
0.0
 40
0.0
 40
0.1281581855276732
 40
0.2536731361531684
 40
0.3773253059734881
 40
0.4993845547646057
 40
0.6229183680423441
 40
0.745839393104578
 40
0.8713952850140295
 40
1.0
 40
1.0
 40
1.0
 40
1.0
 10
926.4374507001198
 20
841.6300546795376
 30
0.0
 10
926.4356874531722
 20
841.5530312906786
 30
0.0
 10
926.4321973258649
 20
841.4005731037236
 30
0.0
 10
926.4017973623806
 20
841.1755534203006
 30
0.0
 10
926.356281982988
 20
840.957012204464
 30
0.0
 10
926.2898145263509
 20
840.7449973683152
 30
0.0
 10
926.2036124901232
 20
840.5406788006762
 30
0.0
 10
926.0973797221693
 20
840.343881604235
 30
0.0
 10
925.9771255389768
 20
840.1513803261234
 30
0.0
 10
925.88054899222
 20
840.0329359795569
 30
0.0
 10
925.8316814693505
 20
839.9730033974863
 30
0.0
  0
SPLINE
  5
8E
330
1F
100
AcDbEntity
  8
0
  6
Continuous
 62
     7
370
    25
100
AcDbSpline
210
0.0
220
0.0
230
1.0
 70
     8
 71
     3
 72
    23
 73
    19
 74
     0
 42
0.00000001
 43
0.00000001
 40
0.0
 40
0.0
 40
0.0
 40
0.0
 40
0.0795248295850136
 40
0.1550999763495355
 40
0.2272198200732677
 40
0.295910504191471
 40
0.3620558809471782
 40
0.4255201169126369
 40
0.4858127192253088
 40
0.5444947060018102
 40
0.6014596357222267
 40
0.6578405937966495
 40
0.7139744721931386
 40
0.7694679515974512
 40
0.8261299671813291
 40
0.8828853593090689
 40
0.9407008816662019
 40
1.0
 40
1.0
 40
1.0
 40
1.0
 10
924.8909763411455
 20
843.7566572436401
 30
0.0
 10
924.9564587346309
 20
843.722513344306
 30
0.0
 10
925.0841712708781
 20
843.6559213376735
 30
0.0
 10
925.2660620325013
 20
843.5486965886715
 30
0.0
 10
925.4322906067887
 20
843.4356886689766
 30
0.0
 10
925.5874690337324
 20
843.3222352760336
 30
0.0
 10
925.7288709784335
 20
843.2039915014076
 30
0.0
 10
925.8549153506833
 20
843.0804871443607
 30
0.0
 10
925.9687156247813
 20
842.9548049836876
 30
0.0
 10
926.0679768453285
 20
842.8248167775967
 30
0.0
 10
926.1552839006864
 20
842.6908678653815
 30
0.0
 10
926.2307402097232
 20
842.5526066698563
 30
0.0
 10
926.2952366733408
 20
842.4103361926663
 30
0.0
 10
926.3463519618597
 20
842.2625034385278
 30
0.0
 10
926.3884589142959
 20
842.1112799833093
 30
0.0
 10
926.41743172582
 20
841.954713167647
 30
0.0
 10
926.4330132522601
 20
841.7938346741715
 30
0.0
 10
926.4359591115544
 20
841.6851071274657
 30
0.0
 10
926.4374507001198
 20
841.6300546795376
 30
0.0
  0
SPLINE
  5
8F
330
1F
100
AcDbEntity
  8
0
  6
Continuous
 62
     7
370
    25
100
AcDbSpline
210
0.0
220
0.0
230
1.0
 70
     8
 71
     3
 72
    15
 73
    11
 74
     0
 42
0.00000001
 43
0.00000001
 40
0.0
 40
0.0
 40
0.0
 40
0.0
 40
0.1219040408698855
 40
0.2394126076020053
 40
0.3554101042801773
 40
0.4720907288033035
 40
0.5928589821563579
 40
0.7187034677136831
 40
0.8548923829515256
 40
1.0
 40
1.0
 40
1.0
 40
1.0
 10
926.0271942898634
 20
845.4297341667169
 30
0.0
 10
926.0239152941319
 20
845.3429303636159
 30
0.0
 10
926.017475532884
 20
845.1724526279975
 30
0.0
 10
925.9633042425359
 20
844.9239348669048
 30
0.0
 10
925.872073811448
 20
844.6911987779192
 30
0.0
 10
925.7475157246294
 20
844.4716034586734
 30
0.0
 10
925.5851717532329
 20
844.2691314641369
 30
0.0
 10
925.3872089348403
 20
844.0812081043852
 30
0.0
 10
925.1552055559708
 20
843.9062896396247
 30
0.0
 10
924.9808949589116
 20
843.807577949849
 30
0.0
 10
924.8909763411455
 20
843.7566572436401
 30
0.0
  0
SPLINE
  5
90
330
1F
100
AcDbEntity
  8
0
  6
Continuous
 62
     7
370
    25
100
AcDbSpline
210
0.0
220
0.0
230
1.0
 70
     8
 71
     3
 72
    19
 73
    15
 74
     0
 42
0.00000001
 43
0.00000001
 40
0.0
 40
0.0
 40
0.0
 40
0.0
 40
0.089409711110136
 40
0.1763057644831058
 40
0.2626259021834181
 40
0.3494457264756545
 40
0.4354982637429564
 40
0.5189281301037145
 40
0.6013546565787405
 40
0.6842564217184176
 40
0.7658067397968339
 40
0.8448768657103879
 40
0.9222797948488742
 40
1.0
 40
1.0
 40
1.0
 40
1.0
 10
923.75636095653
 20
847.5050546795375
 30
0.0
 10
923.8580839622239
 20
847.5017487524291
 30
0.0
 10
924.058670140858
 20
847.4952298407925
 30
0.0
 10
924.353515003895
 20
847.4408598337936
 30
0.0
 10
924.6356290094628
 20
847.3500495029454
 30
0.0
 10
924.9040392927326
 20
847.2268558496215
 30
0.0
 10
925.1539407040923
 20
847.0751142706339
 30
0.0
 10
925.3747459823866
 20
846.8913408441853
 30
0.0
 10
925.5697918840218
 20
846.6853030139663
 30
0.0
 10
925.7311276423266
 20
846.4546296349638
 30
0.0
 10
925.864071389569
 20
846.2107800495113
 30
0.0
 10
925.9566448778356
 20
845.955642858899
 30
0.0
 10
926.0159636754868
 20
845.6947307243585
 30
0.0
 10
926.0234456507337
 20
845.5181867154294
 30
0.0
 10
926.0271942898634
 20
845.4297341667169
 30
0.0
  0
LINE
  5
91
330
1F
100
AcDbEntity
  8
0
  6
Continuous
 62
     7
370
    25
100
AcDbLine
 10
940.0175789052
 20
839.2999264744
 30
0.0
 11
934.7451430078
 21
845.5819777565
 31
0.0
  0
LINE
  5
92
330
1F
100
AcDbEntity
  8
0
  6
Continuous
 62
     7
370
    25
100
AcDbLine
 10
940.1810404437
 20
839.2999264744
 30
0.0
 11
940.0175789052
 21
839.2999264744
 31
0.0
  0
LINE
  5
93
330
1F
100
AcDbEntity
  8
0
  6
Continuous
 62
     7
370
    25
100
AcDbLine
 10
940.1810404437
 20
847.2999264744
 30
0.0
 11
940.1810404437
 21
839.2999264744
 31
0.0
  0
LINE
  5
94
330
1F
100
AcDbEntity
  8
0
  6
Continuous
 62
     7
370
    25
100
AcDbLine
 10
939.4630917258
 20
847.2999264744
 30
0.0
 11
940.1810404437
 21
847.2999264744
 31
0.0
  0
LINE
  5
95
330
1F
100
AcDbEntity
  8
0
  6
Continuous
 62
     7
370
    25
100
AcDbLine
 10
939.4630917258
 20
841.0034521154
 30
0.0
 11
939.4630917258
 21
847.2999264744
 31
0.0
  0
LINE
  5
96
330
1F
100
AcDbEntity
  8
0
  6
Continuous
 62
     7
370
    25
100
AcDbLine
 10
934.1778353155
 20
847.2999264744
 30
0.0
 11
939.4630917258
 21
841.0034521154
 31
0.0
  0
LINE
  5
97
330
1F
100
AcDbEntity
  8
0
  6
Continuous
 62
     7
370
    25
100
AcDbLine
 10
934.0271942899
 20
847.2999264744
 30
0.0
 11
934.1778353155
 21
847.2999264744
 31
0.0
  0
LINE
  5
98
330
1F
100
AcDbEntity
  8
0
  6
Continuous
 62
     7
370
    25
100
AcDbLine
 10
934.0271942899
 20
839.2999264744
 30
0.0
 11
934.0271942899
 21
847.2999264744
 31
0.0
  0
LINE
  5
99
330
1F
100
AcDbEntity
  8
0
  6
Continuous
 62
     7
370
    25
100
AcDbLine
 10
934.7451430078
 20
839.2999264744
 30
0.0
 11
934.0271942899
 21
839.2999264744
 31
0.0
  0
LINE
  5
9A
330
1F
100
AcDbEntity
  8
0
  6
Continuous
 62
     7
370
    25
100
AcDbLine
 10
934.7451430078
 20
845.5819777565
 30
0.0
 11
934.7451430078
 21
839.2999264744
 31
0.0
  0
SPLINE
  5
9B
330
1F
100
AcDbEntity
  8
0
  6
Continuous
 62
     7
370
    25
100
AcDbSpline
210
0.0
220
0.0
230
1.0
 70
     8
 71
     3
 72
    23
 73
    19
 74
     0
 42
0.00000001
 43
0.00000001
 40
0.0
 40
0.0
 40
0.0
 40
0.0
 40
0.0611602766365183
 40
0.1203345577262017
 40
0.1781802550631244
 40
0.2352351259863634
 40
0.2926829614441805
 40
0.3511862482150802
 40
0.4104566095096941
 40
0.4717198544629959
 40
0.5337612027725886
 40
0.5957390238870942
 40
0.6578875151248846
 40
0.7212951802914609
 40
0.7868225145418899
 40
0.8546861538286843
 40
0.9254779862699962
 40
1.0
 40
1.0
 40
1.0
 40
1.0
 10
946.9502712129403
 20
841.5707598077427
 30
0.0
 10
946.9480384220298
 20
841.4926641000355
 30
0.0
 10
946.9436453433603
 20
841.339008607221
 30
0.0
 10
946.9112339792536
 20
841.1132825853913
 30
0.0
 10
946.8563560204173
 20
840.8975684217048
 30
0.0
 10
946.7807648287265
 20
840.690470861238
 30
0.0
 10
946.6821081096446
 20
840.4923905538765
 30
0.0
 10
946.5620441911728
 20
840.3031030933358
 30
0.0
 10
946.4188863314635
 20
840.1245103376488
 30
0.0
 10
946.258742631002
 20
839.9546277705563
 30
0.0
 10
946.077572012742
 20
839.8018785423511
 30
0.0
 10
945.882107430062
 20
839.6658426413652
 30
0.0
 10
945.6698872703051
 20
839.5539659279585
 30
0.0
 10
945.4443969982674
 20
839.4599864502377
 30
0.0
 10
945.2031071328635
 20
839.3881985680318
 30
0.0
 10
944.9471011731839
 20
839.3379755419762
 30
0.0
 10
944.6765999118468
 20
839.304135457408
 30
0.0
 10
944.4909776235919
 20
839.301353274791
 30
0.0
 10
944.3957840334532
 20
839.2999264744093
 30
0.0
  0
SPLINE
  5
9C
330
1F
100
AcDbEntity
  8
0
  6
Continuous
 62
     7
370
    25
100
AcDbSpline
210
0.0
220
0.0
230
1.0
 70
     8
 71
     3
 72
    19
 73
    15
 74
     0
 42
0.00000001
 43
0.00000001
 40
0.0
 40
0.0
 40
0.0
 40
0.0
 40
0.1060574933033971
 40
0.2029142570846101
 40
0.2903001653958373
 40
0.3702225656250412
 40
0.4463837207709701
 40
0.5213968999648276
 40
0.5982910828464574
 40
0.6761424688569287
 40
0.7555286995560231
 40
0.8348871724576568
 40
0.9166460487466405
 40
1.0
 40
1.0
 40
1.0
 40
1.0
 10
945.4102071103762
 20
843.6156316026145
 30
0.0
 10
945.5010880877358
 20
843.5807401764645
 30
0.0
 10
945.674965910317
 20
843.5139842349904
 30
0.0
 10
945.9142482244473
 20
843.3959603172829
 30
0.0
 10
946.1204078701527
 20
843.2675897792454
 30
0.0
 10
946.2950299181189
 20
843.1274026932026
 30
0.0
 10
946.4443731293569
 20
842.9762968399681
 30
0.0
 10
946.5747798529521
 20
842.812056578829
 30
0.0
 10
946.6860515653199
 20
842.6325394179663
 30
0.0
 10
946.7813953906127
 20
842.4396170514237
 30
0.0
 10
946.855792547244
 20
842.2352594094652
 30
0.0
 10
946.9115089000891
 20
842.0213833498141
 30
0.0
 10
946.9434344981138
 20
841.7987557950842
 30
0.0
 10
946.9479776781783
 20
841.6472463565962
 30
0.0
 10
946.9502712129403
 20
841.5707598077427
 30
0.0
  0
SPLINE
  5
9D
330
1F
100
AcDbEntity
  8
0
  6
Continuous
 62
     7
370
    25
100
AcDbSpline
210
0.0
220
0.0
230
1.0
 70
     8
 71
     3
 72
    15
 73
    11
 74
     0
 42
0.00000001
 43
0.00000001
 40
0.0
 40
0.0
 40
0.0
 40
0.0
 40
0.1305691070873079
 40
0.2565806086940823
 40
0.3805516168036832
 40
0.5036229172007081
 40
0.6257393231697876
 40
0.7475485819596254
 40
0.8717661185648725
 40
1.0
 40
1.0
 40
1.0
 40
1.0
 10
946.3348865975557
 20
845.3175546795375
 30
0.0
 10
946.3323878125441
 20
845.2292059808451
 30
0.0
 10
946.3274774643495
 20
845.0555924562257
 30
0.0
 10
946.2805225858746
 20
844.8016630635773
 30
0.0
 10
946.2070124865842
 20
844.559945991972
 30
0.0
 10
946.1048290599238
 20
844.3313233967332
 30
0.0
 10
945.9720244971853
 20
844.1209608524003
 30
0.0
 10
945.8146340545221
 20
843.9271613871545
 30
0.0
 10
945.6247442202571
 20
843.7581303997374
 30
0.0
 10
945.4824739574276
 20
843.6636323367644
 30
0.0
 10
945.4102071103762
 20
843.6156316026145
 30
0.0
  0
SPLINE
  5
9E
330
1F
100
AcDbEntity
  8
0
  6
Continuous
 62
     7
370
    25
100
AcDbSpline
210
0.0
220
0.0
230
1.0
 70
     8
 71
     3
 72
    23
 73
    19
 74
     0
 42
0.00000001
 43
0.00000001
 40
0.0
 40
0.0
 40
0.0
 40
0.0
 40
0.0625940971873315
 40
0.1213229386347494
 40
0.1766801421977661
 40
0.2283650957096757
 40
0.276868445836807
 40
0.3218791276660453
 40
0.3640986251098918
 40
0.4033556962427022
 40
0.4779679481633705
 40
0.5505354613647755
 40
0.6235844567403235
 40
0.6981748822642031
 40
0.7733536703408758
 40
0.8472811254977322
 40
0.9228183395566693
 40
1.0
 40
1.0
 40
1.0
 40
1.0
 10
943.793219930889
 20
847.2999264744093
 30
0.0
 10
943.8696278810326
 20
847.2995247592054
 30
0.0
 10
944.0177255046586
 20
847.2987461351619
 30
0.0
 10
944.2330842288387
 20
847.2866704068259
 30
0.0
 10
944.434795796017
 20
847.2702048756747
 30
0.0
 10
944.6229187042469
 20
847.2440789496309
 30
0.0
 10
944.7973660239979
 20
847.2125548875842
 30
0.0
 10
944.9586634805414
 20
847.1743793079493
 30
0.0
 10
945.1062981600119
 20
847.1286041910145
 30
0.0
 10
945.282555843226
 20
847.0558126910545
 30
0.0
 10
945.4835173538062
 20
846.9476454491123
 30
0.0
 10
945.7011136799845
 20
846.7878087287717
 30
0.0
 10
945.8871805128057
 20
846.5923059559251
 30
0.0
 10
946.047606380785
 20
846.3717741720981
 30
0.0
 10
946.1751517970392
 20
846.1291781223814
 30
0.0
 10
946.2674244766181
 20
845.8702999766043
 30
0.0
 10
946.3258424774377
 20
845.5984788522169
 30
0.0
 10
946.3318503270741
 20
845.4118658742078
 30
0.0
 10
946.3348865975557
 20
845.3175546795375
 30
0.0
  0
LINE
  5
9F
330
1F
100
AcDbEntity
  8
0
  6
Continuous
 62
     7
370
    25
100
AcDbLine
 10
942.232322495
 20
847.2999264744
 30
0.0
 11
943.7932199309
 21
847.2999264744
 31
0.0
  0
LINE
  5
A0
330
1F
100
AcDbEntity
  8
0
  6
Continuous
 62
     7
370
    25
100
AcDbLine
 10
942.232322495
 20
839.2999264744
 30
0.0
 11
942.232322495
 21
847.2999264744
 31
0.0
  0
LINE
  5
A1
330
1F
100
AcDbEntity
  8
0
  6
Continuous
 62
     7
370
    25
100
AcDbLine
 10
944.3957840335
 20
839.2999264744
 30
0.0
 11
942.232322495
 21
839.2999264744
 31
0.0
  0
LINE
  5
A2
330
1F
100
AcDbEntity
  8
0
  6
Continuous
 62
     7
370
    25
100
AcDbLine
 10
978.9502712129
 20
843.1605033975
 30
0.0
 11
978.9502712129
 21
839.2999264744
 31
0.0
  0
LINE
  5
A3
330
1F
100
AcDbEntity
  8
0
  6
Continuous
 62
     7
370
    25
100
AcDbLine
 10
982.6602071104
 20
839.2999264744
 30
0.0
 11
978.9502712129
 21
843.1605033975
 31
0.0
  0
LINE
  5
A4
330
1F
100
AcDbEntity
  8
0
  6
Continuous
 62
     7
370
    25
100
AcDbLine
 10
983.6169378796
 20
839.2999264744
 30
0.0
 11
982.6602071104
 21
839.2999264744
 31
0.0
  0
LINE
  5
A5
330
1F
100
AcDbEntity
  8
0
  6
Continuous
 62
     7
370
    25
100
AcDbLine
 10
979.3781558283
 20
843.7101828847
 30
0.0
 11
983.6169378796
 21
839.2999264744
 31
0.0
  0
LINE
  5
A6
330
1F
100
AcDbEntity
  8
0
  6
Continuous
 62
     7
370
    25
100
AcDbLine
 10
983.3092455719
 20
847.2999264744
 30
0.0
 11
979.3781558283
 21
843.7101828847
 31
0.0
  0
LINE
  5
A7
330
1F
100
AcDbEntity
  8
0
  6
Continuous
 62
     7
370
    25
100
AcDbLine
 10
982.2852071104
 20
847.2999264744
 30
0.0
 11
983.3092455719
 21
847.2999264744
 31
0.0
  0
LINE
  5
A8
330
1F
100
AcDbEntity
  8
0
  6
Continuous
 62
     7
370
    25
100
AcDbLine
 10
978.9502712129
 20
844.2534521154
 30
0.0
 11
982.2852071104
 21
847.2999264744
 31
0.0
  0
LINE
  5
A9
330
1F
100
AcDbEntity
  8
0
  6
Continuous
 62
     7
370
    25
100
AcDbLine
 10
978.9502712129
 20
847.2999264744
 30
0.0
 11
978.9502712129
 21
844.2534521154
 31
0.0
  0
LINE
  5
AA
330
1F
100
AcDbEntity
  8
0
  6
Continuous
 62
     7
370
    25
100
AcDbLine
 10
978.232322495
 20
847.2999264744
 30
0.0
 11
978.9502712129
 21
847.2999264744
 31
0.0
  0
LINE
  5
AB
330
1F
100
AcDbEntity
  8
0
  6
Continuous
 62
     7
370
    25
100
AcDbLine
 10
978.232322495
 20
839.2999264744
 30
0.0
 11
978.232322495
 21
847.2999264744
 31
0.0
  0
LINE
  5
AC
330
1F
100
AcDbEntity
  8
0
  6
Continuous
 62
     7
370
    25
100
AcDbLine
 10
978.9502712129
 20
839.2999264744
 30
0.0
 11
978.232322495
 21
839.2999264744
 31
0.0
  0
CIRCLE
  5
AD
330
1F
100
AcDbEntity
  8
0
  6
Continuous
 62
     7
370
    25
100
AcDbCircle
 10
951.4872798434
 20
785.6360078278
 30
0.0
 40
105.0
  0
CIRCLE
  5
AE
330
1F
100
AcDbEntity
  8
0
  6
Continuous
 62
     7
370
    25
100
AcDbCircle
 10
984.0153715945
 20
864.1657680912
 30
0.0
 40
11.5
  0
CIRCLE
  5
AF
330
1F
100
AcDbEntity
  8
0
  6
Continuous
 62
     7
370
    25
100
AcDbCircle
 10
1030.0170401069
 20
818.1640995788
 30
0.0
 40
11.50000000000009
  0
CIRCLE
  5
B0
330
1F
100
AcDbEntity
  8
0
  6
Continuous
 62
     7
370
    25
100
AcDbCircle
 10
1030.0170401069
 20
753.1079160768
 30
0.0
 40
11.5
  0
CIRCLE
  5
B1
330
1F
100
AcDbEntity
  8
0
  6
Continuous
 62
     7
370
    25
100
AcDbCircle
 10
984.0153715945
 20
707.1062475643
 30
0.0
 40
11.49999999999993
  0
CIRCLE
  5
B2
330
1F
100
AcDbEntity
  8
0
  6
Continuous
 62
     7
370
    25
100
AcDbCircle
 10
918.9591880924
 20
707.1062475643
 30
0.0
 40
11.50000000000011
  0
CIRCLE
  5
B3
330
1F
100
AcDbEntity
  8
0
  6
Continuous
 62
     7
370
    25
100
AcDbCircle
 10
872.95751958
 20
753.1079160768
 30
0.0
 40
11.50000000000009
  0
CIRCLE
  5
B4
330
1F
100
AcDbEntity
  8
0
  6
Continuous
 62
     7
370
    25
100
AcDbCircle
 10
872.95751958
 20
818.1640995788
 30
0.0
 40
11.5
  0
CIRCLE
  5
B5
330
1F
100
AcDbEntity
  8
0
  6
Continuous
 62
     7
370
    25
100
AcDbCircle
 10
918.9591880924
 20
864.1657680912
 30
0.0
 40
11.50000000000001
  0
SPLINE
  5
B6
330
1F
100
AcDbEntity
  8
0
  6
Continuous
 62
     7
370
    25
100
AcDbSpline
210
0.0
220
0.0
230
1.0
 70
     8
 71
     3
 72
    31
 73
    27
 74
     0
 42
0.00000001
 43
0.00000001
 40
0.0
 40
0.0
 40
0.0
 40
0.0
 40
0.0337881161627113
 40
0.0671939323738809
 40
0.0998624108568255
 40
0.1325666121262585
 40
0.1651511732547863
 40
0.1979131873557929
 40
0.2313190035669623
 40
0.2650832782673732
 40
0.2992553087581152
 40
0.3343985665049788
 40
0.3699428235093076
 40
0.4062835607000614
 40
0.4440638196985081
 40
0.4829977068727758
 40
0.5233544466133043
 40
0.5655365896041485
 40
0.6096129240658194
 40
0.6563908113764167
 40
0.705885494936457
 40
0.7583245002617315
 40
0.81383178294115
 40
0.8727945590393902
 40
0.9347222295400733
 40
1.0
 40
1.0
 40
1.0
 40
1.0
 10
974.0352071103762
 20
847.5050546795375
 30
0.0
 10
974.0988310611975
 20
847.5039396734218
 30
0.0
 10
974.2253590815305
 20
847.5017222770691
 30
0.0
 10
974.4124227963785
 20
847.4804104084186
 30
0.0
 10
974.5951649260118
 20
847.4450478413399
 30
0.0
 10
974.7728063859054
 20
847.3949427565794
 30
0.0
 10
974.9468063549747
 20
847.3327812099294
 30
0.0
 10
975.1158038581647
 20
847.2548677993941
 30
0.0
 10
975.2808486162037
 20
847.1641732454639
 30
0.0
 10
975.4393178448205
 20
847.0576043830488
 30
0.0
 10
975.5929512513259
 20
846.9387877517419
 30
0.0
 10
975.7379751666907
 20
846.8044730801913
 30
0.0
 10
975.8744027915992
 20
846.656016579006
 30
0.0
 10
976.0039463467676
 20
846.4950066044079
 30
0.0
 10
976.1229305689374
 20
846.3183549819312
 30
0.0
 10
976.2362412711898
 20
846.1291341594989
 30
0.0
 10
976.3376630675365
 20
845.9240350399701
 30
0.0
 10
976.4353423250875
 20
845.7064796849048
 30
0.0
 10
976.5196554376345
 20
845.4704484647754
 30
0.0
 10
976.5956925696854
 20
845.2172718693054
 30
0.0
 10
976.6571302121424
 20
844.9439594422121
 30
0.0
 10
976.7083056917724
 20
844.6519451672518
 30
0.0
 10
976.7479511682195
 20
844.3401566341314
 30
0.0
 10
976.7768257786847
 20
844.009262198676
 30
0.0
 10
976.7920785444936
 20
843.6590441629257
 30
0.0
 10
976.7949510043945
 20
843.4195976505208
 30
0.0
 10
976.7964250590942
 20
843.2967213462041
 30
0.0
  0
SPLINE
  5
B7
330
1F
100
AcDbEntity
  8
0
  6
Continuous
 62
     7
370
    25
100
AcDbSpline
210
0.0
220
0.0
230
1.0
 70
     8
 71
     3
 72
    31
 73
    27
 74
     0
 42
0.00000001
 43
0.00000001
 40
0.0
 40
0.0
 40
0.0
 40
0.0
 40
0.0685946222587427
 40
0.1332460424433014
 40
0.194312586468256
 40
0.2512792231169663
 40
0.3045134392563468
 40
0.3542349066533251
 40
0.4004805887739893
 40
0.4434107549384921
 40
0.4840148686163452
 40
0.5232523007732034
 40
0.5610423727283604
 40
0.5979002393643995
 40
0.6335184888561959
 40
0.6683143511696517
 40
0.7024956712863825
 40
0.7366853535134587
 40
0.7702931693607896
 40
0.8034372550192487
 40
0.8359129516660286
 40
0.8684602457892912
 40
0.9008465382431832
 40
0.9334665246307086
 40
0.9662575752981237
 40
1.0
 40
1.0
 40
1.0
 40
1.0
 10
971.3605276231967
 20
843.2967213462041
 30
0.0
 10
971.3612773789853
 20
843.4249439467396
 30
0.0
 10
971.3627337904112
 20
843.6740181964482
 30
0.0
 10
971.378935895422
 20
844.0369545211722
 30
0.0
 10
971.4058509635663
 20
844.3774351817326
 30
0.0
 10
971.4427363872242
 20
844.6954764755347
 30
0.0
 10
971.4876231991639
 20
844.9911605087182
 30
0.0
 10
971.5475443113953
 20
845.2636970964583
 30
0.0
 10
971.6156878602295
 20
845.5143476258594
 30
0.0
 10
971.6946648792251
 20
845.7439294509476
 30
0.0
 10
971.7837798255526
 20
845.9555356292839
 30
0.0
 10
971.8807724214888
 20
846.1530789465268
 30
0.0
 10
971.9894919515999
 20
846.3362605061607
 30
0.0
 10
972.1037248954332
 20
846.5080040271205
 30
0.0
 10
972.2280953448682
 20
846.6654981866457
 30
0.0
 10
972.3590640087933
 20
846.8109671295452
 30
0.0
 10
972.5017425831181
 20
846.941048844891
 30
0.0
 10
972.6512808877433
 20
847.0595546789141
 30
0.0
 10
972.8090328063529
 20
847.1634391855929
 30
0.0
 10
972.9705017575372
 20
847.2549425881432
 30
0.0
 10
973.1367991423509
 20
847.3331137133034
 30
0.0
 10
973.3083789889747
 20
847.3945775666966
 30
0.0
 10
973.4836991212941
 20
847.4453452164627
 30
0.0
 10
973.6633724165883
 20
847.4800628110834
 30
0.0
 10
973.8476955341572
 20
847.5019071733449
 30
0.0
 10
973.9721102422673
 20
847.503995556751
 30
0.0
 10
974.0352071103762
 20
847.5050546795375
 30
0.0
  0
SPLINE
  5
B8
330
1F
100
AcDbEntity
  8
0
  6
Continuous
 62
     7
370
    25
100
AcDbSpline
210
0.0
220
0.0
230
1.0
 70
     8
 71
     3
 72
    31
 73
    27
 74
     0
 42
0.00000001
 43
0.00000001
 40
0.0
 40
0.0
 40
0.0
 40
0.0
 40
0.0337871463469904
 40
0.0666216577242931
 40
0.0992848780959717
 40
0.1313611650426498
 40
0.1635851875953427
 40
0.1961039269870672
 40
0.2289022543238161
 40
0.2621580559050076
 40
0.295991222258316
 40
0.3302178457248002
 40
0.3650598258919541
 40
0.4009507373401072
 40
0.4376203820767379
 40
0.475707529437092
 40
0.5153806916250481
 40
0.5564135414931645
 40
0.5997648298727305
 40
0.6464241555840871
 40
0.6964314445175672
 40
0.7497815178015571
 40
0.8065733069755329
 40
0.8674355315654002
 40
0.9318867532508747
 40
1.0
 40
1.0
 40
1.0
 40
1.0
 10
974.0352071103762
 20
839.0947982692811
 30
0.0
 10
973.9721119926957
 20
839.0958642246155
 30
0.0
 10
973.8477007360888
 20
839.0979660804725
 30
0.0
 10
973.6633523350843
 20
839.1197117524455
 30
0.0
 10
973.484421035793
 20
839.1546729026451
 30
0.0
 10
973.310023883707
 20
839.2036251405676
 30
0.0
 10
973.1392661349443
 20
839.2635447664316
 30
0.0
 10
972.9744746225882
 20
839.3416103289526
 30
0.0
 10
972.8138170598667
 20
839.4315167722806
 30
0.0
 10
972.6577220746825
 20
839.5339063069965
 30
0.0
 10
972.5091228494485
 20
839.6512130112901
 30
0.0
 10
972.3671831801598
 20
839.7809599568592
 30
0.0
 10
972.2354688507953
 20
839.9263848969675
 30
0.0
 10
972.1128766322414
 20
840.0851915783566
 30
0.0
 10
971.9963644306512
 20
840.2559189894029
 30
0.0
 10
971.8891887202071
 20
840.4408981277925
 30
0.0
 10
971.7900553394802
 20
840.6393955231972
 30
0.0
 10
971.6994416465236
 20
840.8526936047404
 30
0.0
 10
971.6191018442038
 20
841.0839048684198
 30
0.0
 10
971.5481356542301
 20
841.3356744192827
 30
0.0
 10
971.4921032942985
 20
841.6102244446862
 30
0.0
 10
971.4441422535377
 20
841.9053498552128
 30
0.0
 10
971.4054579494383
 20
842.2223188389519
 30
0.0
 10
971.3790480629964
 20
842.5613034748076
 30
0.0
 10
971.3627250572004
 20
842.9220925237817
 30
0.0
 10
971.3612734676686
 20
843.1695662936482
 30
0.0
 10
971.3605276231967
 20
843.2967213462041
 30
0.0
  0
SPLINE
  5
B9
330
1F
100
AcDbEntity
  8
0
  6
Continuous
 62
     7
370
    25
100
AcDbSpline
210
0.0
220
0.0
230
1.0
 70
     8
 71
     3
 72
    31
 73
    27
 74
     0
 42
0.00000001
 43
0.00000001
 40
0.0
 40
0.0
 40
0.0
 40
0.0
 40
0.0650632896172782
 40
0.1267731664665231
 40
0.1855157632260794
 40
0.2407646791677144
 40
0.2929797960235975
 40
0.3422503727797677
 40
0.3889192861856605
 40
0.4327756640583105
 40
0.4746284326311174
 40
0.5147746906379534
 40
0.5536058934984427
 40
0.5914264064311727
 40
0.6280281199460671
 40
0.6638036341103202
 40
0.6989843361316643
 40
0.7335914893067053
 40
0.7676284691511394
 40
0.8012083477865916
 40
0.8342638397266231
 40
0.866980694728776
 40
0.8997197415181599
 40
0.9327019124985375
 40
0.9661758834327488
 40
1.0
 40
1.0
 40
1.0
 40
1.0
 10
976.7964250590942
 20
843.2967213462041
 30
0.0
 10
976.7949357229938
 20
843.1743809851964
 30
0.0
 10
976.7920338123389
 20
842.9360057809477
 30
0.0
 10
976.7769967682984
 20
842.5873635516454
 30
0.0
 10
976.7473770398899
 20
842.2582251669629
 30
0.0
 10
976.7103256380412
 20
841.9478012527715
 30
0.0
 10
976.6590091512448
 20
841.6573838382963
 30
0.0
 10
976.5959116283848
 20
841.3859679560837
 30
0.0
 10
976.5258537476493
 20
841.1323815065629
 30
0.0
 10
976.4393742182555
 20
840.8987019371687
 30
0.0
 10
976.3447211660332
 20
840.6816694277635
 30
0.0
 10
976.2417378604895
 20
840.4790016601527
 30
0.0
 10
976.1314068294365
 20
840.288907276885
 30
0.0
 10
976.0112039837153
 20
840.112907855328
 30
0.0
 10
975.8830818964093
 20
839.9497566391615
 30
0.0
 10
975.7442983791681
 20
839.8023335016723
 30
0.0
 10
975.5987656132206
 20
839.6670862514708
 30
0.0
 10
975.4446800913146
 20
839.5467396744144
 30
0.0
 10
975.2837394027839
 20
839.4414029781027
 30
0.0
 10
975.1192615126698
 20
839.347199891502
 30
0.0
 10
974.9483280650189
 20
839.2712394456737
 30
0.0
 10
974.7748127444944
 20
839.2060164948675
 30
0.0
 10
974.5962336219459
 20
839.1561868905562
 30
0.0
 10
974.41281330037
 20
839.1217323636521
 30
0.0
 10
974.2254847611044
 20
839.0975681386126
 30
0.0
 10
974.0988526123473
 20
839.0957247560405
 30
0.0
 10
974.0352071103762
 20
839.0947982692811
 30
0.0
  0
SPLINE
  5
BA
330
1F
100
AcDbEntity
  8
0
  6
Continuous
 62
     7
370
    25
100
AcDbSpline
210
0.0
220
0.0
230
1.0
 70
     8
 71
     3
 72
    19
 73
    15
 74
     0
 42
0.00000001
 43
0.00000001
 40
0.0
 40
0.0
 40
0.0
 40
0.0
 40
0.1101655532114449
 40
0.2157872561749736
 40
0.3180274349094169
 40
0.4175739541655085
 40
0.5116504876474471
 40
0.5961620971027629
 40
0.672934533484997
 40
0.7436695573498577
 40
0.8106770010653622
 40
0.8740589623137366
 40
0.9366963019193723
 40
1.0
 40
1.0
 40
1.0
 40
1.0
 10
967.4630917257608
 20
844.1204392949222
 30
0.0
 10
967.5620658188358
 20
844.1221188462849
 30
0.0
 10
967.7559317538257
 20
844.1254086748169
 30
0.0
 10
968.039118736134
 20
844.1651984128627
 30
0.0
 10
968.3099148781574
 20
844.2202398484186
 30
0.0
 10
968.5623188598739
 20
844.3045488593223
 30
0.0
 10
968.7923730618184
 20
844.4024695378578
 30
0.0
 10
968.9919607237199
 20
844.5164174453223
 30
0.0
 10
969.1582856317746
 20
844.6430797293149
 30
0.0
 10
969.2905395094689
 20
844.7844114078117
 30
0.0
 10
969.3900348892347
 20
844.9359886592022
 30
0.0
 10
969.46278185478
 20
845.0939695910594
 30
0.0
 10
969.5057540290545
 20
845.2597388731995
 30
0.0
 10
969.511490410581
 20
845.3728695427561
 30
0.0
 10
969.5143737770428
 20
845.4297341667169
 30
0.0
  0
LINE
  5
BB
330
1F
100
AcDbEntity
  8
0
  6
Continuous
 62
     7
370
    25
100
AcDbLine
 10
967.4630917258
 20
843.2999264744
 30
0.0
 11
967.4630917258
 21
844.1204392949
 31
0.0
  0
SPLINE
  5
BC
330
1F
100
AcDbEntity
  8
0
  6
Continuous
 62
     7
370
    25
100
AcDbSpline
210
0.0
220
0.0
230
1.0
 70
     8
 71
     3
 72
    23
 73
    19
 74
     0
 42
0.00000001
 43
0.00000001
 40
0.0
 40
0.0
 40
0.0
 40
0.0
 40
0.0669091856056563
 40
0.1334854404229643
 40
0.2010351165700822
 40
0.2712343400187635
 40
0.3428799841615844
 40
0.4138361296100206
 40
0.485976621974419
 40
0.5602295572555487
 40
0.59988418075239
 40
0.6440548396425954
 40
0.6918919315842551
 40
0.7446875244737721
 40
0.8014917751698762
 40
0.8628576982200913
 40
0.9293283793947434
 40
1.0
 40
1.0
 40
1.0
 40
1.0
 10
969.9246301872993
 20
841.6076187821017
 30
0.0
 10
969.9211323552404
 20
841.6821589852332
 30
0.0
 10
969.9141540958475
 20
841.8308684898275
 30
0.0
 10
969.8608773428385
 20
842.049651516736
 30
0.0
 10
969.7732456532215
 20
842.2604478880255
 30
0.0
 10
969.6505656273744
 20
842.4596611224437
 30
0.0
 10
969.5012268190421
 20
842.6442917545223
 30
0.0
 10
969.3266784605073
 20
842.809026571615
 30
0.0
 10
969.1254710813683
 20
842.944958208349
 30
0.0
 10
968.9402828092924
 20
843.0388751372603
 30
0.0
 10
968.7762481658363
 20
843.1029598805374
 30
0.0
 10
968.6358701442646
 20
843.1456455135643
 30
0.0
 10
968.4787121936967
 20
843.1817910122526
 30
0.0
 10
968.3066748248348
 20
843.2154190614519
 30
0.0
 10
968.1184617586795
 20
843.244039285799
 30
0.0
 10
967.9142779004436
 20
843.2679062932125
 30
0.0
 10
967.6940818739181
 20
843.2870035296571
 30
0.0
 10
967.5416449233848
 20
843.2955317474432
 30
0.0
 10
967.4630917257608
 20
843.2999264744093
 30
0.0
  0
SPLINE
  5
BD
330
1F
100
AcDbEntity
  8
0
  6
Continuous
 62
     7
370
    25
100
AcDbSpline
210
0.0
220
0.0
230
1.0
 70
     8
 71
     3
 72
    23
 73
    19
 74
     0
 42
0.00000001
 43
0.00000001
 40
0.0
 40
0.0
 40
0.0
 40
0.0
 40
0.0760717369555652
 40
0.1487517145745117
 40
0.2184027938458458
 40
0.285759581062386
 40
0.3505980236748785
 40
0.4149640445981271
 40
0.4780693385717822
 40
0.541760676006908
 40
0.604349858538716
 40
0.6640750210708959
 40
0.7214636230801978
 40
0.7775871282364439
 40
0.8326444469271317
 40
0.8878435110684582
 40
0.9434603426519462
 40
1.0
 40
1.0
 40
1.0
 40
1.0
 10
967.8877712129404
 20
839.9153110897939
 30
0.0
 10
967.9626363618507
 20
839.9167188732159
 30
0.0
 10
968.1090286976643
 20
839.9194716721681
 30
0.0
 10
968.3226398047059
 20
839.9447875735307
 30
0.0
 10
968.5258568277135
 20
839.9816570899751
 30
0.0
 10
968.716423515185
 20
840.038601050702
 30
0.0
 10
968.896836103416
 20
840.1089572826037
 30
0.0
 10
969.0645655882686
 20
840.1972964950302
 30
0.0
 10
969.2218138309964
 20
840.3009415730581
 30
0.0
 10
969.3665667576854
 20
840.4187453642379
 30
0.0
 10
969.4967279177148
 20
840.5477087815657
 30
0.0
 10
969.6113325194095
 20
840.6825958012467
 30
0.0
 10
969.7087603170767
 20
840.8228376972689
 30
0.0
 10
969.7873513529371
 20
840.9692105450785
 30
0.0
 10
969.8494097536242
 20
841.1211082110901
 30
0.0
 10
969.8916570692102
 20
841.2789569639003
 30
0.0
 10
969.9210319609244
 20
841.4414650009381
 30
0.0
 10
969.9234242173302
 20
841.5519312156619
 30
0.0
 10
969.9246301872993
 20
841.6076187821017
 30
0.0
  0
SPLINE
  5
BE
330
1F
100
AcDbEntity
  8
0
  6
Continuous
 62
     7
370
    25
100
AcDbSpline
210
0.0
220
0.0
230
1.0
 70
     8
 71
     3
 72
    15
 73
    11
 74
     0
 42
0.00000001
 43
0.00000001
 40
0.0
 40
0.0
 40
0.0
 40
0.0
 40
0.1182713048357229
 40
0.2361775330837641
 40
0.3556629329485077
 40
0.4759041646706818
 40
0.6001273417110852
 40
0.7286081161551198
 40
0.8613134756739442
 40
0.9999999999999999
 40
0.9999999999999999
 40
0.9999999999999999
 40
0.9999999999999999
 10
966.5512327514018
 20
840.3480033974863
 30
0.0
 10
966.5960249263164
 20
840.3134700628908
 30
0.0
 10
966.685471012901
 20
840.2445099902405
 30
0.0
 10
966.8312269696974
 20
840.1565062678685
 30
0.0
 10
966.9845181378934
 20
840.0802524956747
 30
0.0
 10
967.1486659646839
 20
840.0220040483233
 30
0.0
 10
967.3201282971503
 20
839.9726836808052
 30
0.0
 10
967.5016765605375
 20
839.9404082085024
 30
0.0
 10
967.6917090567928
 20
839.9182638168608
 30
0.0
 10
967.8214639447541
 20
839.9163096877352
 30
0.0
 10
967.8877712129404
 20
839.9153110897939
 30
0.0
  0
SPLINE
  5
BF
330
1F
100
AcDbEntity
  8
0
  6
Continuous
 62
     7
370
    25
100
AcDbSpline
210
0.0
220
0.0
230
1.0
 70
     8
 71
     3
 72
    15
 73
    11
 74
     0
 42
0.00000001
 43
0.00000001
 40
0.0
 40
0.0
 40
0.0
 40
0.0
 40
0.1497703860319642
 40
0.2913164099952427
 40
0.4259663731047382
 40
0.5521595739695249
 40
0.6715274135235915
 40
0.7861216286916579
 40
0.895325073070442
 40
0.9999999999999999
 40
0.9999999999999999
 40
0.9999999999999999
 40
0.9999999999999999
 10
965.9246301872993
 20
841.4537726282555
 30
0.0
 10
965.9433348534485
 20
841.3921748836415
 30
0.0
 10
965.9797170538094
 20
841.2723619199429
 30
0.0
 10
966.0416468778897
 20
841.0999269355432
 30
0.0
 10
966.1122029283364
 20
840.9418513853151
 30
0.0
 10
966.1878933480759
 20
840.7969756779369
 30
0.0
 10
966.267386938985
 20
840.663873043733
 30
0.0
 10
966.3563353392968
 20
840.5460630573695
 30
0.0
 10
966.448150528205
 20
840.4383711666042
 30
0.0
 10
966.5173604787224
 20
840.3776977678838
 30
0.0
 10
966.5512327514018
 20
840.3480033974863
 30
0.0
  0
LINE
  5
C0
330
1F
100
AcDbEntity
  8
0
  6
Continuous
 62
     7
370
    25
100
AcDbLine
 10
965.2066814694
 20
841.4537726283
 30
0.0
 11
965.9246301873
 21
841.4537726283
 31
0.0
  0
SPLINE
  5
C1
330
1F
100
AcDbEntity
  8
0
  6
Continuous
 62
     7
370
    25
100
AcDbSpline
210
0.0
220
0.0
230
1.0
 70
     8
 71
     3
 72
    23
 73
    19
 74
     0
 42
0.00000001
 43
0.00000001
 40
0.0
 40
0.0
 40
0.0
 40
0.0
 40
0.0655411703374043
 40
0.1289631677825931
 40
0.1903771361885604
 40
0.2500923616690525
 40
0.3085484324592009
 40
0.3663979630552963
 40
0.4245421892666797
 40
0.4831699964229069
 40
0.5422433998311205
 40
0.6017393520173313
 40
0.6625060022496072
 40
0.7248555134488476
 40
0.7891278292811819
 40
0.8563463998785099
 40
0.9262952349869052
 40
1.0
 40
1.0
 40
1.0
 40
1.0
 10
967.8749507001197
 20
839.0947982692811
 30
0.0
 10
967.7894208709013
 20
839.096782756729
 30
0.0
 10
967.6211266878839
 20
839.100687566277
 30
0.0
 10
967.3737129772866
 20
839.1273815118693
 30
0.0
 10
967.1375490930249
 20
839.1761358095556
 30
0.0
 10
966.9123157264953
 20
839.2417433646782
 30
0.0
 10
966.6978127861672
 20
839.3249244894336
 30
0.0
 10
966.4946948314752
 20
839.428510084911
 30
0.0
 10
966.301712217715
 20
839.5503649467436
 30
0.0
 10
966.1206860436703
 20
839.6919274331586
 30
0.0
 10
965.9516378889132
 20
839.8502847811741
 30
0.0
 10
965.79906023353
 20
840.0282482325288
 30
0.0
 10
965.6604092782338
 20
840.2225280129197
 30
0.0
 10
965.5393975326075
 20
840.4353807128025
 30
0.0
 10
965.4305130694855
 20
840.6640555865803
 30
0.0
 10
965.3409565971489
 20
840.9114807257383
 30
0.0
 10
965.262132440266
 20
841.1754442045703
 30
0.0
 10
965.2254845219892
 20
841.3593933249723
 30
0.0
 10
965.2066814693505
 20
841.4537726282555
 30
0.0
  0
SPLINE
  5
C2
330
1F
100
AcDbEntity
  8
0
  6
Continuous
 62
     7
370
    25
100
AcDbSpline
210
0.0
220
0.0
230
1.0
 70
     8
 71
     3
 72
    19
 73
    15
 74
     0
 42
0.00000001
 43
0.00000001
 40
0.0
 40
0.0
 40
0.0
 40
0.0
 40
0.079648251180228
 40
0.1589216764181117
 40
0.2396194947370305
 40
0.3226094298185606
 40
0.4060346366179245
 40
0.4876020954923881
 40
0.5696846265959316
 40
0.653036145008834
 40
0.7374357177222874
 40
0.8224778158555094
 40
0.9097476551184072
 40
1.0
 40
1.0
 40
1.0
 40
1.0
 10
970.642578905248
 20
841.6765290385118
 30
0.0
 10
970.638477160063
 20
841.5645068186553
 30
0.0
 10
970.6302929725713
 20
841.3409895572981
 30
0.0
 10
970.5571408027254
 20
841.0107616221362
 30
0.0
 10
970.4437391097104
 20
840.6879604740765
 30
0.0
 10
970.2826946846416
 20
840.379217984372
 30
0.0
 10
970.0864260930337
 20
840.0903485420855
 30
0.0
 10
969.8529236377691
 20
839.8318884071418
 30
0.0
 10
969.5848404185457
 20
839.6097201686595
 30
0.0
 10
969.2858560783154
 20
839.4240967902483
 30
0.0
 10
968.9619312132085
 20
839.2757129680921
 30
0.0
 10
968.6154727172154
 20
839.1727245272999
 30
0.0
 10
968.2514725938667
 20
839.1056479566229
 30
0.0
 10
968.0018559137468
 20
839.0984551134455
 30
0.0
 10
967.8749507001197
 20
839.0947982692811
 30
0.0
  0
SPLINE
  5
C3
330
1F
100
AcDbEntity
  8
0
  6
Continuous
 62
     7
370
    25
100
AcDbSpline
210
0.0
220
0.0
230
1.0
 70
     8
 71
     3
 72
    15
 73
    11
 74
     0
 42
0.00000001
 43
0.00000001
 40
0.0
 40
0.0
 40
0.0
 40
0.0
 40
0.1281355097972546
 40
0.2541727119019795
 40
0.3781116451390013
 40
0.5017122630072818
 40
0.6239863093684834
 40
0.7470956136177405
 40
0.8728746366500602
 40
1.0
 40
1.0
 40
1.0
 40
1.0
 10
970.1650148026839
 20
843.0980033974862
 30
0.0
 10
970.2035092994902
 20
843.0452999652379
 30
0.0
 10
970.2798679190641
 20
842.9407561559356
 30
0.0
 10
970.3741205676397
 20
842.7726728967721
 30
0.0
 10
970.4596271146255
 20
842.6027266355558
 30
0.0
 10
970.5262561873723
 20
842.4263622789249
 30
0.0
 10
970.5778535972851
 20
842.2456239619005
 30
0.0
 10
970.6147359566904
 20
842.0602013423385
 30
0.0
 10
970.6376482787036
 20
841.8699430053687
 30
0.0
 10
970.6409295404511
 20
841.7412287648648
 30
0.0
 10
970.642578905248
 20
841.6765290385118
 30
0.0
  0
SPLINE
  5
C4
330
1F
100
AcDbEntity
  8
0
  6
Continuous
 62
     7
370
    25
100
AcDbSpline
210
0.0
220
0.0
230
1.0
 70
     8
 71
     3
 72
    11
 73
     7
 74
     0
 42
0.00000001
 43
0.00000001
 40
0.0
 40
0.0
 40
0.0
 40
0.0
 40
0.2538796003266584
 40
0.5030089172783632
 40
0.750291080689974
 40
1.0
 40
1.0
 40
1.0
 40
1.0
 10
969.2980276231967
 20
843.7806957051786
 30
0.0
 10
969.3831287765072
 20
843.7396027416552
 30
0.0
 10
969.5517387748323
 20
843.658185695689
 30
0.0
 10
969.7815685566218
 20
843.4985153927925
 30
0.0
 10
969.9902037002947
 20
843.3141580274122
 30
0.0
 10
970.1065550580178
 20
843.1702891064668
 30
0.0
 10
970.1650148026839
 20
843.0980033974862
 30
0.0
  0
SPLINE
  5
C5
330
1F
100
AcDbEntity
  8
0
  6
Continuous
 62
     7
370
    25
100
AcDbSpline
210
0.0
220
0.0
230
1.0
 70
     8
 71
     3
 72
    15
 73
    11
 74
     0
 42
0.00000001
 43
0.00000001
 40
0.0
 40
0.0
 40
0.0
 40
0.0
 40
0.1280675485958898
 40
0.2506083188676695
 40
0.3706301659145034
 40
0.4900722467299484
 40
0.6103747641546219
 40
0.7343130699115266
 40
0.8632165042449897
 40
1.0
 40
1.0
 40
1.0
 40
1.0
 10
970.2323224949915
 20
845.426529038512
 30
0.0
 10
970.2296628583126
 20
845.3419420791848
 30
0.0
 10
970.2244583620586
 20
845.1764185261263
 30
0.0
 10
970.180267035059
 20
844.9347693898105
 30
0.0
 10
970.105898434199
 20
844.7070171605941
 30
0.0
 10
970.0028818340211
 20
844.4922030757403
 30
0.0
 10
969.8695297191862
 20
844.2916891561446
 30
0.0
 10
969.707992126294
 20
844.1050242627492
 30
0.0
 10
969.5171288993786
 20
843.9313804727418
 30
0.0
 10
969.3724913267539
 20
843.8319073916549
 30
0.0
 10
969.2980276231967
 20
843.7806957051786
 30
0.0
  0
SPLINE
  5
C6
330
1F
100
AcDbEntity
  8
0
  6
Continuous
 62
     7
370
    25
100
AcDbSpline
210
0.0
220
0.0
230
1.0
 70
     8
 71
     3
 72
    19
 73
    15
 74
     0
 42
0.00000001
 43
0.00000001
 40
0.0
 40
0.0
 40
0.0
 40
0.0
 40
0.0902542493426766
 40
0.1785397915286857
 40
0.266093033853821
 40
0.3546309779571743
 40
0.4418861533505637
 40
0.525746915163649
 40
0.6081136336036365
 40
0.6901972728278823
 40
0.7708214843303359
 40
0.84832618125541
 40
0.9240117400247435
 40
1.0
 40
1.0
 40
1.0
 40
1.0
 10
967.8957840334531
 20
847.5050546795375
 30
0.0
 10
968.0002017296248
 20
847.5019021532634
 30
0.0
 10
968.2067594689241
 20
847.4956658664637
 30
0.0
 10
968.5102178619538
 20
847.438718583083
 30
0.0
 10
968.8028505913301
 20
847.3486039948449
 30
0.0
 10
969.0814545863389
 20
847.2240926185317
 30
0.0
 10
969.3402395751302
 20
847.0705216170184
 30
0.0
 10
969.5704937162666
 20
846.8877450755446
 30
0.0
 10
969.7690960266756
 20
846.6792895292879
 30
0.0
 10
969.9357117470415
 20
846.4490436679882
 30
0.0
 10
970.0661688877357
 20
846.2029739322467
 30
0.0
 10
970.1623663128322
 20
845.9497164301956
 30
0.0
 10
970.220930155115
 20
845.6898719241639
 30
0.0
 10
970.2285199992525
 20
845.5144267146206
 30
0.0
 10
970.2323224949915
 20
845.426529038512
 30
0.0
  0
SPLINE
  5
C7
330
1F
100
AcDbEntity
  8
0
  6
Continuous
 62
     7
370
    25
100
AcDbSpline
210
0.0
220
0.0
230
1.0
 70
     8
 71
     3
 72
    23
 73
    19
 74
     0
 42
0.00000001
 43
0.00000001
 40
0.0
 40
0.0
 40
0.0
 40
0.0
 40
0.0726253460834356
 40
0.1419766113262352
 40
0.2089849284189382
 40
0.2739568703644447
 40
0.33688934739684
 40
0.39874495349459
 40
0.4601158852788622
 40
0.5208249225900295
 40
0.5809944586324854
 40
0.6401519276014657
 40
0.6986224507562557
 40
0.7572710809271648
 40
0.8164266940046615
 40
0.8762540482034716
 40
0.9371652930625373
 40
1.0
 40
1.0
 40
1.0
 40
1.0
 10
965.5143737770428
 20
845.4537726282555
 30
0.0
 10
965.5338241785995
 20
845.5343040201992
 30
0.0
 10
965.57184812273
 20
845.6917363045206
 30
0.0
 10
965.6511568620874
 20
845.9166671864574
 30
0.0
 10
965.737555159675
 20
846.1295209496362
 30
0.0
 10
965.8413016843946
 20
846.3263119752256
 30
0.0
 10
965.9544645511971
 20
846.5109951814718
 30
0.0
 10
966.0841164861363
 20
846.6793817516847
 30
0.0
 10
966.2242758520013
 20
846.835754244181
 30
0.0
 10
966.3793043075482
 20
846.9745273585975
 30
0.0
 10
966.5418841055842
 20
847.1001907396413
 30
0.0
 10
966.7143060935858
 20
847.2073337278525
 30
0.0
 10
966.8931012791188
 20
847.2995032201142
 30
0.0
 10
967.0795084401441
 20
847.3754351786864
 30
0.0
 10
967.2740825468686
 20
847.4326363756375
 30
0.0
 10
967.4750645430306
 20
847.4741376455594
 30
0.0
 10
967.6829811147212
 20
847.5010887637637
 30
0.0
 10
967.8241184646599
 20
847.5037190793897
 30
0.0
 10
967.8957840334531
 20
847.5050546795375
 30
0.0
  0
LINE
  5
C8
330
1F
100
AcDbEntity
  8
0
  6
Continuous
 62
     7
370
    25
100
AcDbLine
 10
966.232322495
 20
845.4537726283
 30
0.0
 11
965.514373777
 21
845.4537726283
 31
0.0
  0
SPLINE
  5
C9
330
1F
100
AcDbEntity
  8
0
  6
Continuous
 62
     7
370
    25
100
AcDbSpline
210
0.0
220
0.0
230
1.0
 70
     8
 71
     3
 72
    19
 73
    15
 74
     0
 42
0.00000001
 43
0.00000001
 40
0.0
 40
0.0
 40
0.0
 40
0.0
 40
0.122711942365779
 40
0.2396849640167739
 40
0.351815855256094
 40
0.463766132862082
 40
0.5208177931608301
 40
0.5794482914480042
 40
0.6406041451203197
 40
0.7052975118059822
 40
0.7736338807131349
 40
0.8446693818863795
 40
0.9200565080211439
 40
1.0
 40
1.0
 40
1.0
 40
1.0
 10
967.9053994180686
 20
846.6845418590248
 30
0.0
 10
967.8143098912045
 20
846.6813616030175
 30
0.0
 10
967.6363908594642
 20
846.6751498233658
 30
0.0
 10
967.3798996208235
 20
846.6207429354798
 30
0.0
 10
967.1414554288223
 20
846.5339358874951
 30
0.0
 10
966.9591956194752
 20
846.4303175573651
 30
0.0
 10
966.8246068785414
 20
846.32803085142
 30
0.0
 10
966.7284310197911
 20
846.2386996825715
 30
0.0
 10
966.6339841388657
 20
846.1394246570595
 30
0.0
 10
966.5474797346391
 20
846.0240912278537
 30
0.0
 10
966.4599963593828
 20
845.9005099931319
 30
0.0
 10
966.3803516473173
 20
845.7623987210368
 30
0.0
 10
966.3029580650284
 20
845.6133601054895
 30
0.0
 10
966.2563236659001
 20
845.5079986550851
 30
0.0
 10
966.2323224949915
 20
845.4537726282555
 30
0.0
  0
SPLINE
  5
CA
330
1F
100
AcDbEntity
  8
0
  6
Continuous
 62
     7
370
    25
100
AcDbSpline
210
0.0
220
0.0
230
1.0
 70
     8
 71
     3
 72
    23
 73
    19
 74
     0
 42
0.00000001
 43
0.00000001
 40
0.0
 40
0.0
 40
0.0
 40
0.0
 40
0.0552745490875265
 40
0.1099660938819843
 40
0.1632474428518069
 40
0.2180761854823624
 40
0.2733008743735932
 40
0.3309093000114348
 40
0.3909945233652108
 40
0.4541759534308253
 40
0.5188615408488266
 40
0.5833105320111681
 40
0.648516681863826
 40
0.7150308870971822
 40
0.7825020728543317
 40
0.8523226850768567
 40
0.9249284897844289
 40
1.0
 40
1.0
 40
1.0
 40
1.0
 10
969.5143737770428
 20
845.4297341667169
 30
0.0
 10
969.5134265519875
 20
845.4715118699
 30
0.0
 10
969.5115420926643
 20
845.554626628975
 30
0.0
 10
969.4877768863021
 20
845.6760553574056
 30
0.0
 10
969.4520647926272
 20
845.7937718052369
 30
0.0
 10
969.4029682684971
 20
845.907275371532
 30
0.0
 10
969.3372535285961
 20
846.0157788547276
 30
0.0
 10
969.2586112736834
 20
846.120207309448
 30
0.0
 10
969.1649699016159
 20
846.219964518605
 30
0.0
 10
969.0576660227392
 20
846.3129481061585
 30
0.0
 10
968.9424390399529
 20
846.4015635053939
 30
0.0
 10
968.8161538398433
 20
846.4767946756325
 30
0.0
 10
968.6826181262161
 20
846.5411262460929
 30
0.0
 10
968.5416840579877
 20
846.5941765366161
 30
0.0
 10
968.3928942744027
 20
846.6340834811115
 30
0.0
 10
968.236947856897
 20
846.662736832887
 30
0.0
 10
968.0735474374401
 20
846.6806514722736
 30
0.0
 10
967.9620691928524
 20
846.6832307086357
 30
0.0
 10
967.9053994180686
 20
846.6845418590248
 30
0.0
  0
SPLINE
  5
CB
330
1F
100
AcDbEntity
  8
0
  6
Continuous
 62
     7
370
    25
100
AcDbSpline
210
0.0
220
0.0
230
1.0
 70
     8
 71
     3
 72
    19
 73
    15
 74
     0
 42
0.00000001
 43
0.00000001
 40
0.0
 40
0.0
 40
0.0
 40
0.0
 40
0.096972310381516
 40
0.1877734389628679
 40
0.2723961390136942
 40
0.3513209973752884
 40
0.4243347744514678
 40
0.4919087840005278
 40
0.5542332197968018
 40
0.6112676582441553
 40
0.7163478449915546
 40
0.8145400858216157
 40
0.9084954561491857
 40
0.9999999999999999
 40
0.9999999999999999
 40
0.9999999999999999
 40
0.9999999999999999
 10
962.3989891616583
 20
843.841593141076
 30
0.0
 10
962.4858141063609
 20
843.7784128906766
 30
0.0
 10
962.6539385780833
 20
843.6560730923842
 30
0.0
 10
962.8931559035952
 20
843.4722658237501
 30
0.0
 10
963.1100560363834
 20
843.2924994955803
 30
0.0
 10
963.3054005016867
 20
843.1179221079321
 30
0.0
 10
963.481119149549
 20
842.9498578953522
 30
0.0
 10
963.6352625110915
 20
842.7862849117405
 30
0.0
 10
963.7694012090278
 20
842.6283750313239
 30
0.0
 10
963.9138108512224
 20
842.4259234297441
 30
0.0
 10
964.061371581555
 20
842.1772809514027
 30
0.0
 10
964.1880950271004
 20
841.872644977585
 30
0.0
 10
964.2679998212823
 20
841.5668248164491
 30
0.0
 10
964.2784489994125
 20
841.3612777616489
 30
0.0
 10
964.2836045462736
 20
841.2598623718452
 30
0.0
  0
SPLINE
  5
CC
330
1F
100
AcDbEntity
  8
0
  6
Continuous
 62
     7
370
    25
100
AcDbSpline
210
0.0
220
0.0
230
1.0
 70
     8
 71
     3
 72
    15
 73
    11
 74
     0
 42
0.00000001
 43
0.00000001
 40
0.0
 40
0.0
 40
0.0
 40
0.0
 40
0.0525942815291374
 40
0.1249519739750381
 40
0.2180938989285935
 40
0.3335024107325237
 40
0.4687891785044474
 40
0.6249375859645985
 40
0.8016830479282283
 40
1.0
 40
1.0
 40
1.0
 40
1.0
 10
961.3236686488378
 20
844.6380675000503
 30
0.0
 10
961.3411803571981
 20
844.6224400124713
 30
0.0
 10
961.3827841677969
 20
844.5853126791473
 30
0.0
 10
961.4588434266303
 20
844.5245303233902
 30
0.0
 10
961.5592841082988
 20
844.4495525581438
 30
0.0
 10
961.6814834252745
 20
844.3567815490586
 30
0.0
 10
961.8276945377935
 20
844.2491667785048
 30
0.0
 10
961.9979335232667
 20
844.1280842364162
 30
0.0
 10
962.1903027411752
 20
843.9896031872576
 30
0.0
 10
962.3268099775172
 20
843.8927859515777
 30
0.0
 10
962.3989891616583
 20
843.841593141076
 30
0.0
  0
SPLINE
  5
CD
330
1F
100
AcDbEntity
  8
0
  6
Continuous
 62
     7
370
    25
100
AcDbSpline
210
0.0
220
0.0
230
1.0
 70
     8
 71
     3
 72
    15
 73
    11
 74
     0
 42
0.00000001
 43
0.00000001
 40
0.0
 40
0.0
 40
0.0
 40
0.0
 40
0.1072852142689548
 40
0.2147458609696411
 40
0.3229385595552872
 40
0.4341161625174656
 40
0.5534123109627955
 40
0.6860729848107301
 40
0.8342559920595846
 40
1.0
 40
1.0
 40
1.0
 40
1.0
 10
960.7964250590941
 20
845.6717213462042
 30
0.0
 10
960.7973236342597
 20
845.628860823826
 30
0.0
 10
960.7991222539379
 20
845.5430696936835
 30
0.0
 10
960.8242075057924
 20
845.4163235863602
 30
0.0
 10
960.8564345434104
 20
845.289897667689
 30
0.0
 10
960.9075034159896
 20
845.1643603354967
 30
0.0
 10
960.9780069671115
 20
845.0375160862343
 30
0.0
 10
961.0705902263259
 20
844.9071806861004
 30
0.0
 10
961.1871920824402
 20
844.7722053519929
 30
0.0
 10
961.2765109678148
 20
844.6844170690787
 30
0.0
 10
961.3236686488378
 20
844.6380675000503
 30
0.0
  0
SPLINE
  5
CE
330
1F
100
AcDbEntity
  8
0
  6
Continuous
 62
     7
370
    25
100
AcDbSpline
210
0.0
220
0.0
230
1.0
 70
     8
 71
     3
 72
    15
 73
    11
 74
     0
 42
0.00000001
 43
0.00000001
 40
0.0
 40
0.0
 40
0.0
 40
0.0
 40
0.1430730837303608
 40
0.2759029640930066
 40
0.4023708562739965
 40
0.528413645093593
 40
0.6503563791869514
 40
0.7658950861246923
 40
0.880774130844021
 40
0.9999999999999999
 40
0.9999999999999999
 40
0.9999999999999999
 40
0.9999999999999999
 10
961.9695019821711
 20
846.6845418590248
 30
0.0
 10
961.8868585023872
 20
846.6817722591346
 30
0.0
 10
961.7274883368686
 20
846.6764313466507
 30
0.0
 10
961.5012249400513
 20
846.6180999516984
 30
0.0
 10
961.297581682764
 20
846.5262556995707
 30
0.0
 10
961.1226043912069
 20
846.3975357496379
 30
0.0
 10
960.9769198722514
 20
846.2450306235004
 30
0.0
 10
960.871535966503
 20
846.0695360976148
 30
0.0
 10
960.8081070189555
 20
845.8757477488044
 30
0.0
 10
960.8003669511817
 20
845.7405668200463
 30
0.0
 10
960.7964250590941
 20
845.6717213462042
 30
0.0
  0
SPLINE
  5
CF
330
1F
100
AcDbEntity
  8
0
  6
Continuous
 62
     7
370
    25
100
AcDbSpline
210
0.0
220
0.0
230
1.0
 70
     8
 71
     3
 72
    19
 73
    15
 74
     0
 42
0.00000001
 43
0.00000001
 40
0.0
 40
0.0
 40
0.0
 40
0.0
 40
0.0984694310255562
 40
0.1896291011376331
 40
0.2741840894379691
 40
0.3521831609671533
 40
0.4231988731834684
 40
0.4885509460005321
 40
0.5484733460279362
 40
0.6014401636178699
 40
0.7011980824257656
 40
0.7995918021381826
 40
0.8985450984822272
 40
1.0
 40
1.0
 40
1.0
 40
1.0
 10
963.532001982171
 20
845.6589008333837
 30
0.0
 10
963.4928112793773
 20
845.7093892686354
 30
0.0
 10
963.4173391489267
 20
845.8066181902907
 30
0.0
 10
963.3027574646741
 20
845.9427811973908
 30
0.0
 10
963.194760555142
 20
846.0671617220352
 30
0.0
 10
963.0883596413495
 20
846.1751963003895
 30
0.0
 10
962.9891741979988
 20
846.2728011765904
 30
0.0
 10
962.8929066728629
 20
846.3563663350463
 30
0.0
 10
962.8009424414632
 20
846.4267105531723
 30
0.0
 10
962.6850180742722
 20
846.5017815473647
 30
0.0
 10
962.5393775752477
 20
846.5761964126326
 30
0.0
 10
962.3565557781293
 20
846.6391657339532
 30
0.0
 10
962.1655014351921
 20
846.6770058754818
 30
0.0
 10
962.0353765632135
 20
846.6820090470653
 30
0.0
 10
961.9695019821711
 20
846.6845418590248
 30
0.0
  0
LINE
  5
D0
330
1F
100
AcDbEntity
  8
0
  6
Continuous
 62
     7
370
    25
100
AcDbLine
 10
964.1810404437
 20
846.1508880129
 30
0.0
 11
963.5320019822
 21
845.6589008334
 31
0.0
  0
SPLINE
  5
D1
330
1F
100
AcDbEntity
  8
0
  6
Continuous
 62
     7
370
    25
100
AcDbSpline
210
0.0
220
0.0
230
1.0
 70
     8
 71
     3
 72
    19
 73
    15
 74
     0
 42
0.00000001
 43
0.00000001
 40
0.0
 40
0.0
 40
0.0
 40
0.0
 40
0.1072327993600893
 40
0.2132518127818507
 40
0.3188304473075882
 40
0.4267935306342767
 40
0.4836459507827184
 40
0.5436038220211432
 40
0.6083076495640842
 40
0.6771267602600424
 40
0.7506856360204963
 40
0.8287134184432899
 40
0.9121903482234537
 40
1.0
 40
1.0
 40
1.0
 40
1.0
 10
962.0496301872993
 20
847.5050546795375
 30
0.0
 10
962.1439024165519
 20
847.5018031330252
 30
0.0
 10
962.3313797919732
 20
847.4953368447975
 30
0.0
 10
962.6071494275607
 20
847.4391139160666
 30
0.0
 10
962.8726596364763
 20
847.3460838091227
 30
0.0
 10
963.086244241778
 20
847.2405097337454
 30
0.0
 10
963.253404839405
 20
847.1350664978294
 30
0.0
 10
963.3808853712654
 20
847.039021185192
 30
0.0
 10
963.5100681159205
 20
846.9284495083824
 30
0.0
 10
963.6419950983862
 20
846.803056945912
 30
0.0
 10
963.77443089139
 20
846.6616929434214
 30
0.0
 10
963.9093416393767
 20
846.5053256544861
 30
0.0
 10
964.0470428252297
 20
846.3349106696531
 30
0.0
 10
964.13562764837
 20
846.2132546679285
 30
0.0
 10
964.1810404437095
 20
846.1508880128708
 30
0.0
  0
SPLINE
  5
D2
330
1F
100
AcDbEntity
  8
0
  6
Continuous
 62
     7
370
    25
100
AcDbSpline
210
0.0
220
0.0
230
1.0
 70
     8
 71
     3
 72
    19
 73
    15
 74
     0
 42
0.00000001
 43
0.00000001
 40
0.0
 40
0.0
 40
0.0
 40
0.0
 40
0.0837853706537118
 40
0.1657798879221425
 40
0.2462800078932647
 40
0.3274609277363911
 40
0.4087969540320692
 40
0.4897152412309888
 40
0.571376032130053
 40
0.6555233211112766
 40
0.7410194827999745
 40
0.8265467605037613
 40
0.911988851654834
 40
1.0
 40
1.0
 40
1.0
 40
1.0
 10
960.0784763411455
 20
845.6380675000503
 30
0.0
 10
960.0814596759875
 20
845.7227069847697
 30
0.0
 10
960.0873625789868
 20
845.8901768447355
 30
0.0
 10
960.1372837613193
 20
846.1348187428888
 30
0.0
 10
960.2160789468152
 20
846.368387696529
 30
0.0
 10
960.3264672619274
 20
846.5885713164712
 30
0.0
 10
960.4687697828833
 20
846.7896364156442
 30
0.0
 10
960.6334462957182
 20
846.9738958144602
 30
0.0
 10
960.8295868356894
 20
847.1287954309652
 30
0.0
 10
961.0447928317201
 20
847.2641372787119
 30
0.0
 10
961.2803502536234
 20
847.3700708220424
 30
0.0
 10
961.5271866042465
 20
847.4499816338378
 30
0.0
 10
961.785694197447
 20
847.4952599371314
 30
0.0
 10
961.9607870765861
 20
847.5017576855032
 30
0.0
 10
962.0496301872993
 20
847.5050546795375
 30
0.0
  0
SPLINE
  5
D3
330
1F
100
AcDbEntity
  8
0
  6
Continuous
 62
     7
370
    25
100
AcDbSpline
210
0.0
220
0.0
230
1.0
 70
     8
 71
     3
 72
    15
 73
    11
 74
     0
 42
0.00000001
 43
0.00000001
 40
0.0
 40
0.0
 40
0.0
 40
0.0
 40
0.1335067689985154
 40
0.2625589787303677
 40
0.3882644471488776
 40
0.5126673546814279
 40
0.6337222699657615
 40
0.7553938601370975
 40
0.877552945091281
 40
1.0
 40
1.0
 40
1.0
 40
1.0
 10
960.5255917257608
 20
844.4201187821017
 30
0.0
 10
960.4902259080897
 20
844.4672068663398
 30
0.0
 10
960.4206742813117
 20
844.5598119035277
 30
0.0
 10
960.3288662688201
 20
844.7045544355682
 30
0.0
 10
960.2508338967094
 20
844.8527218993606
 30
0.0
 10
960.1896628518266
 20
845.0047124469369
 30
0.0
 10
960.138151494479
 20
845.1583922843781
 30
0.0
 10
960.1035047956955
 20
845.3157665602631
 30
0.0
 10
960.0818101741737
 20
845.4761291167533
 30
0.0
 10
960.0795884906695
 20
845.5840456896047
 30
0.0
 10
960.0784763411455
 20
845.6380675000503
 30
0.0
  0
SPLINE
  5
D4
330
1F
100
AcDbEntity
  8
0
  6
Continuous
 62
     7
370
    25
100
AcDbSpline
210
0.0
220
0.0
230
1.0
 70
     8
 71
     3
 72
    15
 73
    11
 74
     0
 42
0.00000001
 43
0.00000001
 40
0.0
 40
0.0
 40
0.0
 40
0.0
 40
0.1815353013762841
 40
0.3470816724816299
 40
0.4955678164315542
 40
0.6283573018772124
 40
0.7455196699921548
 40
0.845830750757651
 40
0.9307818073847574
 40
1.0
 40
1.0
 40
1.0
 40
1.0
 10
961.8364891616582
 20
843.3319777564607
 30
0.0
 10
961.7523200275348
 20
843.3919288138761
 30
0.0
 10
961.5913950524942
 20
843.5065506704358
 30
0.0
 10
961.3663468642741
 20
843.6766633196098
 30
0.0
 10
961.1651023773942
 20
843.832192164277
 30
0.0
 10
960.9885560539124
 20
843.9746013347971
 30
0.0
 10
960.8367855468356
 20
844.1039101456082
 30
0.0
 10
960.7085948930891
 20
844.2188768636474
 30
0.0
 10
960.6072496197278
 20
844.3226107170608
 30
0.0
 10
960.5508940067939
 20
844.3899052124783
 30
0.0
 10
960.5255917257608
 20
844.4201187821017
 30
0.0
  0
SPLINE
  5
D5
330
1F
100
AcDbEntity
  8
0
  6
Continuous
 62
     7
370
    25
100
AcDbSpline
210
0.0
220
0.0
230
1.0
 70
     8
 71
     3
 72
    15
 73
    11
 74
     0
 42
0.00000001
 43
0.00000001
 40
0.0
 40
0.0
 40
0.0
 40
0.0
 40
0.0902792146500176
 40
0.1895299184469602
 40
0.2991978724002875
 40
0.4189258867738195
 40
0.5483762854012477
 40
0.688136369538681
 40
0.8390835016589189
 40
1.0
 40
1.0
 40
1.0
 40
1.0
 10
963.278796853966
 20
842.0563367308196
 30
0.0
 10
963.2429783072674
 20
842.102158041913
 30
0.0
 10
963.1677817488905
 20
842.1983541529261
 30
0.0
 10
963.0385074343922
 20
842.3415432625843
 30
0.0
 10
962.886813458837
 20
842.4892425059032
 30
0.0
 10
962.7178910476104
 20
842.6470917789303
 30
0.0
 10
962.5255868445461
 20
842.8077495999315
 30
0.0
 10
962.3159239544817
 20
842.9788770923634
 30
0.0
 10
962.083549419702
 20
843.1539664113272
 30
0.0
 10
961.920579141718
 20
843.2713894182908
 30
0.0
 10
961.8364891616582
 20
843.3319777564607
 30
0.0
  0
SPLINE
  5
D6
330
1F
100
AcDbEntity
  8
0
  6
Continuous
 62
     7
370
    25
100
AcDbSpline
210
0.0
220
0.0
230
1.0
 70
     8
 71
     3
 72
    11
 73
     7
 74
     0
 42
0.00000001
 43
0.00000001
 40
0.0
 40
0.0
 40
0.0
 40
0.0
 40
0.2347233736739058
 40
0.4771583189289882
 40
0.7285562842030583
 40
1.0
 40
1.0
 40
1.0
 40
1.0
 10
963.565655828325
 20
841.2710803205632
 30
0.0
 10
963.5622859752979
 20
841.3376879770374
 30
0.0
 10
963.5554355565254
 20
841.4730916093795
 30
0.0
 10
963.4975350306454
 20
841.6728622447027
 30
0.0
 10
963.4064510378604
 20
841.8705595476154
 30
0.0
 10
963.3224221379634
 20
841.9928481546502
 30
0.0
 10
963.278796853966
 20
842.0563367308196
 30
0.0
  0
SPLINE
  5
D7
330
1F
100
AcDbEntity
  8
0
  6
Continuous
 62
     7
370
    25
100
AcDbSpline
210
0.0
220
0.0
230
1.0
 70
     8
 71
     3
 72
    19
 73
    15
 74
     0
 42
0.00000001
 43
0.00000001
 40
0.0
 40
0.0
 40
0.0
 40
0.0
 40
0.0912636048966267
 40
0.1809303110850812
 40
0.2700882198317226
 40
0.3601561333877252
 40
0.4483425324981544
 40
0.5326658421383292
 40
0.6138337041070474
 40
0.6939815272835598
 40
0.7727159770890039
 40
0.8493351720622464
 40
0.9239673265752318
 40
1.0
 40
1.0
 40
1.0
 40
1.0
 10
961.9983481360173
 20
839.9153110897939
 30
0.0
 10
962.0684895314721
 20
839.9172646269647
 30
0.0
 10
962.2075450127229
 20
839.9211375189947
 30
0.0
 10
962.4122587109198
 20
839.9583507808218
 30
0.0
 10
962.6110742589565
 20
840.0155213611955
 30
0.0
 10
962.7998940023406
 20
840.097397776072
 30
0.0
 10
962.9761125498412
 20
840.1964571720149
 30
0.0
 10
963.1306421391821
 20
840.3161055777458
 30
0.0
 10
963.2642332550208
 20
840.450062619377
 30
0.0
 10
963.3735112311743
 20
840.5995086871301
 30
0.0
 10
963.4573513118335
 20
840.7602335982325
 30
0.0
 10
963.5217903253493
 20
840.9252072012914
 30
0.0
 10
963.5575504937068
 20
841.0970210716434
 30
0.0
 10
963.5629373587507
 20
841.2127021295812
 30
0.0
 10
963.565655828325
 20
841.2710803205632
 30
0.0
  0
SPLINE
  5
D8
330
1F
100
AcDbEntity
  8
0
  6
Continuous
 62
     7
370
    25
100
AcDbSpline
210
0.0
220
0.0
230
1.0
 70
     8
 71
     3
 72
    15
 73
    11
 74
     0
 42
0.00000001
 43
0.00000001
 40
0.0
 40
0.0
 40
0.0
 40
0.0
 40
0.1590042985173768
 40
0.3046460998968128
 40
0.4385469045795927
 40
0.5623222987759272
 40
0.67743254252573
 40
0.786897392938753
 40
0.8936108891042672
 40
1.0
 40
1.0
 40
1.0
 40
1.0
 10
960.241937879607
 20
841.2486444231273
 30
0.0
 10
960.3048367076083
 20
841.143354400391
 30
0.0
 10
960.4253484347585
 20
840.9416227800277
 30
0.0
 10
960.6263801128213
 20
840.6690329733334
 30
0.0
 10
960.834683909772
 20
840.4373480435985
 30
0.0
 10
961.0518023864565
 20
840.2479157977931
 30
0.0
 10
961.276410267879
 20
840.0987754852272
 30
0.0
 10
961.5099738192772
 20
839.9931703841562
 30
0.0
 10
961.7517059580462
 20
839.9273052975932
 30
0.0
 10
961.9162175499991
 20
839.919305099754
 30
0.0
 10
961.9983481360173
 20
839.9153110897939
 30
0.0
  0
LINE
  5
D9
330
1F
100
AcDbEntity
  8
0
  6
Continuous
 62
     7
370
    25
100
AcDbLine
 10
959.5656558283
 20
840.8431957052
 30
0.0
 11
960.2419378796
 21
841.2486444231
 31
0.0
  0
SPLINE
  5
DA
330
1F
100
AcDbEntity
  8
0
  6
Continuous
 62
     7
370
    25
100
AcDbSpline
210
0.0
220
0.0
230
1.0
 70
     8
 71
     3
 72
    23
 73
    19
 74
     0
 42
0.00000001
 43
0.00000001
 40
0.0
 40
0.0
 40
0.0
 40
0.0
 40
0.0572082694335084
 40
0.1136960596574914
 40
0.1691779164171953
 40
0.2241592165805425
 40
0.278719878381043
 40
0.3337942174469896
 40
0.3892414593400035
 40
0.4458220733936226
 40
0.5037042811090208
 40
0.5642938918193634
 40
0.6279754158952235
 40
0.6950382596840512
 40
0.7653727258510127
 40
0.8396114430907354
 40
0.9175377500777894
 40
0.9999999999999999
 40
0.9999999999999999
 40
0.9999999999999999
 40
0.9999999999999999
 10
961.9983481360173
 20
839.0947982692811
 30
0.0
 10
961.9379244949179
 20
839.095966684361
 30
0.0
 10
961.8178381862218
 20
839.0982887995364
 30
0.0
 10
961.6402165133688
 20
839.1188174405014
 30
0.0
 10
961.4661831666305
 20
839.1478622487099
 30
0.0
 10
961.2979219505524
 20
839.193974408657
 30
0.0
 10
961.1332650096571
 20
839.2499217847534
 30
0.0
 10
960.9729284735977
 20
839.3188094021206
 30
0.0
 10
960.8168346362128
 20
839.401363005429
 30
0.0
 10
960.6641087325137
 20
839.4957516331515
 30
0.0
 10
960.5151391906026
 20
839.6055979064397
 30
0.0
 10
960.371323263908
 20
839.73353732687
 30
0.0
 10
960.227942268449
 20
839.8760413382786
 30
0.0
 10
960.0892282197141
 20
840.0369797688196
 30
0.0
 10
959.9523753184437
 20
840.2137525296374
 30
0.0
 10
959.8200818109317
 20
840.40801352026
 30
0.0
 10
959.6896093133795
 20
840.6187046145664
 30
0.0
 10
959.6077453869171
 20
840.7669676676402
 30
0.0
 10
959.565655828325
 20
840.8431957051785
 30
0.0
  0
SPLINE
  5
DB
330
1F
100
AcDbEntity
  8
0
  6
Continuous
 62
     7
370
    25
100
AcDbSpline
210
0.0
220
0.0
230
1.0
 70
     8
 71
     3
 72
    23
 73
    19
 74
     0
 42
0.00000001
 43
0.00000001
 40
0.0
 40
0.0
 40
0.0
 40
0.0
 40
0.0614842551968908
 40
0.12177452770221
 40
0.180919559813933
 40
0.2402561150782716
 40
0.3001144444023519
 40
0.3611459476126121
 40
0.4235005824125855
 40
0.4886693612807192
 40
0.5539541046535623
 40
0.6175812610152617
 40
0.6802384268167397
 40
0.7421873887724543
 40
0.8046632117692931
 40
0.8682589893126634
 40
0.933020257180375
 40
1.0
 40
1.0
 40
1.0
 40
1.0
 10
964.2836045462736
 20
841.2598623718452
 30
0.0
 10
964.282102516276
 20
841.1881403944839
 30
0.0
 10
964.2791276246885
 20
841.0460892320997
 30
0.0
 10
964.2449312503372
 20
840.8375061992263
 30
0.0
 10
964.1948291585371
 20
840.6349213542344
 30
0.0
 10
964.1193154809358
 20
840.4408388115029
 30
0.0
 10
964.0271482620561
 20
840.2517079253693
 30
0.0
 10
963.9101968383624
 20
840.0724898672872
 30
0.0
 10
963.7746364161048
 20
839.8992180990884
 30
0.0
 10
963.619130667752
 20
839.736512975991
 30
0.0
 10
963.4489686053141
 20
839.58715024231
 30
0.0
 10
963.2691201603707
 20
839.4542838160872
 30
0.0
 10
963.0792909650926
 20
839.343499076898
 30
0.0
 10
962.8805108126738
 20
839.2530971522124
 30
0.0
 10
962.6727340430576
 20
839.1823919692953
 30
0.0
 10
962.4560305371502
 20
839.131162554139
 30
0.0
 10
962.2300430829341
 20
839.0997209291938
 30
0.0
 10
962.076441982197
 20
839.0964574744175
 30
0.0
 10
961.9983481360173
 20
839.0947982692811
 30
0.0
  0
LINE
  5
DC
330
1F
100
AcDbEntity
  8
0
  6
Continuous
 62
     7
370
    25
100
AcDbLine
 10
958.3348865976
 20
847.2999264744
 30
0.0
 11
958.3348865976
 21
839.2999264744
 31
0.0
  0
LINE
  5
DD
330
1F
100
AcDbEntity
  8
0
  6
Continuous
 62
     7
370
    25
100
AcDbLine
 10
957.6169378796
 20
847.2999264744
 30
0.0
 11
958.3348865976
 21
847.2999264744
 31
0.0
  0
LINE
  5
DE
330
1F
100
AcDbEntity
  8
0
  6
Continuous
 62
     7
370
    25
100
AcDbLine
 10
957.6169378796
 20
839.2999264744
 30
0.0
 11
957.6169378796
 21
847.2999264744
 31
0.0
  0
LINE
  5
DF
330
1F
100
AcDbEntity
  8
0
  6
Continuous
 62
     7
370
    25
100
AcDbLine
 10
958.3348865976
 20
839.2999264744
 30
0.0
 11
957.6169378796
 21
839.2999264744
 31
0.0
  0
SPLINE
  5
E0
330
1F
100
AcDbEntity
  8
0
  6
Continuous
 62
     7
370
    25
100
AcDbSpline
210
0.0
220
0.0
230
1.0
 70
     8
 71
     3
 72
    11
 73
     7
 74
     0
 42
0.00000001
 43
0.00000001
 40
0.0
 40
0.0
 40
0.0
 40
0.0
 40
0.2629516255674852
 40
0.5157066923583608
 40
0.7621092269531
 40
1.0
 40
1.0
 40
1.0
 40
1.0
 10
953.2162968539659
 20
840.0306957051786
 30
0.0
 10
953.2603752803867
 20
840.0134169455448
 30
0.0
 10
953.3468228900747
 20
839.9795294502325
 30
0.0
 10
953.4789945007434
 20
839.9417102540929
 30
0.0
 10
953.6104117280834
 20
839.9210418885611
 30
0.0
 10
953.697537885493
 20
839.9171988413872
 30
0.0
 10
953.7403353155044
 20
839.9153110897939
 30
0.0
  0
SPLINE
  5
E1
330
1F
100
AcDbEntity
  8
0
  6
Continuous
 62
     7
370
    25
100
AcDbSpline
210
0.0
220
0.0
230
1.0
 70
     8
 71
     3
 72
    11
 73
     7
 74
     0
 42
0.00000001
 43
0.00000001
 40
0.0
 40
0.0
 40
0.0
 40
0.0
 40
0.2991842876765359
 40
0.5648989463568093
 40
0.7985478688426224
 40
1.0
 40
1.0
 40
1.0
 40
1.0
 10
952.19386095653
 20
840.6332598077427
 30
0.0
 10
952.2914670800101
 20
840.5659514735923
 30
0.0
 10
952.4757601681935
 20
840.4388645622515
 30
0.0
 10
952.7466274616474
 20
840.2753751898148
 30
0.0
 10
952.9866209542324
 20
840.1352033828265
 30
0.0
 10
953.1436105481213
 20
840.0637696020456
 30
0.0
 10
953.2162968539659
 20
840.0306957051786
 30
0.0
  0
LINE
  5
E2
330
1F
100
AcDbEntity
  8
0
  6
Continuous
 62
     7
370
    25
100
AcDbLine
 10
951.7707840335
 20
840.0178751924
 30
0.0
 11
952.1938609565
 21
840.6332598077
 31
0.0
  0
SPLINE
  5
E3
330
1F
100
AcDbEntity
  8
0
  6
Continuous
 62
     7
370
    25
100
AcDbSpline
210
0.0
220
0.0
230
1.0
 70
     8
 71
     3
 72
    15
 73
    11
 74
     0
 42
0.00000001
 43
0.00000001
 40
0.0
 40
0.0
 40
0.0
 40
0.0
 40
0.1060709021051295
 40
0.213421680412451
 40
0.321685488130326
 40
0.4338579390981569
 40
0.5540812827743558
 40
0.6875870439665619
 40
0.8364658500651129
 40
1.0
 40
1.0
 40
1.0
 40
1.0
 10
953.7002712129403
 20
839.0947982692811
 30
0.0
 10
953.6226521083381
 20
839.0972682330048
 30
0.0
 10
953.4664773289446
 20
839.1022379636094
 30
0.0
 10
953.2340414232025
 20
839.1427447362945
 30
0.0
 10
953.0022654783867
 20
839.2051814068004
 30
0.0
 10
952.769919309609
 20
839.2966159105689
 30
0.0
 10
952.5324124722421
 20
839.420971564248
 30
0.0
 10
952.2865282512282
 20
839.5836797164287
 30
0.0
 10
952.0291038147508
 20
839.784437491051
 30
0.0
 10
951.8595420179353
 20
839.9376666238695
 30
0.0
 10
951.7707840334532
 20
840.017875192358
 30
0.0
  0
SPLINE
  5
E4
330
1F
100
AcDbEntity
  8
0
  6
Continuous
 62
     7
370
    25
100
AcDbSpline
210
0.0
220
0.0
230
1.0
 70
     8
 71
     3
 72
    23
 73
    19
 74
     0
 42
0.00000001
 43
0.00000001
 40
0.0
 40
0.0
 40
0.0
 40
0.0
 40
0.0773606839426997
 40
0.148541953025043
 40
0.2140077372521333
 40
0.2729945033606886
 40
0.326409195767469
 40
0.3738804007298087
 40
0.4160199382657589
 40
0.4521255195126335
 40
0.5180017107054568
 40
0.5823669297335152
 40
0.6470437823418074
 40
0.7133304210644739
 40
0.7809119703509695
 40
0.8503949591306453
 40
0.9229229735922772
 40
1.0
 40
1.0
 40
1.0
 40
1.0
 10
955.565655828325
 20
841.8976828846658
 30
0.0
 10
955.5649383000236
 20
841.7977853511896
 30
0.0
 10
955.5635605581294
 20
841.6059698970255
 30
0.0
 10
955.5559847626198
 20
841.329686706416
 30
0.0
 10
955.5419653845478
 20
841.0774108522368
 30
0.0
 10
955.5215424988577
 20
840.8485686876819
 30
0.0
 10
955.4942962524037
 20
840.6438771327383
 30
0.0
 10
955.4631167595579
 20
840.4617545777331
 30
0.0
 10
955.4253732194989
 20
840.3037210181266
 30
0.0
 10
955.3685355821706
 20
840.1262687764399
 30
0.0
 10
955.2753379854938
 20
839.9316543656208
 30
0.0
 10
955.1350704697339
 20
839.721471164236
 30
0.0
 10
954.9608240778832
 20
839.537623368464
 30
0.0
 10
954.7589931449138
 20
839.3779599972281
 30
0.0
 10
954.527813661303
 20
839.250743468825
 30
0.0
 10
954.2720463033048
 20
839.1594173467455
 30
0.0
 10
953.9932655319951
 20
839.1037125316043
 30
0.0
 10
953.7998959037611
 20
839.0978293199537
 30
0.0
 10
953.7002712129403
 20
839.0947982692811
 30
0.0
  0
LINE
  5
E5
330
1F
100
AcDbEntity
  8
0
  6
Continuous
 62
     7
370
    25
100
AcDbLine
 10
955.5656558283
 20
847.2999264744
 30
0.0
 11
955.5656558283
 21
841.8976828847
 31
0.0
  0
LINE
  5
E6
330
1F
100
AcDbEntity
  8
0
  6
Continuous
 62
     7
370
    25
100
AcDbLine
 10
954.8477071104
 20
847.2999264744
 30
0.0
 11
955.5656558283
 21
847.2999264744
 31
0.0
  0
LINE
  5
E7
330
1F
100
AcDbEntity
  8
0
  6
Continuous
 62
     7
370
    25
100
AcDbLine
 10
954.8477071104
 20
841.9778110898
 30
0.0
 11
954.8477071104
 21
847.2999264744
 31
0.0
  0
SPLINE
  5
E8
330
1F
100
AcDbEntity
  8
0
  6
Continuous
 62
     7
370
    25
100
AcDbSpline
210
0.0
220
0.0
230
1.0
 70
     8
 71
     3
 72
    23
 73
    19
 74
     0
 42
0.00000001
 43
0.00000001
 40
0.0
 40
0.0
 40
0.0
 40
0.0
 40
0.06232636599144
 40
0.1231962451944475
 40
0.1840362202545508
 40
0.2469640854288918
 40
0.3106993957895711
 40
0.3732676370734423
 40
0.4365875799673891
 40
0.5021247910366466
 40
0.5390047220341619
 40
0.5832553755259838
 40
0.6344465152828106
 40
0.692676046102116
 40
0.7585704862865262
 40
0.8316586747921139
 40
0.9119171022748332
 40
1.0
 40
1.0
 40
1.0
 40
1.0
 10
953.7403353155044
 20
839.9153110897939
 30
0.0
 10
953.7956102604815
 20
839.917648769643
 30
0.0
 10
953.9048684462614
 20
839.9222695007782
 30
0.0
 10
954.0636432897087
 20
839.9630678442553
 30
0.0
 10
954.2155473610453
 20
840.0253407654296
 30
0.0
 10
954.3551351500305
 20
840.1165208654674
 30
0.0
 10
954.4837874633605
 20
840.2249355413521
 30
0.0
 10
954.5899424932744
 20
840.3560349897323
 30
0.0
 10
954.6784390520971
 20
840.5013286674613
 30
0.0
 10
954.7316954940412
 20
840.6388634191003
 30
0.0
 10
954.765626401495
 20
840.7642957168675
 30
0.0
 10
954.7871615485969
 20
840.8795714560152
 30
0.0
 10
954.8059927723485
 20
841.0143405497316
 30
0.0
 10
954.8224077481233
 20
841.1687638647262
 30
0.0
 10
954.8320179665448
 20
841.3431505667418
 30
0.0
 10
954.8428003044302
 20
841.5369886077234
 30
0.0
 10
954.8466980436066
 20
841.750766692743
 30
0.0
 10
954.8473604913086
 20
841.8998202971311
 30
0.0
 10
954.8477071103763
 20
841.9778110897939
 30
0.0
  0
LINE
  5
E9
330
1F
100
AcDbEntity
  8
0
  6
Continuous
 62
     7
370
    25
100
AcDbLine
 10
950.9502712129
 20
842.7871059616
 30
0.0
 11
950.9502712129
 21
841.9665931411
 31
0.0
  0
LINE
  5
EA
330
1F
100
AcDbEntity
  8
0
  6
Continuous
 62
     7
370
    25
100
AcDbLine
 10
947.873348136
 20
842.7871059616
 30
0.0
 11
950.9502712129
 21
842.7871059616
 31
0.0
  0
LINE
  5
EB
330
1F
100
AcDbEntity
  8
0
  6
Continuous
 62
     7
370
    25
100
AcDbLine
 10
947.873348136
 20
841.9665931411
 30
0.0
 11
947.873348136
 21
842.7871059616
 31
0.0
  0
LINE
  5
EC
330
1F
100
AcDbEntity
  8
0
  6
Continuous
 62
     7
370
    25
100
AcDbLine
 10
950.9502712129
 20
841.9665931411
 30
0.0
 11
947.873348136
 21
841.9665931411
 31
0.0
  0
SPLINE
  5
ED
330
1F
100
AcDbEntity
  8
0
  6
Continuous
 62
     7
370
    25
100
AcDbSpline
210
0.0
220
0.0
230
1.0
 70
     8
 71
     3
 72
    31
 73
    27
 74
     0
 42
0.00000001
 43
0.00000001
 40
0.0
 40
0.0
 40
0.0
 40
0.0
 40
0.0337881161627107
 40
0.0671939323738803
 40
0.0998624108568249
 40
0.1325666121262579
 40
0.1651511732547864
 40
0.1979131873557924
 40
0.2313190035669618
 40
0.2650832782673727
 40
0.2992553087581147
 40
0.3343985665049784
 40
0.3699428235093072
 40
0.406283560700061
 40
0.4440638196985077
 40
0.4829977068727754
 40
0.5233544466133039
 40
0.5655365896041484
 40
0.6096129240658194
 40
0.6563908113764165
 40
0.7058854949364568
 40
0.7583245002617311
 40
0.8138317829411498
 40
0.87279455903939
 40
0.9347222295400733
 40
1.0
 40
1.0
 40
1.0
 40
1.0
 10
929.830078905248
 20
847.5050546795375
 30
0.0
 10
929.8937028560694
 20
847.5039396734218
 30
0.0
 10
930.0202308764024
 20
847.5017222770691
 30
0.0
 10
930.2072945912502
 20
847.4804104084186
 30
0.0
 10
930.3900367208835
 20
847.4450478413399
 30
0.0
 10
930.5676781807772
 20
847.3949427565794
 30
0.0
 10
930.7416781498464
 20
847.3327812099294
 30
0.0
 10
930.9106756530364
 20
847.2548677993942
 30
0.0
 10
931.0757204110754
 20
847.1641732454639
 30
0.0
 10
931.2341896396923
 20
847.0576043830488
 30
0.0
 10
931.3878230461976
 20
846.9387877517419
 30
0.0
 10
931.5328469615624
 20
846.8044730801913
 30
0.0
 10
931.6692745864709
 20
846.656016579006
 30
0.0
 10
931.7988181416395
 20
846.4950066044079
 30
0.0
 10
931.9178023638092
 20
846.3183549819312
 30
0.0
 10
932.0311130660616
 20
846.1291341594989
 30
0.0
 10
932.1325348624082
 20
845.9240350399701
 30
0.0
 10
932.2302141199593
 20
845.7064796849048
 30
0.0
 10
932.3145272325062
 20
845.4704484647754
 30
0.0
 10
932.3905643645571
 20
845.2172718693054
 30
0.0
 10
932.4520020070141
 20
844.9439594422121
 30
0.0
 10
932.5031774866442
 20
844.6519451672518
 30
0.0
 10
932.5428229630913
 20
844.3401566341315
 30
0.0
 10
932.5716975735565
 20
844.009262198676
 30
0.0
 10
932.5869503393653
 20
843.6590441629257
 30
0.0
 10
932.5898227992662
 20
843.4195976505208
 30
0.0
 10
932.5912968539659
 20
843.2967213462041
 30
0.0
  0
SPLINE
  5
EE
330
1F
100
AcDbEntity
  8
0
  6
Continuous
 62
     7
370
    25
100
AcDbSpline
210
0.0
220
0.0
230
1.0
 70
     8
 71
     3
 72
    31
 73
    27
 74
     0
 42
0.00000001
 43
0.00000001
 40
0.0
 40
0.0
 40
0.0
 40
0.0
 40
0.0685946222587427
 40
0.1332460424433013
 40
0.1943125864682559
 40
0.2512792231169661
 40
0.3045134392563467
 40
0.3542349066533249
 40
0.4004805887739889
 40
0.4434107549384919
 40
0.4840148686163452
 40
0.5232523007732034
 40
0.5610423727283604
 40
0.5979002393643995
 40
0.6335184888561954
 40
0.6683143511696517
 40
0.702495671286382
 40
0.7366853535134581
 40
0.7702931693607892
 40
0.8034372550192488
 40
0.8359129516660286
 40
0.8684602457892906
 40
0.9008465382431826
 40
0.933466524630708
 40
0.9662575752981231
 40
1.0
 40
1.0
 40
1.0
 40
1.0
 10
927.1553994180686
 20
843.2967213462041
 30
0.0
 10
927.156149173857
 20
843.4249439467396
 30
0.0
 10
927.1576055852829
 20
843.6740181964482
 30
0.0
 10
927.1738076902938
 20
844.0369545211722
 30
0.0
 10
927.2007227584381
 20
844.3774351817327
 30
0.0
 10
927.237608182096
 20
844.6954764755347
 30
0.0
 10
927.2824949940356
 20
844.9911605087182
 30
0.0
 10
927.3424161062671
 20
845.2636970964583
 30
0.0
 10
927.4105596551013
 20
845.5143476258595
 30
0.0
 10
927.4895366740968
 20
845.7439294509476
 30
0.0
 10
927.5786516204245
 20
845.955535629284
 30
0.0
 10
927.6756442163606
 20
846.1530789465268
 30
0.0
 10
927.7843637464716
 20
846.3362605061607
 30
0.0
 10
927.8985966903051
 20
846.5080040271205
 30
0.0
 10
928.02296713974
 20
846.6654981866457
 30
0.0
 10
928.1539358036651
 20
846.8109671295452
 30
0.0
 10
928.2966143779901
 20
846.941048844891
 30
0.0
 10
928.446152682615
 20
847.0595546789141
 30
0.0
 10
928.6039046012247
 20
847.1634391855929
 30
0.0
 10
928.7653735524092
 20
847.2549425881432
 30
0.0
 10
928.9316709372227
 20
847.3331137133034
 30
0.0
 10
929.1032507838465
 20
847.3945775666966
 30
0.0
 10
929.2785709161658
 20
847.4453452164627
 30
0.0
 10
929.4582442114602
 20
847.4800628110834
 30
0.0
 10
929.6425673290289
 20
847.5019071733449
 30
0.0
 10
929.7669820371391
 20
847.503995556751
 30
0.0
 10
929.830078905248
 20
847.5050546795375
 30
0.0
  0
SPLINE
  5
EF
330
1F
100
AcDbEntity
  8
0
  6
Continuous
 62
     7
370
    25
100
AcDbSpline
210
0.0
220
0.0
230
1.0
 70
     8
 71
     3
 72
    31
 73
    27
 74
     0
 42
0.00000001
 43
0.00000001
 40
0.0
 40
0.0
 40
0.0
 40
0.0
 40
0.033787146346991
 40
0.0666216577242937
 40
0.0992848780959723
 40
0.1313611650426503
 40
0.1635851875953433
 40
0.1961039269870677
 40
0.2289022543238165
 40
0.2621580559050075
 40
0.2959912222583164
 40
0.3302178457248002
 40
0.3650598258919545
 40
0.4009507373401076
 40
0.437620382076738
 40
0.4757075294370926
 40
0.5153806916250484
 40
0.5564135414931648
 40
0.5997648298727308
 40
0.6464241555840874
 40
0.6964314445175674
 40
0.7497815178015572
 40
0.806573306975533
 40
0.8674355315654003
 40
0.9318867532508747
 40
1.0
 40
1.0
 40
1.0
 40
1.0
 10
929.830078905248
 20
839.0947982692811
 30
0.0
 10
929.7669837875674
 20
839.0958642246155
 30
0.0
 10
929.6425725309605
 20
839.0979660804725
 30
0.0
 10
929.4582241299561
 20
839.1197117524455
 30
0.0
 10
929.2792928306648
 20
839.1546729026451
 30
0.0
 10
929.1048956785788
 20
839.2036251405676
 30
0.0
 10
928.9341379298162
 20
839.2635447664316
 30
0.0
 10
928.76934641746
 20
839.3416103289526
 30
0.0
 10
928.6086888547385
 20
839.4315167722805
 30
0.0
 10
928.4525938695542
 20
839.5339063069966
 30
0.0
 10
928.3039946443204
 20
839.6512130112901
 30
0.0
 10
928.1620549750315
 20
839.7809599568592
 30
0.0
 10
928.0303406456671
 20
839.9263848969675
 30
0.0
 10
927.9077484271132
 20
840.0851915783566
 30
0.0
 10
927.791236225523
 20
840.2559189894029
 30
0.0
 10
927.684060515079
 20
840.4408981277925
 30
0.0
 10
927.5849271343519
 20
840.6393955231972
 30
0.0
 10
927.4943134413953
 20
840.8526936047404
 30
0.0
 10
927.4139736390755
 20
841.0839048684198
 30
0.0
 10
927.343007449102
 20
841.3356744192827
 30
0.0
 10
927.2869750891705
 20
841.6102244446862
 30
0.0
 10
927.2390140484094
 20
841.9053498552128
 30
0.0
 10
927.2003297443101
 20
842.2223188389519
 30
0.0
 10
927.1739198578681
 20
842.5613034748076
 30
0.0
 10
927.1575968520721
 20
842.9220925237817
 30
0.0
 10
927.1561452625405
 20
843.1695662936482
 30
0.0
 10
927.1553994180686
 20
843.2967213462041
 30
0.0
  0
SPLINE
  5
F0
330
1F
100
AcDbEntity
  8
0
  6
Continuous
 62
     7
370
    25
100
AcDbSpline
210
0.0
220
0.0
230
1.0
 70
     8
 71
     3
 72
    31
 73
    27
 74
     0
 42
0.00000001
 43
0.00000001
 40
0.0
 40
0.0
 40
0.0
 40
0.0
 40
0.0650632896172782
 40
0.1267731664665232
 40
0.1855157632260794
 40
0.2407646791677144
 40
0.2929797960235976
 40
0.3422503727797679
 40
0.3889192861856606
 40
0.4327756640583105
 40
0.4746284326311174
 40
0.5147746906379533
 40
0.5536058934984429
 40
0.591426406431173
 40
0.6280281199460673
 40
0.6638036341103205
 40
0.6989843361316641
 40
0.7335914893067057
 40
0.7676284691511398
 40
0.801208347786592
 40
0.8342638397266234
 40
0.8669806947287765
 40
0.8997197415181604
 40
0.932701912498538
 40
0.9661758834327493
 40
0.9999999999999999
 40
0.9999999999999999
 40
0.9999999999999999
 40
0.9999999999999999
 10
932.5912968539659
 20
843.2967213462041
 30
0.0
 10
932.5898075178656
 20
843.1743809851964
 30
0.0
 10
932.5869056072107
 20
842.9360057809477
 30
0.0
 10
932.5718685631703
 20
842.5873635516454
 30
0.0
 10
932.5422488347617
 20
842.2582251669628
 30
0.0
 10
932.5051974329131
 20
841.9478012527715
 30
0.0
 10
932.4538809461167
 20
841.6573838382961
 30
0.0
 10
932.3907834232565
 20
841.3859679560837
 30
0.0
 10
932.3207255425211
 20
841.1323815065629
 30
0.0
 10
932.2342460131273
 20
840.8987019371687
 30
0.0
 10
932.139592960905
 20
840.6816694277635
 30
0.0
 10
932.0366096553613
 20
840.4790016601527
 30
0.0
 10
931.9262786243083
 20
840.288907276885
 30
0.0
 10
931.8060757785871
 20
840.112907855328
 30
0.0
 10
931.677953691281
 20
839.9497566391615
 30
0.0
 10
931.5391701740399
 20
839.8023335016723
 30
0.0
 10
931.3936374080924
 20
839.6670862514708
 30
0.0
 10
931.2395518861863
 20
839.5467396744144
 30
0.0
 10
931.0786111976556
 20
839.4414029781027
 30
0.0
 10
930.9141333075416
 20
839.347199891502
 30
0.0
 10
930.7431998598908
 20
839.2712394456737
 30
0.0
 10
930.5696845393662
 20
839.2060164948675
 30
0.0
 10
930.3911054168177
 20
839.1561868905562
 30
0.0
 10
930.2076850952418
 20
839.1217323636521
 30
0.0
 10
930.0203565559763
 20
839.0975681386126
 30
0.0
 10
929.8937244072191
 20
839.0957247560405
 30
0.0
 10
929.830078905248
 20
839.0947982692811
 30
0.0
  0
SPLINE
  5
F1
330
1F
100
AcDbEntity
  8
0
  6
Continuous
 62
     7
370
    25
100
AcDbSpline
210
0.0
220
0.0
230
1.0
 70
     8
 71
     3
 72
    27
 73
    23
 74
     0
 42
0.00000001
 43
0.00000001
 40
0.0
 40
0.0
 40
0.0
 40
0.0
 40
0.0729510658758678
 40
0.1415836941865455
 40
0.2059264601708677
 40
0.2653013571846063
 40
0.3205972327139289
 40
0.3718165030988104
 40
0.418789769709452
 40
0.4616987286157648
 40
0.5021335821035655
 40
0.5408043152926487
 40
0.5781805253279657
 40
0.6142968652075155
 40
0.649678243264788
 40
0.6842994600896372
 40
0.7183589527723608
 40
0.7520808646475974
 40
0.8176524386023851
 40
0.879722076405437
 40
0.9399655597309878
 40
1.0
 40
1.0
 40
1.0
 40
1.0
 10
972.0784763411455
 20
843.2999264744093
 30
0.0
 10
972.0787493630141
 20
843.1930723057148
 30
0.0
 10
972.0792792448503
 20
842.9856893461739
 30
0.0
 10
972.0931219890268
 20
842.684333321086
 30
0.0
 10
972.1119796621686
 20
842.4032582837896
 30
0.0
 10
972.1363026271632
 20
842.1421073432979
 30
0.0
 10
972.1724236523655
 20
841.9017644575612
 30
0.0
 10
972.2128963102346
 20
841.6805766105551
 30
0.0
 10
972.262149086507
 20
841.4797143542951
 30
0.0
 10
972.3204234130601
 20
841.297799358399
 30
0.0
 10
972.3867984916737
 20
841.1317443446953
 30
0.0
 10
972.4592690372053
 20
840.9772272815471
 30
0.0
 10
972.5371221181309
 20
840.8324228554081
 30
0.0
 10
972.6242516051092
 20
840.6986317505531
 30
0.0
 10
972.7191431782039
 20
840.5754176612437
 30
0.0
 10
972.8196534848039
 20
840.4605997587927
 30
0.0
 10
972.9295336773573
 20
840.358206658597
 30
0.0
 10
973.0815422317418
 20
840.2354024185297
 30
0.0
 10
973.2822198875751
 20
840.1085015414335
 30
0.0
 10
973.5350666423891
 20
839.9979961932469
 30
0.0
 10
973.7948802446325
 20
839.9285505785444
 30
0.0
 10
973.9712259591169
 20
839.9197191363613
 30
0.0
 10
974.0592455719147
 20
839.9153110897939
 30
0.0
  0
SPLINE
  5
F2
330
1F
100
AcDbEntity
  8
0
  6
Continuous
 62
     7
370
    25
100
AcDbSpline
210
0.0
220
0.0
230
1.0
 70
     8
 71
     3
 72
    19
 73
    15
 74
     0
 42
0.00000001
 43
0.00000001
 40
0.0
 40
0.0
 40
0.0
 40
0.0
 40
0.1128134007444591
 40
0.2253938839207292
 40
0.3395948145627014
 40
0.4596754102248628
 40
0.5217351900879341
 40
0.583925838738916
 40
0.648174144765371
 40
0.713881038113067
 40
0.7810044549073896
 40
0.851450927556554
 40
0.9240506926641802
 40
1.0
 40
1.0
 40
1.0
 40
1.0
 10
974.0592455719147
 20
839.9153110897939
 30
0.0
 10
974.1478345356992
 20
839.9189631602203
 30
0.0
 10
974.3248295601214
 20
839.9262597609107
 30
0.0
 10
974.5834210918799
 20
839.996656874909
 30
0.0
 10
974.8344617092108
 20
840.1028729651116
 30
0.0
 10
975.0311975727054
 20
840.2284672632128
 30
0.0
 10
975.1808719578515
 20
840.3480748733872
 30
0.0
 10
975.2881107923794
 20
840.4500512123882
 30
0.0
 10
975.3865383316553
 20
840.5642360519456
 30
0.0
 10
975.4798916456087
 20
840.6874344426083
 30
0.0
 10
975.5655123900084
 20
840.8220001207198
 30
0.0
 10
975.6433709904546
 20
840.967286007042
 30
0.0
 10
975.7144186419865
 20
841.1236955565556
 30
0.0
 10
975.7548964613013
 20
841.2328835316775
 30
0.0
 10
975.7755917257608
 20
841.2887085256914
 30
0.0
  0
SPLINE
  5
F3
330
1F
100
AcDbEntity
  8
0
  6
Continuous
 62
     7
370
    25
100
AcDbSpline
210
0.0
220
0.0
230
1.0
 70
     8
 71
     3
 72
    15
 73
    11
 74
     0
 42
0.00000001
 43
0.00000001
 40
0.0
 40
0.0
 40
0.0
 40
0.0
 40
0.1105883385953361
 40
0.2245417540535963
 40
0.3425034940501039
 40
0.4643240984173573
 40
0.5907560327017671
 40
0.7222274753555148
 40
0.8588428362087224
 40
1.0
 40
1.0
 40
1.0
 40
1.0
 10
975.7755917257608
 20
841.2887085256914
 30
0.0
 10
975.7997100521466
 20
841.3600907873287
 30
0.0
 10
975.8486805980493
 20
841.5050273913138
 30
0.0
 10
975.911793224954
 20
841.7298585960692
 30
0.0
 10
975.9614969945624
 20
841.9657506279274
 30
0.0
 10
976.0062132591326
 20
842.2112937518552
 30
0.0
 10
976.036734529755
 20
842.4682987827374
 30
0.0
 10
976.0613009601167
 20
842.735970517402
 30
0.0
 10
976.0757711016921
 20
843.0145107739402
 30
0.0
 10
976.0775648184266
 20
843.2037564681008
 30
0.0
 10
976.0784763411455
 20
843.2999264744093
 30
0.0
  0
SPLINE
  5
F4
330
1F
100
AcDbEntity
  8
0
  6
Continuous
 62
     7
370
    25
100
AcDbSpline
210
0.0
220
0.0
230
1.0
 70
     8
 71
     3
 72
    27
 73
    23
 74
     0
 42
0.00000001
 43
0.00000001
 40
0.0
 40
0.0
 40
0.0
 40
0.0
 40
0.0656811979906383
 40
0.128486464174064
 40
0.1881751303280079
 40
0.245106130669986
 40
0.2994484245294747
 40
0.3508229360093825
 40
0.3999416805337773
 40
0.4466717436323714
 40
0.4912545333734974
 40
0.5333763442704356
 40
0.5738527549682237
 40
0.6125263117194524
 40
0.6495971364453287
 40
0.6855320415538507
 40
0.7201057860682003
 40
0.7538376629736493
 40
0.8189254160467137
 40
0.8804934616501641
 40
0.9403113338460578
 40
1.0
 40
1.0
 40
1.0
 40
1.0
 10
976.0784763411455
 20
843.2999264744093
 30
0.0
 10
976.0772187657559
 20
843.3960809258791
 30
0.0
 10
976.0747586794574
 20
843.5841795882347
 30
0.0
 10
976.0653552789977
 20
843.8596497154624
 30
0.0
 10
976.0410728230161
 20
844.1212903118262
 30
0.0
 10
976.0141034084686
 20
844.3702285350589
 30
0.0
 10
975.9743383316867
 20
844.605086369812
 30
0.0
 10
975.9314633445317
 20
844.8278299246837
 30
0.0
 10
975.8738605735826
 20
845.0356996956993
 30
0.0
 10
975.8123296593564
 20
845.231950168183
 30
0.0
 10
975.7419058981417
 20
845.4143516641848
 30
0.0
 10
975.6643842198387
 20
845.5837546044406
 30
0.0
 10
975.5815916283667
 20
845.7409768324562
 30
0.0
 10
975.4916665073168
 20
845.8855869846311
 30
0.0
 10
975.3956763745962
 20
846.0182327969995
 30
0.0
 10
975.2910876907162
 20
846.1362547274156
 30
0.0
 10
975.1820491242913
 20
846.2433106545209
 30
0.0
 10
975.0293241281229
 20
846.3655108125131
 30
0.0
 10
974.8293828942935
 20
846.4901089736175
 30
0.0
 10
974.5805928432251
 20
846.604773567584
 30
0.0
 10
974.3216885135082
 20
846.6706210935746
 30
0.0
 10
974.1466634755835
 20
846.6799049496617
 30
0.0
 10
974.0592455719147
 20
846.6845418590248
 30
0.0
  0
SPLINE
  5
F5
330
1F
100
AcDbEntity
  8
0
  6
Continuous
 62
     7
370
    25
100
AcDbSpline
210
0.0
220
0.0
230
1.0
 70
     8
 71
     3
 72
    27
 73
    23
 74
     0
 42
0.00000001
 43
0.00000001
 40
0.0
 40
0.0
 40
0.0
 40
0.0
 40
0.0603866193110627
 40
0.1208832485859966
 40
0.1827546186251396
 40
0.2478110297583515
 40
0.2812991000432487
 40
0.3150876241506568
 40
0.3497023955502764
 40
0.3848565811185561
 40
0.4209661972261022
 40
0.4585111882611393
 40
0.4971747221273132
 40
0.5376020478662704
 40
0.580503018420012
 40
0.6274675400267045
 40
0.6783882095592438
 40
0.7339832205925612
 40
0.793746704550835
 40
0.857713672160732
 40
0.9266978643613873
 40
1.0
 40
1.0
 40
1.0
 40
1.0
 10
974.0592455719147
 20
846.6845418590248
 30
0.0
 10
973.9707642185734
 20
846.6798985524024
 30
0.0
 10
973.7936403200474
 20
846.6706034801648
 30
0.0
 10
973.5320449949577
 20
846.6050189005268
 30
0.0
 10
973.2812921912039
 20
846.4907035498123
 30
0.0
 10
973.0818796776523
 20
846.3650981270353
 30
0.0
 10
972.9290481656349
 20
846.245467700883
 30
0.0
 10
972.8214305807737
 20
846.1417272344637
 30
0.0
 10
972.7205250442761
 20
846.028250081629
 30
0.0
 10
972.6275703011044
 20
845.9039028476853
 30
0.0
 10
972.5405090823792
 20
845.7702677223845
 30
0.0
 10
972.4605524822061
 20
845.6262934030126
 30
0.0
 10
972.3885128715181
 20
845.471250284783
 30
0.0
 10
972.3220339316778
 20
845.305269860968
 30
0.0
 10
972.2635818447606
 20
845.123370559401
 30
0.0
 10
972.2153670716634
 20
844.9227557169016
 30
0.0
 10
972.1708252359609
 20
844.7022713928121
 30
0.0
 10
972.1392931927596
 20
844.4606268032231
 30
0.0
 10
972.1112617510184
 20
844.1994104526649
 30
0.0
 10
972.0932472414133
 20
843.9176337252836
 30
0.0
 10
972.0792329386265
 20
843.6157722843639
 30
0.0
 10
972.0787335915117
 20
843.4073170649292
 30
0.0
 10
972.0784763411455
 20
843.2999264744093
 30
0.0
  0
LINE
  5
F6
330
1F
100
AcDbEntity
  8
0
  6
Continuous
 62
     7
370
    25
100
AcDbLine
 10
942.9502712129
 20
846.4794136539
 30
0.0
 11
942.9502712129
 21
843.9153110898
 31
0.0
  0
LINE
  5
F7
330
1F
100
AcDbEntity
  8
0
  6
Continuous
 62
     7
370
    25
100
AcDbLine
 10
942.9502712129
 20
843.9153110898
 30
0.0
 11
943.4326430078
 21
843.9153110898
 31
0.0
  0
SPLINE
  5
F8
330
1F
100
AcDbEntity
  8
0
  6
Continuous
 62
     7
370
    25
100
AcDbSpline
210
0.0
220
0.0
230
1.0
 70
     8
 71
     3
 72
    23
 73
    19
 74
     0
 42
0.00000001
 43
0.00000001
 40
0.0
 40
0.0
 40
0.0
 40
0.0
 40
0.0723010339955049
 40
0.1397003317393861
 40
0.2022885114847729
 40
0.2605995332222008
 40
0.3131903291553315
 40
0.3617389329854278
 40
0.4057064756322226
 40
0.4455399848948707
 40
0.5188319558616069
 40
0.5897782395835756
 40
0.6588674786561446
 40
0.7284304780610623
 40
0.7972827036080989
 40
0.8648153774014443
 40
0.9313637528792664
 40
1.0
 40
1.0
 40
1.0
 40
1.0
 10
943.4326430078122
 20
843.9153110897939
 30
0.0
 10
943.5031545400783
 20
843.9162251995231
 30
0.0
 10
943.6393971897982
 20
843.9179914458041
 30
0.0
 10
943.836699810504
 20
843.9230509133743
 30
0.0
 10
944.019842709238
 20
843.937217869756
 30
0.0
 10
944.1885097562642
 20
843.9513807544523
 30
0.0
 10
944.3424353424737
 20
843.9744083833981
 30
0.0
 10
944.4812784544786
 20
844.0018189500549
 30
0.0
 10
944.6072181046237
 20
844.0308084474182
 30
0.0
 10
944.7524513515641
 20
844.0801101317619
 30
0.0
 10
944.9171895194684
 20
844.1529733893252
 30
0.0
 10
945.0928080432499
 20
844.2660518718851
 30
0.0
 10
945.2476296880244
 20
844.4007361077688
 30
0.0
 10
945.378366117097
 20
844.5561440203517
 30
0.0
 10
945.4853637640196
 20
844.7272667308845
 30
0.0
 10
945.5596808272293
 20
844.9113738861639
 30
0.0
 10
945.6100746196466
 20
845.1038770451024
 30
0.0
 10
945.6146266913203
 20
845.236033051479
 30
0.0
 10
945.616937879607
 20
845.3031316026145
 30
0.0
  0
LINE
  5
F9
330
1F
100
AcDbEntity
  8
0
  6
Continuous
 62
     7
370
    25
100
AcDbLine
 10
943.9246301873
 20
846.4794136539
 30
0.0
 11
942.9502712129
 21
846.4794136539
 31
0.0
  0
SPLINE
  5
FA
330
1F
100
AcDbEntity
  8
0
  6
Continuous
 62
     7
370
    25
100
AcDbSpline
210
0.0
220
0.0
230
1.0
 70
     8
 71
     3
 72
    23
 73
    19
 74
     0
 42
0.00000001
 43
0.00000001
 40
0.0
 40
0.0
 40
0.0
 40
0.0
 40
0.0570031325129236
 40
0.1118178691207219
 40
0.1644023722182105
 40
0.2158698048987953
 40
0.2668411100818657
 40
0.3174789632053572
 40
0.3699021362727598
 40
0.4234004494436345
 40
0.4797183982994506
 40
0.5392414966442948
 40
0.6024306889434224
 40
0.6710295461473353
 40
0.7444847975608467
 40
0.8234539713786831
 40
0.908740312730665
 40
1.0
 40
1.0
 40
1.0
 40
1.0
 10
945.616937879607
 20
845.3031316026145
 30
0.0
 10
945.615735182044
 20
845.3475333660739
 30
0.0
 10
945.6133759594406
 20
845.4346322737371
 30
0.0
 10
945.594054124915
 20
845.5616022260946
 30
0.0
 10
945.5612139547766
 20
845.681016517551
 30
0.0
 10
945.5190327130849
 20
845.7945116268636
 30
0.0
 10
945.4600871388761
 20
845.8985387130814
 30
0.0
 10
945.3906849370429
 20
845.9966945889552
 30
0.0
 10
945.3068319306665
 20
846.085636574091
 30
0.0
 10
945.2113866445956
 20
846.1687668559547
 30
0.0
 10
945.1016526494908
 20
846.2424686337787
 30
0.0
 10
944.9776954110466
 20
846.3070189496041
 30
0.0
 10
944.8378378634654
 20
846.3589978677294
 30
0.0
 10
944.6844370520793
 20
846.404520501964
 30
0.0
 10
944.5151317092253
 20
846.436493744977
 30
0.0
 10
944.3318755871485
 20
846.4631300596218
 30
0.0
 10
944.133167657944
 20
846.4766906127752
 30
0.0
 10
943.9956931378853
 20
846.4784857279172
 30
0.0
 10
943.9246301872994
 20
846.4794136538965
 30
0.0
  0
SPLINE
  5
FB
330
1F
100
AcDbEntity
  8
0
  6
Continuous
 62
     7
370
    25
100
AcDbSpline
210
0.0
220
0.0
230
1.0
 70
     8
 71
     3
 72
    19
 73
    15
 74
     0
 42
0.00000001
 43
0.00000001
 40
0.0
 40
0.0
 40
0.0
 40
0.0
 40
0.0748982079275957
 40
0.1485962943439415
 40
0.2244712347857283
 40
0.3023227423595716
 40
0.3819186179896831
 40
0.4611486955215904
 40
0.5424171227241528
 40
0.6267160830665721
 40
0.7145968311855379
 40
0.804902920355321
 40
0.9001272540718603
 40
1.0
 40
1.0
 40
1.0
 40
1.0
 10
921.7195019821711
 20
841.5403110897939
 30
0.0
 10
921.722618002242
 20
841.4684690186064
 30
0.0
 10
921.7288001132489
 20
841.3259360281403
 30
0.0
 10
921.7778438590533
 20
841.1152775794912
 30
0.0
 10
921.8565536544965
 20
840.9113437398796
 30
0.0
 10
921.9663255766959
 20
840.7157964193241
 30
0.0
 10
922.1022514567882
 20
840.5330533191669
 30
0.0
 10
922.2693976693108
 20
840.3737646892286
 30
0.0
 10
922.4573767270253
 20
840.2322298810839
 30
0.0
 10
922.6725489648031
 20
840.1177600904006
 30
0.0
 10
922.907585458648
 20
840.0263432787845
 30
0.0
 10
923.1624236961732
 20
839.9633582212233
 30
0.0
 10
923.4334063674829
 20
839.921663478607
 30
0.0
 10
923.6205140069336
 20
839.9174619217061
 30
0.0
 10
923.7162968539659
 20
839.9153110897939
 30
0.0
  0
SPLINE
  5
FC
330
1F
100
AcDbEntity
  8
0
  6
Continuous
 62
     7
370
    25
100
AcDbSpline
210
0.0
220
0.0
230
1.0
 70
     8
 71
     3
 72
    23
 73
    19
 74
     0
 42
0.00000001
 43
0.00000001
 40
0.0
 40
0.0
 40
0.0
 40
0.0
 40
0.0712686925865607
 40
0.1398117850281264
 40
0.2064974320993707
 40
0.2715352442755387
 40
0.3360818306156433
 40
0.4005283877476353
 40
0.4649838426509145
 40
0.5300503053616139
 40
0.5944234089533965
 40
0.6555827099825238
 40
0.7148491056365311
 40
0.7721150638706
 40
0.8289992113006468
 40
0.8851221627752373
 40
0.9420793532637981
 40
0.9999999999999999
 40
0.9999999999999999
 40
0.9999999999999999
 40
0.9999999999999999
 10
923.7627712129403
 20
843.2999264744093
 30
0.0
 10
923.6916265602347
 20
843.298661008427
 30
0.0
 10
923.5520581111866
 20
843.296178472948
 30
0.0
 10
923.3475851325671
 20
843.2685453290874
 30
0.0
 10
923.1513493257394
 20
843.2300781449655
 30
0.0
 10
922.9640123280468
 20
843.1717219427369
 30
0.0
 10
922.7856532497477
 20
843.0958442506866
 30
0.0
 10
922.6153065467029
 20
843.0045653022333
 30
0.0
 10
922.4542753934097
 20
842.8966671463601
 30
0.0
 10
922.3047834474482
 20
842.7735205966574
 30
0.0
 10
922.168272980025
 20
842.6408132733176
 30
0.0
 10
922.0485054372926
 20
842.5003283930084
 30
0.0
 10
921.9467968190403
 20
842.3546768894157
 30
0.0
 10
921.8648922455861
 20
842.2020089367778
 30
0.0
 10
921.7976654294519
 20
842.0455572548309
 30
0.0
 10
921.7535194242987
 20
841.8814256085601
 30
0.0
 10
921.7252183692717
 20
841.7127693498325
 30
0.0
 10
921.7214180686451
 20
841.5981176962379
 30
0.0
 10
921.7195019821711
 20
841.540311089794
 30
0.0
  0
SPLINE
  5
FD
330
1F
100
AcDbEntity
  8
0
  6
Continuous
 62
     7
370
    25
100
AcDbSpline
210
0.0
220
0.0
230
1.0
 70
     8
 71
     3
 72
    23
 73
    19
 74
     0
 42
0.00000001
 43
0.00000001
 40
0.0
 40
0.0
 40
0.0
 40
0.0
 40
0.0765589329940486
 40
0.149161351979115
 40
0.218826846126995
 40
0.2855671390889788
 40
0.350313105719212
 40
0.4141251538580798
 40
0.4771791613162273
 40
0.5403680185081843
 40
0.6022023899907502
 40
0.6620336537315632
 40
0.71993440704958
 40
0.775907432682327
 40
0.8311148643832971
 40
0.886667447011963
 40
0.9425523618334888
 40
0.9999999999999999
 40
0.9999999999999999
 40
0.9999999999999999
 40
0.9999999999999999
 10
923.7162968539659
 20
839.9153110897939
 30
0.0
 10
923.7911548377875
 20
839.9167483661778
 30
0.0
 10
923.9370021953274
 20
839.9195486414717
 30
0.0
 10
924.1497700786325
 20
839.9442670284604
 30
0.0
 10
924.3505576183213
 20
839.9834661705593
 30
0.0
 10
924.538975443256
 20
840.040479989605
 30
0.0
 10
924.7171327913288
 20
840.1100799360195
 30
0.0
 10
924.8820090291377
 20
840.1996161223313
 30
0.0
 10
925.0378456625232
 20
840.3014500035866
 30
0.0
 10
925.1769636573648
 20
840.4222686471225
 30
0.0
 10
925.3036681344906
 20
840.5513646350445
 30
0.0
 10
925.4141442316317
 20
840.6880275908013
 30
0.0
 10
925.5100472057613
 20
840.8285433217143
 30
0.0
 10
925.5853179617727
 20
840.9760872867156
 30
0.0
 10
925.6454922561076
 20
841.1278288057966
 30
0.0
 10
925.6887460953992
 20
841.2851671172707
 30
0.0
 10
925.7154345874145
 20
841.4485847925932
 30
0.0
 10
925.7181337776933
 20
841.5594398122546
 30
0.0
 10
925.7195019821711
 20
841.6156316026145
 30
0.0
  0
SPLINE
  5
FE
330
1F
100
AcDbEntity
  8
0
  6
Continuous
 62
     7
370
    25
100
AcDbSpline
210
0.0
220
0.0
230
1.0
 70
     8
 71
     3
 72
    23
 73
    19
 74
     0
 42
0.00000001
 43
0.00000001
 40
0.0
 40
0.0
 40
0.0
 40
0.0
 40
0.0573394259201579
 40
0.1130633316232404
 40
0.1691814487493794
 40
0.2257745596549401
 40
0.283826303892084
 40
0.3434542790864923
 40
0.4059069615102781
 40
0.4713922597696832
 40
0.538002833712693
 40
0.603063556196348
 40
0.6676018307634213
 40
0.732225442816905
 40
0.7970048098289856
 40
0.8630479900344338
 40
0.9303569870570442
 40
1.0
 40
1.0
 40
1.0
 40
1.0
 10
925.7195019821711
 20
841.6156316026145
 30
0.0
 10
925.7174314712371
 20
841.6702083811018
 30
0.0
 10
925.7133487853606
 20
841.7778242545786
 30
0.0
 10
925.6874363479337
 20
841.9372906013501
 30
0.0
 10
925.6419143430672
 20
842.0913541766455
 30
0.0
 10
925.5794517216702
 20
842.2418684758968
 30
0.0
 10
925.4962952355498
 20
842.3857837918559
 30
0.0
 10
925.3983641041234
 20
842.5268493262857
 30
0.0
 10
925.2802061186537
 20
842.6611497710779
 30
0.0
 10
925.1466916131666
 20
842.7897282762464
 30
0.0
 10
925.0011854172562
 20
842.9086213887335
 30
0.0
 10
924.8465176575895
 20
843.0137972484102
 30
0.0
 10
924.6838788871642
 20
843.1023735141512
 30
0.0
 10
924.5136132622855
 20
843.1744112178135
 30
0.0
 10
924.3360988487192
 20
843.2310682913148
 30
0.0
 10
924.1514662119725
 20
843.2706477088863
 30
0.0
 10
923.9594991839759
 20
843.2955610868112
 30
0.0
 10
923.8290880507818
 20
843.2984549058269
 30
0.0
 10
923.7627712129403
 20
843.2999264744093
 30
0.0
  0
SPLINE
  5
FF
330
1F
100
AcDbEntity
  8
0
  6
Continuous
 62
     7
370
    25
100
AcDbSpline
210
0.0
220
0.0
230
1.0
 70
     8
 71
     3
 72
    23
 73
    19
 74
     0
 42
0.00000001
 43
0.00000001
 40
0.0
 40
0.0
 40
0.0
 40
0.0
 40
0.0545639495070587
 40
0.1078262027811417
 40
0.1619237085214027
 40
0.2175097010530404
 40
0.2744983327961402
 40
0.334814764624017
 40
0.3975549470643517
 40
0.4647545773562005
 40
0.5329012097695254
 40
0.6000972138233291
 40
0.6653541614565461
 40
0.7310836277242081
 40
0.7968834939590075
 40
0.8632915901470207
 40
0.9308312175092466
 40
1.0
 40
1.0
 40
1.0
 40
1.0
 10
922.1297583924274
 20
845.440952115435
 30
0.0
 10
922.1313295167988
 20
845.3991680936637
 30
0.0
 10
922.1344342842613
 20
845.3165968640288
 30
0.0
 10
922.1584460054581
 20
845.1946634560667
 30
0.0
 10
922.1942331021266
 20
845.0748425721032
 30
0.0
 10
922.2505774711007
 20
844.9599833468316
 30
0.0
 10
922.3181577187137
 20
844.8461013829726
 30
0.0
 10
922.4015668068498
 20
844.7360429006545
 30
0.0
 10
922.50097029919
 20
844.6294248781106
 30
0.0
 10
922.613033019828
 20
844.5271541553467
 30
0.0
 10
922.7351165348651
 20
844.4313855539987
 30
0.0
 10
922.8644514908239
 20
844.3482468534303
 30
0.0
 10
922.9994146710991
 20
844.2786831723304
 30
0.0
 10
923.138619400713
 20
844.2207873899887
 30
0.0
 10
923.2834844233403
 20
844.1757818189191
 30
0.0
 10
923.4331220769448
 20
844.1438534842025
 30
0.0
 10
923.587557510851
 20
844.1240089200301
 30
0.0
 10
923.6921988383345
 20
844.1216385857219
 30
0.0
 10
923.7451430078121
 20
844.1204392949222
 30
0.0
  0
SPLINE
  5
100
330
1F
100
AcDbEntity
  8
0
  6
Continuous
 62
     7
370
    25
100
AcDbSpline
210
0.0
220
0.0
230
1.0
 70
     8
 71
     3
 72
    23
 73
    19
 74
     0
 42
0.00000001
 43
0.00000001
 40
0.0
 40
0.0
 40
0.0
 40
0.0
 40
0.0752433085911282
 40
0.1472088117202531
 40
0.216447089854769
 40
0.2840250416193522
 40
0.3506554491966464
 40
0.4150313178410254
 40
0.4796298309645127
 40
0.5446516341371354
 40
0.6080442396977415
 40
0.6678275650288169
 40
0.7251142466493384
 40
0.7809917079106399
 40
0.8355270040618592
 40
0.8894381545415829
 40
0.9440720891799445
 40
1.0
 40
1.0
 40
1.0
 40
1.0
 10
923.7162968539659
 20
846.6845418590248
 30
0.0
 10
923.6601807262371
 20
846.6830528520411
 30
0.0
 10
923.5503930436379
 20
846.6801397033133
 30
0.0
 10
923.3894132239388
 20
846.6649199616036
 30
0.0
 10
923.2363335272339
 20
846.6353126089617
 30
0.0
 10
923.0895545543068
 20
846.5959098396838
 30
0.0
 10
922.9510886978029
 20
846.5426801525196
 30
0.0
 10
922.8190554302103
 20
846.4800629884948
 30
0.0
 10
922.6957018535107
 20
846.4039348387935
 30
0.0
 10
922.5795388752921
 20
846.3185378150073
 30
0.0
 10
922.4749656763958
 20
846.224611172537
 30
0.0
 10
922.3821552726183
 20
846.1267512438955
 30
0.0
 10
922.3050624401629
 20
846.0230360620487
 30
0.0
 10
922.23959704707
 20
845.9160455255386
 30
0.0
 10
922.1920964356952
 20
845.8026042083735
 30
0.0
 10
922.1565208839569
 20
845.6861900908815
 30
0.0
 10
922.1324719891154
 20
845.5653320701578
 30
0.0
 10
922.130669954778
 20
845.4827343317769
 30
0.0
 10
922.1297583924274
 20
845.4409521154349
 30
0.0
  0
SPLINE
  5
101
330
1F
100
AcDbEntity
  8
0
  6
Continuous
 62
     7
370
    25
100
AcDbSpline
210
0.0
220
0.0
230
1.0
 70
     8
 71
     3
 72
    23
 73
    19
 74
     0
 42
0.00000001
 43
0.00000001
 40
0.0
 40
0.0
 40
0.0
 40
0.0
 40
0.0509024376836568
 40
0.101034042782616
 40
0.151083817008661
 40
0.2030619875551403
 40
0.2562484343627547
 40
0.3108467145046027
 40
0.3687690999693281
 40
0.4300150403860039
 40
0.4925196472738485
 40
0.5560487215256781
 40
0.6219956829149513
 40
0.6901923690829547
 40
0.7613848549884992
 40
0.8363562199507208
 40
0.9154870053271096
 40
1.0
 40
1.0
 40
1.0
 40
1.0
 10
925.3092455719146
 20
845.4569777564606
 30
0.0
 10
925.3080298060171
 20
845.4949846957029
 30
0.0
 10
925.3056166849702
 20
845.5704230224351
 30
0.0
 10
925.2857308427805
 20
845.6818250003483
 30
0.0
 10
925.2528717959102
 20
845.7906926198289
 30
0.0
 10
925.2083847557484
 20
845.8979252385896
 30
0.0
 10
925.149848081985
 20
846.0020183405006
 30
0.0
 10
925.0804442249123
 20
846.1046082559508
 30
0.0
 10
924.9961367931285
 20
846.2033871446332
 30
0.0
 10
924.9015163739507
 20
846.300656969808
 30
0.0
 10
924.7942125827781
 20
846.3906775953429
 30
0.0
 10
924.6744322118304
 20
846.469842647294
 30
0.0
 10
924.5427893538182
 20
846.5370708908436
 30
0.0
 10
924.3992808967286
 20
846.5916737589072
 30
0.0
 10
924.2444353559282
 20
846.6326848437973
 30
0.0
 10
924.0789659286215
 20
846.6633964958661
 30
0.0
 10
923.9014929069951
 20
846.6807064648921
 30
0.0
 10
923.7793677617041
 20
846.6832356660173
 30
0.0
 10
923.7162968539659
 20
846.6845418590248
 30
0.0
  0
SPLINE
  5
102
330
1F
100
AcDbEntity
  8
0
  6
Continuous
 62
     7
370
    25
100
AcDbSpline
210
0.0
220
0.0
230
1.0
 70
     8
 71
     3
 72
    19
 73
    15
 74
     0
 42
0.00000001
 43
0.00000001
 40
0.0
 40
0.0
 40
0.0
 40
0.0
 40
0.0896899362473938
 40
0.1784940104960777
 40
0.2668377532994883
 40
0.3565581760610179
 40
0.4453342496549794
 40
0.5308058350374903
 40
0.6140762174402841
 40
0.6977070858228034
 40
0.7791419498114628
 40
0.8553535905869766
 40
0.9285568200856545
 40
1.0
 40
1.0
 40
1.0
 40
1.0
 10
923.7451430078121
 20
844.1204392949222
 30
0.0
 10
923.8131432450582
 20
844.1224344198351
 30
0.0
 10
923.9484720853782
 20
844.1264049639349
 30
0.0
 10
924.1479677004262
 20
844.1633219325291
 30
0.0
 10
924.3419394590873
 20
844.221392601457
 30
0.0
 10
924.5283140978089
 20
844.3008439530449
 30
0.0
 10
924.7022674354547
 20
844.4005647755565
 30
0.0
 10
924.8573304485419
 20
844.5199545311895
 30
0.0
 10
924.9921804893261
 20
844.6562564676544
 30
0.0
 10
925.1054161698373
 20
844.8073486636988
 30
0.0
 10
925.1932101045339
 20
844.9681522940027
 30
0.0
 10
925.261557093771
 20
845.1295243918773
 30
0.0
 10
925.3014684431698
 20
845.2931866341357
 30
0.0
 10
925.3066743105694
 20
845.4028254085523
 30
0.0
 10
925.3092455719146
 20
845.4569777564606
 30
0.0
  0
SPLINE
  5
103
330
1F
100
AcDbEntity
  8
0
  6
Continuous
 62
     7
370
    25
100
AcDbSpline
210
0.0
220
0.0
230
1.0
 70
     8
 71
     3
 72
    27
 73
    23
 74
     0
 42
0.00000001
 43
0.00000001
 40
0.0
 40
0.0
 40
0.0
 40
0.0
 40
0.0729510658758678
 40
0.1415836941865456
 40
0.2059264601708678
 40
0.2653013571846063
 40
0.320597232713929
 40
0.3718165030988104
 40
0.418789769709452
 40
0.4616987286157647
 40
0.5021335821035655
 40
0.5408043152926487
 40
0.578180525327966
 40
0.6142968652075153
 40
0.6496782432647878
 40
0.684299460089637
 40
0.7183589527723607
 40
0.7520808646475973
 40
0.8176524386023857
 40
0.8797220764054376
 40
0.9399655597309878
 40
1.0
 40
1.0
 40
1.0
 40
1.0
 10
927.8733481360172
 20
843.2999264744093
 30
0.0
 10
927.8736211578859
 20
843.1930723057148
 30
0.0
 10
927.8741510397222
 20
842.9856893461739
 30
0.0
 10
927.8879937838988
 20
842.6843333210859
 30
0.0
 10
927.9068514570404
 20
842.4032582837897
 30
0.0
 10
927.931174422035
 20
842.1421073432979
 30
0.0
 10
927.9672954472373
 20
841.9017644575613
 30
0.0
 10
928.0077681051064
 20
841.6805766105551
 30
0.0
 10
928.0570208813788
 20
841.4797143542951
 30
0.0
 10
928.115295207932
 20
841.297799358399
 30
0.0
 10
928.1816702865457
 20
841.1317443446953
 30
0.0
 10
928.2541408320772
 20
840.9772272815471
 30
0.0
 10
928.3319939130027
 20
840.8324228554081
 30
0.0
 10
928.4191233999809
 20
840.6986317505531
 30
0.0
 10
928.5140149730757
 20
840.5754176612437
 30
0.0
 10
928.6145252796758
 20
840.4605997587927
 30
0.0
 10
928.7244054722293
 20
840.358206658597
 30
0.0
 10
928.8764140266137
 20
840.2354024185297
 30
0.0
 10
929.0770916824468
 20
840.1085015414335
 30
0.0
 10
929.3299384372608
 20
839.9979961932469
 30
0.0
 10
929.5897520395043
 20
839.9285505785444
 30
0.0
 10
929.7660977539887
 20
839.9197191363613
 30
0.0
 10
929.8541173667865
 20
839.9153110897939
 30
0.0
  0
SPLINE
  5
104
330
1F
100
AcDbEntity
  8
0
  6
Continuous
 62
     7
370
    25
100
AcDbSpline
210
0.0
220
0.0
230
1.0
 70
     8
 71
     3
 72
    19
 73
    15
 74
     0
 42
0.00000001
 43
0.00000001
 40
0.0
 40
0.0
 40
0.0
 40
0.0
 40
0.1128134007444591
 40
0.2253938839207292
 40
0.3395948145627014
 40
0.459675410224864
 40
0.5217351900879341
 40
0.583925838738916
 40
0.648174144765371
 40
0.713881038113067
 40
0.7810044549073896
 40
0.8514509275565548
 40
0.9240506926641802
 40
1.0
 40
1.0
 40
1.0
 40
1.0
 10
929.8541173667865
 20
839.9153110897939
 30
0.0
 10
929.9427063305711
 20
839.9189631602203
 30
0.0
 10
930.1197013549933
 20
839.9262597609107
 30
0.0
 10
930.3782928867516
 20
839.996656874909
 30
0.0
 10
930.6293335040826
 20
840.1028729651116
 30
0.0
 10
930.8260693675771
 20
840.2284672632128
 30
0.0
 10
930.9757437527232
 20
840.3480748733872
 30
0.0
 10
931.0829825872511
 20
840.4500512123882
 30
0.0
 10
931.1814101265271
 20
840.5642360519456
 30
0.0
 10
931.2747634404806
 20
840.6874344426083
 30
0.0
 10
931.3603841848802
 20
840.8220001207198
 30
0.0
 10
931.4382427853265
 20
840.967286007042
 30
0.0
 10
931.5092904368582
 20
841.1236955565556
 30
0.0
 10
931.5497682561731
 20
841.2328835316775
 30
0.0
 10
931.5704635206326
 20
841.2887085256914
 30
0.0
  0
SPLINE
  5
105
330
1F
100
AcDbEntity
  8
0
  6
Continuous
 62
     7
370
    25
100
AcDbSpline
210
0.0
220
0.0
230
1.0
 70
     8
 71
     3
 72
    15
 73
    11
 74
     0
 42
0.00000001
 43
0.00000001
 40
0.0
 40
0.0
 40
0.0
 40
0.0
 40
0.1105883385953365
 40
0.2245417540535967
 40
0.3425034940501039
 40
0.4643240984173573
 40
0.590756032701767
 40
0.7222274753555147
 40
0.8588428362087224
 40
1.0
 40
1.0
 40
1.0
 40
1.0
 10
931.5704635206326
 20
841.2887085256914
 30
0.0
 10
931.5945818470184
 20
841.3600907873287
 30
0.0
 10
931.6435523929212
 20
841.5050273913138
 30
0.0
 10
931.7066650198257
 20
841.7298585960692
 30
0.0
 10
931.7563687894341
 20
841.9657506279274
 30
0.0
 10
931.8010850540043
 20
842.2112937518552
 30
0.0
 10
931.8316063246268
 20
842.4682987827374
 30
0.0
 10
931.8561727549884
 20
842.735970517402
 30
0.0
 10
931.8706428965639
 20
843.0145107739402
 30
0.0
 10
931.8724366132984
 20
843.2037564681008
 30
0.0
 10
931.8733481360172
 20
843.2999264744093
 30
0.0
  0
SPLINE
  5
106
330
1F
100
AcDbEntity
  8
0
  6
Continuous
 62
     7
370
    25
100
AcDbSpline
210
0.0
220
0.0
230
1.0
 70
     8
 71
     3
 72
    27
 73
    23
 74
     0
 42
0.00000001
 43
0.00000001
 40
0.0
 40
0.0
 40
0.0
 40
0.0
 40
0.0603866193110627
 40
0.1208832485859966
 40
0.1827546186251396
 40
0.2478110297583515
 40
0.2812991000432487
 40
0.3150876241506568
 40
0.3497023955502759
 40
0.3848565811185556
 40
0.4209661972261022
 40
0.4585111882611392
 40
0.4971747221273132
 40
0.5376020478662706
 40
0.5805030184200117
 40
0.6274675400267045
 40
0.6783882095592437
 40
0.7339832205925612
 40
0.793746704550835
 40
0.8577136721607319
 40
0.9266978643613872
 40
1.0
 40
1.0
 40
1.0
 40
1.0
 10
929.8541173667865
 20
846.6845418590248
 30
0.0
 10
929.7656360134451
 20
846.6798985524024
 30
0.0
 10
929.5885121149192
 20
846.6706034801648
 30
0.0
 10
929.3269167898295
 20
846.6050189005268
 30
0.0
 10
929.0761639860756
 20
846.4907035498122
 30
0.0
 10
928.876751472524
 20
846.3650981270353
 30
0.0
 10
928.7239199605066
 20
846.2454677008831
 30
0.0
 10
928.6163023756455
 20
846.1417272344637
 30
0.0
 10
928.5153968391479
 20
846.028250081629
 30
0.0
 10
928.4224420959762
 20
845.9039028476853
 30
0.0
 10
928.3353808772509
 20
845.7702677223845
 30
0.0
 10
928.255424277078
 20
845.6262934030125
 30
0.0
 10
928.1833846663899
 20
845.471250284783
 30
0.0
 10
928.1169057265495
 20
845.305269860968
 30
0.0
 10
928.0584536396324
 20
845.123370559401
 30
0.0
 10
928.0102388665352
 20
844.9227557169016
 30
0.0
 10
927.9656970308326
 20
844.7022713928121
 30
0.0
 10
927.9341649876313
 20
844.4606268032231
 30
0.0
 10
927.9061335458903
 20
844.1994104526649
 30
0.0
 10
927.888119036285
 20
843.9176337252836
 30
0.0
 10
927.8741047334983
 20
843.6157722843639
 30
0.0
 10
927.8736053863834
 20
843.4073170649292
 30
0.0
 10
927.8733481360172
 20
843.2999264744093
 30
0.0
  0
SPLINE
  5
107
330
1F
100
AcDbEntity
  8
0
  6
Continuous
 62
     7
370
    25
100
AcDbSpline
210
0.0
220
0.0
230
1.0
 70
     8
 71
     3
 72
    27
 73
    23
 74
     0
 42
0.00000001
 43
0.00000001
 40
0.0
 40
0.0
 40
0.0
 40
0.0
 40
0.0656811979906383
 40
0.128486464174064
 40
0.1881751303280078
 40
0.2451061306699859
 40
0.2994484245294747
 40
0.3508229360093825
 40
0.3999416805337773
 40
0.4466717436323714
 40
0.4912545333734974
 40
0.5333763442704357
 40
0.5738527549682234
 40
0.6125263117194524
 40
0.6495971364453287
 40
0.6855320415538502
 40
0.7201057860682003
 40
0.7538376629736493
 40
0.8189254160467137
 40
0.8804934616501633
 40
0.940311333846057
 40
1.0
 40
1.0
 40
1.0
 40
1.0
 10
931.8733481360172
 20
843.2999264744093
 30
0.0
 10
931.8720905606277
 20
843.3960809258791
 30
0.0
 10
931.8696304743293
 20
843.5841795882347
 30
0.0
 10
931.8602270738695
 20
843.8596497154624
 30
0.0
 10
931.8359446178879
 20
844.1212903118262
 30
0.0
 10
931.8089752033404
 20
844.3702285350589
 30
0.0
 10
931.7692101265584
 20
844.605086369812
 30
0.0
 10
931.7263351394035
 20
844.8278299246837
 30
0.0
 10
931.6687323684545
 20
845.0356996956993
 30
0.0
 10
931.6072014542282
 20
845.231950168183
 30
0.0
 10
931.5367776930135
 20
845.4143516641848
 30
0.0
 10
931.4592560147105
 20
845.5837546044406
 30
0.0
 10
931.3764634232384
 20
845.7409768324562
 30
0.0
 10
931.2865383021887
 20
845.8855869846311
 30
0.0
 10
931.190548169468
 20
846.0182327969995
 30
0.0
 10
931.085959485588
 20
846.1362547274156
 30
0.0
 10
930.976920919163
 20
846.2433106545209
 30
0.0
 10
930.8241959229947
 20
846.3655108125131
 30
0.0
 10
930.6242546891654
 20
846.4901089736175
 30
0.0
 10
930.3754646380968
 20
846.604773567584
 30
0.0
 10
930.1165603083799
 20
846.6706210935746
 30
0.0
 10
929.9415352704553
 20
846.6799049496617
 30
0.0
 10
929.8541173667865
 20
846.6845418590248
 30
0.0
  0
LINE
  5
108
330
1F
100
AcDbEntity
  8
0
  6
Continuous
 62
     7
370
    25
100
AcDbLine
 10
942.9502712129
 20
840.1204392949
 30
0.0
 11
943.9727071104
 21
840.1204392949
 31
0.0
  0
SPLINE
  5
109
330
1F
100
AcDbEntity
  8
0
  6
Continuous
 62
     7
370
    25
100
AcDbSpline
210
0.0
220
0.0
230
1.0
 70
     8
 71
     3
 72
    23
 73
    19
 74
     0
 42
0.00000001
 43
0.00000001
 40
0.0
 40
0.0
 40
0.0
 40
0.0
 40
0.0725024889330334
 40
0.1397389892678939
 40
0.2017951348259221
 40
0.2598219344148626
 40
0.3122059893845967
 40
0.3607734341243379
 40
0.4045403426007487
 40
0.4436980985527627
 40
0.5168407942439694
 40
0.5878743359442808
 40
0.6579654175616315
 40
0.7289693886473123
 40
0.7993077199548829
 40
0.8666357778344711
 40
0.9331163290572735
 40
1.0
 40
1.0
 40
1.0
 40
1.0
 10
943.9727071103762
 20
840.1204392949222
 30
0.0
 10
944.0458932267488
 20
840.121316431829
 30
0.0
 10
944.1869498177825
 20
840.1230069975823
 30
0.0
 10
944.3906097723445
 20
840.1285259794355
 30
0.0
 10
944.5793711524614
 20
840.141079752462
 30
0.0
 10
944.7523726055572
 20
840.1608416945505
 30
0.0
 10
944.9114822115703
 20
840.1822781498012
 30
0.0
 10
945.0547912470648
 20
840.211103934765
 30
0.0
 10
945.1834614035482
 20
840.2441301302517
 30
0.0
 10
945.3326598212383
 20
840.295179666789
 30
0.0
 10
945.5006678401661
 20
840.3744858860283
 30
0.0
 10
945.6817212261903
 20
840.4940612606986
 30
0.0
 10
945.8426954390909
 20
840.636514535608
 30
0.0
 10
945.9793931744204
 20
840.8013851965762
 30
0.0
 10
946.0914228625254
 20
840.9806568009836
 30
0.0
 10
946.1729210455736
 20
841.1707033151613
 30
0.0
 10
946.2231858609316
 20
841.3683845206891
 30
0.0
 10
946.2292708193086
 20
841.5031655779302
 30
0.0
 10
946.2323224949915
 20
841.5707598077427
 30
0.0
  0
SPLINE
  5
10A
330
1F
100
AcDbEntity
  8
0
  6
Continuous
 62
     7
370
    25
100
AcDbSpline
210
0.0
220
0.0
230
1.0
 70
     8
 71
     3
 72
    19
 73
    15
 74
     0
 42
0.00000001
 43
0.00000001
 40
0.0
 40
0.0
 40
0.0
 40
0.0
 40
0.0602873979279726
 40
0.119602354707522
 40
0.1775033710185401
 40
0.2351426637323318
 40
0.2921325932269338
 40
0.3508712086415664
 40
0.410097862566594
 40
0.4707315215304504
 40
0.594828704080415
 40
0.7225788240942911
 40
0.8566913895440171
 40
1.0
 40
1.0
 40
1.0
 40
1.0
 10
946.2323224949915
 20
841.5707598077427
 30
0.0
 10
946.2316913993633
 20
841.6130303003486
 30
0.0
 10
946.2304393877356
 20
841.6968894587145
 30
0.0
 10
946.2115579821959
 20
841.8201256168583
 30
0.0
 10
946.1840977083816
 20
841.9394990415652
 30
0.0
 10
946.1485972880787
 20
842.0553338769589
 30
0.0
 10
946.0968956490134
 20
842.1655358800397
 30
0.0
 10
946.0365378318314
 20
842.2722845875521
 30
0.0
 10
945.9657689137865
 20
842.3757211119494
 30
0.0
 10
945.8554965346605
 20
842.5064919769765
 30
0.0
 10
945.6951034271863
 20
842.6571594350415
 30
0.0
 10
945.4672022261739
 20
842.8046737259366
 30
0.0
 10
945.2080655451012
 20
842.9236401421366
 30
0.0
 10
945.0201169899103
 20
842.9741532309101
 30
0.0
 10
944.9230276231967
 20
843.0002469872298
 30
0.0
  0
LINE
  5
10B
330
1F
100
AcDbEntity
  8
0
  6
Continuous
 62
     7
370
    25
100
AcDbLine
 10
943.4262327514
 20
843.0947982693
 30
0.0
 11
942.9502712129
 21
843.0947982693
 31
0.0
  0
LINE
  5
10C
330
1F
100
AcDbEntity
  8
0
  6
Continuous
 62
     7
370
    25
100
AcDbLine
 10
942.9502712129
 20
843.0947982693
 30
0.0
 11
942.9502712129
 21
840.1204392949
 31
0.0
  0
SPLINE
  5
10D
330
1F
100
AcDbEntity
  8
0
  6
Continuous
 62
     7
370
    25
100
AcDbSpline
210
0.0
220
0.0
230
1.0
 70
     8
 71
     3
 72
    15
 73
    11
 74
     0
 42
0.00000001
 43
0.00000001
 40
0.0
 40
0.0
 40
0.0
 40
0.0
 40
0.0793064855230003
 40
0.171952818927932
 40
0.2770565073915913
 40
0.3947305758644772
 40
0.5261773212767583
 40
0.6713447665976138
 40
0.8292852571892514
 40
1.0
 40
1.0
 40
1.0
 40
1.0
 10
944.9230276231967
 20
843.0002469872298
 30
0.0
 10
944.8841039755343
 20
843.0081443219851
 30
0.0
 10
944.7997094787368
 20
843.0252673726943
 30
0.0
 10
944.6620921520423
 20
843.0433421232987
 30
0.0
 10
944.5049815945514
 20
843.0594451173378
 30
0.0
 10
944.3280150180346
 20
843.0713563348548
 30
0.0
 10
944.1309685240606
 20
843.0836684343932
 30
0.0
 10
943.9134212813506
 20
843.0884565969584
 30
0.0
 10
943.6762617049866
 20
843.0941691914576
 30
0.0
 10
943.5117077109302
 20
843.0945832125818
 30
0.0
 10
943.4262327514018
 20
843.0947982692811
 30
0.0
  0
ENDSEC
  0
SECTION
  2
OBJECTS
  0
DICTIONARY
  5
C
330
0
100
AcDbDictionary
281
     1
  3
ACAD_DETAILVIEWSTYLE
350
115
  3
ACAD_GROUP
350
D
  3
ACAD_LAYOUT
350
1A
  3
ACAD_MATERIAL
350
43
  3
ACAD_MLEADERSTYLE
350
5B
  3
ACAD_MLINESTYLE
350
17
  3
ACAD_PLOTSETTINGS
350
19
  3
ACAD_PLOTSTYLENAME
350
E
  3
ACAD_SCALELIST
350
47
  3
ACAD_SECTIONVIEWSTYLE
350
116
  3
ACAD_TABLESTYLE
350
59
  3
ACAD_VISUALSTYLE
350
2A
  3
ACDB_RECOMPOSE_DATA
350
112
  3
AcDbVariableDictionary
350
10E
  0
SUN
  5
5D
330
29
100
AcDbSun
 90
        1
290
     0
 63
     7
421
 16777215
 40
1.0
291
     1
 91
  2455826
 92
 54000000
292
     0
 70
     2
 71
   256
280
     1
  0
DICTIONARY
  5
115
102
{ACAD_REACTORS
330
C
102
}
330
C
100
AcDbDictionary
281
     1
  0
DICTIONARY
  5
D
102
{ACAD_REACTORS
330
C
102
}
330
C
100
AcDbDictionary
281
     1
  0
DICTIONARY
  5
1A
102
{ACAD_REACTORS
330
C
102
}
330
C
100
AcDbDictionary
281
     1
  3
Layout1
350
1E
  3
Layout2
350
26
  3
Model
350
22
  0
DICTIONARY
  5
43
102
{ACAD_REACTORS
330
C
102
}
330
C
100
AcDbDictionary
281
     1
  3
ByBlock
350
45
  3
ByLayer
350
44
  3
Global
350
46
  0
DICTIONARY
  5
5B
102
{ACAD_REACTORS
330
C
102
}
330
C
100
AcDbDictionary
281
     1
  3
Standard
350
5C
  0
DICTIONARY
  5
17
102
{ACAD_REACTORS
330
C
102
}
330
C
100
AcDbDictionary
281
     1
  3
Standard
350
18
  0
DICTIONARY
  5
19
102
{ACAD_REACTORS
330
C
102
}
330
C
100
AcDbDictionary
281
     1
  0
ACDBDICTIONARYWDFLT
  5
E
102
{ACAD_REACTORS
330
C
102
}
330
C
100
AcDbDictionary
281
     1
  3
Normal
350
F
100
AcDbDictionaryWithDefault
340
F
  0
DICTIONARY
  5
47
102
{ACAD_REACTORS
330
C
102
}
330
C
100
AcDbDictionary
281
     1
  3
A0
350
48
  3
A1
350
49
  3
A2
350
4A
  3
A3
350
4B
  3
A4
350
4C
  3
A5
350
4D
  3
A6
350
4E
  3
A7
350
4F
  3
A8
350
50
  3
A9
350
51
  3
B0
350
52
  3
B1
350
53
  3
B2
350
54
  3
B3
350
55
  3
B4
350
56
  3
B5
350
57
  3
B6
350
58
  0
DICTIONARY
  5
116
102
{ACAD_REACTORS
330
C
102
}
330
C
100
AcDbDictionary
281
     1
  0
DICTIONARY
  5
59
102
{ACAD_REACTORS
330
C
102
}
330
C
100
AcDbDictionary
281
     1
  3
Standard
350
5A
  0
DICTIONARY
  5
2A
102
{ACAD_REACTORS
330
C
102
}
330
C
100
AcDbDictionary
281
     1
  3
2dWireframe
350
2F
  3
Basic
350
32
  3
Brighten
350
36
  3
ColorChange
350
3A
  3
Conceptual
350
34
  3
Dim
350
35
  3
EdgeColorOff
350
3D
  3
Facepattern
350
39
  3
Flat
350
2B
  3
FlatWithEdges
350
2C
  3
Gouraud
350
2D
  3
GouraudWithEdges
350
2E
  3
Hidden
350
31
  3
JitterOff
350
3B
  3
Linepattern
350
38
  3
OverhangOff
350
3C
  3
Realistic
350
33
  3
Shaded
350
42
  3
Shaded with edges
350
41
  3
Shades of Gray
350
3E
  3
Sketchy
350
3F
  3
Thicken
350
37
  3
Wireframe
350
30
  3
X-Ray
350
40
  0
XRECORD
  5
112
102
{ACAD_REACTORS
330
C
102
}
330
C
100
AcDbXrecord
280
     1
 90
        1
330
5A
  0
DICTIONARY
  5
10E
102
{ACAD_REACTORS
330
C
102
}
330
C
100
AcDbDictionary
281
     1
  3
CANNOSCALE
350
10F
  3
CENTEREXE
350
117
  3
CENTERLTYPEFILE
350
118
  3
CMLEADERSTYLE
350
114
  3
CTABLESTYLE
350
113
  0
LAYOUT
  5
1E
102
{ACAD_REACTORS
330
1A
102
}
330
1A
100
AcDbPlotSettings
  1

  2
none_device
  4

  6

 40
0.0
 41
0.0
 42
0.0
 43
0.0
 44
0.0
 45
0.0
 46
0.0
 47
0.0
 48
0.0
 49
0.0
140
0.0
141
0.0
142
1.0
143
1.0
 70
   688
 72
     1
 73
     0
 74
     5
  7

 75
    16
 76
     0
 77
     2
 78
   300
147
1.0
148
0.0
149
0.0
100
AcDbLayout
  1
Layout1
 70
     1
 71
     1
 10
0.0
 20
0.0
 11
420.0
 21
297.0
 12
0.0
 22
0.0
 32
0.0
 14
1.0000000000E+20
 24
1.0000000000E+20
 34
1.0000000000E+20
 15
-1.0000000000E+20
 25
-1.0000000000E+20
 35
-1.0000000000E+20
146
0.0
 13
0.0
 23
0.0
 33
0.0
 16
1.0
 26
0.0
 36
0.0
 17
0.0
 27
1.0
 37
0.0
 76
     0
330
1B
  0
LAYOUT
  5
26
102
{ACAD_REACTORS
330
1A
102
}
330
1A
100
AcDbPlotSettings
  1

  2
none_device
  4

  6

 40
0.0
 41
0.0
 42
0.0
 43
0.0
 44
0.0
 45
0.0
 46
0.0
 47
0.0
 48
0.0
 49
0.0
140
0.0
141
0.0
142
1.0
143
1.0
 70
   688
 72
     1
 73
     0
 74
     5
  7

 75
    16
 76
     0
 77
     2
 78
   300
147
1.0
148
0.0
149
0.0
100
AcDbLayout
  1
Layout2
 70
     1
 71
     2
 10
0.0
 20
0.0
 11
0.0
 21
0.0
 12
0.0
 22
0.0
 32
0.0
 14
0.0
 24
0.0
 34
0.0
 15
0.0
 25
0.0
 35
0.0
146
0.0
 13
0.0
 23
0.0
 33
0.0
 16
1.0
 26
0.0
 36
0.0
 17
0.0
 27
1.0
 37
0.0
 76
     0
330
23
  0
LAYOUT
  5
22
102
{ACAD_REACTORS
330
1A
102
}
330
1A
100
AcDbPlotSettings
  1

  2
none_device
  4
Letter_(8.50_x_11.00_Inches)
  6

 40
6.35
 41
6.35
 42
6.35000508
 43
6.35000508
 44
215.9
 45
279.4
 46
0.0
 47
0.0
 48
0.0
 49
0.0
140
0.0
141
0.0
142
1.0
143
1.0
 70
  1712
 72
     1
 73
     0
 74
     0
  7

 75
     0
 76
     0
 77
     2
 78
   300
147
1.0
148
0.0
149
0.0
100
AcDbLayout
  1
Model
 70
     1
 71
     0
 10
0.0
 20
0.0
 11
420.0
 21
297.0
 12
0.0
 22
0.0
 32
0.0
 14
0.0
 24
0.0
 34
0.0
 15
420.0
 25
297.0
 35
0.0
146
0.0
 13
0.0
 23
0.0
 33
0.0
 16
1.0
 26
0.0
 36
0.0
 17
0.0
 27
1.0
 37
0.0
 76
     0
330
1F
331
29
  0
MATERIAL
  5
45
102
{ACAD_REACTORS
330
43
102
}
330
43
100
AcDbMaterial
  1
ByBlock
 72
     1
 94
      127
  0
MATERIAL
  5
44
102
{ACAD_REACTORS
330
43
102
}
330
43
100
AcDbMaterial
  1
ByLayer
 72
     1
 94
      127
  0
MATERIAL
  5
46
102
{ACAD_REACTORS
330
43
102
}
330
43
100
AcDbMaterial
  1
Global
 72
     1
 94
      127
  0
MLEADERSTYLE
  5
5C
102
{ACAD_REACTORS
330
5B
102
}
330
5B
100
AcDbMLeaderStyle
179
     2
170
     2
171
     1
172
     0
 90
        2
 40
0.0
 41
0.0
173
     1
 91
-1056964608
340
14
 92
       -2
290
     1
 42
2.0
291
     1
 43
8.0
  3
Standard
341
0
 44
4.0
300

342
11
174
     1
178
     6
175
     1
176
     0
 93
-1056964608
 45
4.0
292
     0
297
     0
 46
4.0
343
0
 94
-1056964608
 47
1.0
 49
1.0
140
1.0
293
     1
141
0.0
294
     1
177
     0
142
1.0
295
     0
296
     0
143
3.75
271
     0
272
     9
273
     9
298
     0
  0
MLINESTYLE
  5
18
102
{ACAD_REACTORS
330
17
102
}
330
17
100
AcDbMlineStyle
  2
Standard
 70
     0
  3

 62
   256
 51
90.0
 52
90.0
 71
     2
 49
0.5
 62
   256
  6
BYLAYER
 49
-0.5
 62
   256
  6
BYLAYER
  0
ACDBPLACEHOLDER
  5
F
102
{ACAD_REACTORS
330
E
102
}
330
E
  0
SCALE
  5
48
102
{ACAD_REACTORS
330
47
102
}
330
47
100
AcDbScale
 70
     0
300
1:1
140
1.0
141
1.0
290
     1
  0
SCALE
  5
49
102
{ACAD_REACTORS
330
47
102
}
330
47
100
AcDbScale
 70
     0
300
1:2
140
1.0
141
2.0
290
     0
  0
SCALE
  5
4A
102
{ACAD_REACTORS
330
47
102
}
330
47
100
AcDbScale
 70
     0
300
1:4
140
1.0
141
4.0
290
     0
  0
SCALE
  5
4B
102
{ACAD_REACTORS
330
47
102
}
330
47
100
AcDbScale
 70
     0
300
1:5
140
1.0
141
5.0
290
     0
  0
SCALE
  5
4C
102
{ACAD_REACTORS
330
47
102
}
330
47
100
AcDbScale
 70
     0
300
1:8
140
1.0
141
8.0
290
     0
  0
SCALE
  5
4D
102
{ACAD_REACTORS
330
47
102
}
330
47
100
AcDbScale
 70
     0
300
1:10
140
1.0
141
10.0
290
     0
  0
SCALE
  5
4E
102
{ACAD_REACTORS
330
47
102
}
330
47
100
AcDbScale
 70
     0
300
1:16
140
1.0
141
16.0
290
     0
  0
SCALE
  5
4F
102
{ACAD_REACTORS
330
47
102
}
330
47
100
AcDbScale
 70
     0
300
1:20
140
1.0
141
20.0
290
     0
  0
SCALE
  5
50
102
{ACAD_REACTORS
330
47
102
}
330
47
100
AcDbScale
 70
     0
300
1:30
140
1.0
141
30.0
290
     0
  0
SCALE
  5
51
102
{ACAD_REACTORS
330
47
102
}
330
47
100
AcDbScale
 70
     0
300
1:40
140
1.0
141
40.0
290
     0
  0
SCALE
  5
52
102
{ACAD_REACTORS
330
47
102
}
330
47
100
AcDbScale
 70
     0
300
1:50
140
1.0
141
50.0
290
     0
  0
SCALE
  5
53
102
{ACAD_REACTORS
330
47
102
}
330
47
100
AcDbScale
 70
     0
300
1:100
140
1.0
141
100.0
290
     0
  0
SCALE
  5
54
102
{ACAD_REACTORS
330
47
102
}
330
47
100
AcDbScale
 70
     0
300
2:1
140
2.0
141
1.0
290
     0
  0
SCALE
  5
55
102
{ACAD_REACTORS
330
47
102
}
330
47
100
AcDbScale
 70
     0
300
4:1
140
4.0
141
1.0
290
     0
  0
SCALE
  5
56
102
{ACAD_REACTORS
330
47
102
}
330
47
100
AcDbScale
 70
     0
300
8:1
140
8.0
141
1.0
290
     0
  0
SCALE
  5
57
102
{ACAD_REACTORS
330
47
102
}
330
47
100
AcDbScale
 70
     0
300
10:1
140
10.0
141
1.0
290
     0
  0
SCALE
  5
58
102
{ACAD_REACTORS
330
47
102
}
330
47
100
AcDbScale
 70
     0
300
100:1
140
100.0
141
1.0
290
     0
  0
TABLESTYLE
  5
5A
102
{ACAD_REACTORS
330
59
102
}
102
{ACAD_XDICTIONARY
360
110
102
}
330
59
100
AcDbTableStyle
  3
Standard
 70
     0
 71
     0
 40
0.06
 41
0.06
280
     0
281
     0
  7
Standard
140
4.5
170
     2
 62
     0
 63
   257
283
     0
 90
        4
 91
        0
  1

274
    -2
284
     1
 64
     0
275
    -2
285
     1
 65
     0
276
    -2
286
     1
 66
     0
277
    -2
287
     1
 67
     0
278
    -2
288
     1
 68
     0
279
    -2
289
     1
 69
     0
  7
Standard
140
6.0
170
     5
 62
     0
 63
   257
283
     0
 90
        4
 91
        0
  1

274
    -2
284
     1
 64
     0
275
    -2
285
     1
 65
     0
276
    -2
286
     1
 66
     0
277
    -2
287
     1
 67
     0
278
    -2
288
     1
 68
     0
279
    -2
289
     1
 69
     0
  7
Standard
140
4.5
170
     5
 62
     0
 63
   257
283
     0
 90
        4
 91
        0
  1

274
    -2
284
     1
 64
     0
275
    -2
285
     1
 65
     0
276
    -2
286
     1
 66
     0
277
    -2
287
     1
 67
     0
278
    -2
288
     1
 68
     0
279
    -2
289
     1
 69
     0
  0
VISUALSTYLE
  5
2F
102
{ACAD_REACTORS
330
2A
102
}
330
2A
100
AcDbVisualStyle
  2
2dWireframe
 70
     4
177
     3
291
     0
 70
    58
 90
        0
176
     1
 90
        2
176
     1
 90
        0
176
     1
 90
        0
176
     1
 40
0.6
176
     1
 40
30.0
176
     1
 62
     7
420
 16777215
176
     1
 90
        1
176
     1
 90
        4
176
     1
 62
     7
176
     1
 62
   257
176
     1
 90
        1
176
     1
 90
        1
176
     1
 40
1.0
176
     1
 90
        0
176
     1
 62
   257
176
     1
 40
1.0
176
     1
 90
        1
176
     1
 90
        6
176
     1
 90
        2
176
     1
 62
     7
176
     1
 90
        5
176
     1
 90
        0
176
     1
 90
        0
176
     1
290
     0
176
     1
 90
        1
176
     1
 40
0.0
176
     1
 90
        0
176
     1
290
     1
176
     1
290
     1
176
     1
290
     0
176
     1
290
     0
176
     1
290
     0
176
     1
290
     0
176
     1
290
     0
176
     1
290
     0
176
     1
290
     0
176
     1
 90
       50
176
     1
 40
0.0
176
     1
 40
1.0
176
     1
 90
        0
176
     1
 62
    18
420
        0
176
     1
 90
       50
176
     1
 90
        3
176
     1
 62
     5
420
      255
176
     1
290
     0
176
     1
 90
       50
176
     1
 90
       50
176
     1
 90
       50
176
     1
290
     0
176
     1
 90
       50
176
     1
 62
   256
176
     0
 40
1.0
176
     0
 90
        2
176
     1
  1
strokes_ogs.tif
176
     1
290
     0
176
     1
 40
1.0
176
     1
 40
1.0
176
     1
  0
VISUALSTYLE
  5
32
102
{ACAD_REACTORS
330
2A
102
}
330
2A
100
AcDbVisualStyle
  2
Basic
 70
     7
177
     3
291
     1
 70
    58
 90
        1
176
     1
 90
        0
176
     1
 90
        1
176
     1
 90
        0
176
     1
 40
0.6
176
     1
 40
30.0
176
     1
 62
     7
420
 16777215
176
     1
 90
        0
176
     1
 90
        4
176
     1
 62
     7
176
     1
 62
   257
176
     1
 90
        1
176
     1
 90
        1
176
     1
 40
1.0
176
     1
 90
        8
176
     1
 62
     7
176
     1
 40
1.0
176
     1
 90
        1
176
     1
 90
        6
176
     1
 90
        2
176
     1
 62
     7
176
     1
 90
        5
176
     1
 90
        0
176
     1
 90
        0
176
     1
290
     0
176
     1
 90
        1
176
     1
 40
0.0
176
     1
 90
        0
176
     1
290
     0
176
     1
290
     1
176
     1
290
     1
176
     1
290
     0
176
     1
290
     0
176
     1
290
     0
176
     1
290
     0
176
     1
290
     0
176
     1
290
     0
176
     1
 90
       50
176
     1
 40
0.0
176
     1
 40
1.0
176
     1
 90
        0
176
     1
 62
    18
420
        0
176
     1
 90
       50
176
     1
 90
        3
176
     1
 62
     5
420
      255
176
     1
290
     0
176
     1
 90
       50
176
     1
 90
       50
176
     1
 90
       50
176
     1
290
     0
176
     1
 90
       50
176
     1
 62
   256
176
     0
 40
1.0
176
     0
 90
        2
176
     1
  1
strokes_ogs.tif
176
     1
290
     0
176
     1
 40
1.0
176
     1
 40
1.0
176
     1
  0
VISUALSTYLE
  5
36
102
{ACAD_REACTORS
330
2A
102
}
330
2A
100
AcDbVisualStyle
  2
Brighten
 70
    12
177
     3
291
     1
 70
    58
 90
        2
176
     1
 90
        2
176
     1
 90
        0
176
     1
 90
        0
176
     1
 40
0.6
176
     1
 40
30.0
176
     1
 62
     7
420
 16777215
176
     1
 90
        1
176
     1
 90
        4
176
     1
 62
     7
176
     1
 62
   257
176
     1
 90
        1
176
     1
 90
        1
176
     1
 40
1.0
176
     1
 90
        8
176
     1
 62
     7
176
     1
 40
1.0
176
     1
 90
        1
176
     1
 90
        6
176
     1
 90
        2
176
     1
 62
     7
176
     1
 90
        5
176
     1
 90
        0
176
     1
 90
        0
176
     1
290
     0
176
     1
 90
        1
176
     1
 40
50.0
176
     1
 90
        0
176
     1
290
     0
176
     1
290
     1
176
     1
290
     1
176
     1
290
     0
176
     1
290
     0
176
     1
290
     0
176
     1
290
     0
176
     1
290
     0
176
     1
290
     0
176
     1
 90
       50
176
     1
 40
0.0
176
     1
 40
1.0
176
     1
 90
        0
176
     1
 62
    18
420
        0
176
     1
 90
       50
176
     1
 90
        3
176
     1
 62
     5
420
      255
176
     1
290
     0
176
     1
 90
       50
176
     1
 90
       50
176
     1
 90
       50
176
     1
290
     0
176
     1
 90
       50
176
     1
 62
   256
176
     0
 40
1.0
176
     0
 90
        2
176
     1
  1
strokes_ogs.tif
176
     1
290
     0
176
     1
 40
1.0
176
     1
 40
1.0
176
     1
  0
VISUALSTYLE
  5
3A
102
{ACAD_REACTORS
330
2A
102
}
330
2A
100
AcDbVisualStyle
  2
ColorChange
 70
    16
177
     3
291
     1
 70
    58
 90
        2
176
     1
 90
        2
176
     1
 90
        3
176
     1
 90
        0
176
     1
 40
0.6
176
     1
 40
30.0
176
     1
 62
     8
420
  8421504
176
     1
 90
        1
176
     1
 90
        4
176
     1
 62
     7
176
     1
 62
   257
176
     1
 90
        1
176
     1
 90
        1
176
     1
 40
1.0
176
     1
 90
        8
176
     1
 62
     8
420
  8421504
176
     1
 40
1.0
176
     1
 90
        1
176
     1
 90
        6
176
     1
 90
        2
176
     1
 62
     7
176
     1
 90
        5
176
     1
 90
        0
176
     1
 90
        0
176
     1
290
     0
176
     1
 90
        1
176
     1
 40
0.0
176
     1
 90
        0
176
     1
290
     0
176
     1
290
     1
176
     1
290
     1
176
     1
290
     0
176
     1
290
     0
176
     1
290
     0
176
     1
290
     0
176
     1
290
     0
176
     1
290
     0
176
     1
 90
       50
176
     1
 40
0.0
176
     1
 40
1.0
176
     1
 90
        0
176
     1
 62
    18
420
        0
176
     1
 90
       50
176
     1
 90
        3
176
     1
 62
     5
420
      255
176
     1
290
     0
176
     1
 90
       50
176
     1
 90
       50
176
     1
 90
       50
176
     1
290
     0
176
     1
 90
       50
176
     1
 62
   256
176
     0
 40
1.0
176
     0
 90
        2
176
     1
  1
strokes_ogs.tif
176
     1
290
     0
176
     1
 40
1.0
176
     1
 40
1.0
176
     1
  0
VISUALSTYLE
  5
34
102
{ACAD_REACTORS
330
2A
102
}
330
2A
100
AcDbVisualStyle
  2
Conceptual
 70
     9
177
     3
291
     0
 70
    58
 90
        3
176
     1
 90
        2
176
     1
 90
        0
176
     1
 90
        0
176
     1
 40
0.6
176
     1
 40
30.0
176
     1
 62
     7
420
 16777215
176
     1
 90
        2
176
     1
 90
        2
176
     1
 62
     7
176
     1
 62
   257
176
     1
 90
        1
176
     1
 90
        1
176
     1
 40
179.0
176
     1
 90
        8
176
     1
 62
     7
176
     1
 40
1.0
176
     1
 90
        1
176
     1
 90
        6
176
     1
 90
        2
176
     1
 62
     7
176
     1
 90
        3
176
     1
 90
        0
176
     1
 90
        0
176
     1
290
     0
176
     1
 90
        1
176
     1
 40
0.0
176
     1
 90
        0
176
     1
290
     0
176
     1
290
     1
176
     1
290
     1
176
     1
290
     0
176
     1
290
     0
176
     1
290
     0
176
     1
290
     0
176
     1
290
     0
176
     1
290
     0
176
     1
 90
       50
176
     1
 40
0.0
176
     1
 40
1.0
176
     1
 90
        0
176
     1
 62
    18
420
        0
176
     1
 90
       50
176
     1
 90
        3
176
     1
 62
     5
420
      255
176
     1
290
     0
176
     1
 90
       50
176
     1
 90
       50
176
     1
 90
       50
176
     1
290
     0
176
     1
 90
       50
176
     1
 62
   256
176
     0
 40
1.0
176
     0
 90
        2
176
     1
  1
strokes_ogs.tif
176
     1
290
     0
176
     1
 40
1.0
176
     1
 40
1.0
176
     1
  0
VISUALSTYLE
  5
35
102
{ACAD_REACTORS
330
2A
102
}
330
2A
100
AcDbVisualStyle
  2
Dim
 70
    11
177
     3
291
     1
 70
    58
 90
        2
176
     1
 90
        2
176
     1
 90
        0
176
     1
 90
        0
176
     1
 40
0.6
176
     1
 40
30.0
176
     1
 62
     7
420
 16777215
176
     1
 90
        1
176
     1
 90
        4
176
     1
 62
     7
176
     1
 62
   257
176
     1
 90
        1
176
     1
 90
        1
176
     1
 40
1.0
176
     1
 90
        8
176
     1
 62
     7
176
     1
 40
1.0
176
     1
 90
        1
176
     1
 90
        6
176
     1
 90
        2
176
     1
 62
     7
176
     1
 90
        5
176
     1
 90
        0
176
     1
 90
        0
176
     1
290
     0
176
     1
 90
        1
176
     1
 40
-50.0
176
     1
 90
        0
176
     1
290
     0
176
     1
290
     1
176
     1
290
     1
176
     1
290
     0
176
     1
290
     0
176
     1
290
     0
176
     1
290
     0
176
     1
290
     0
176
     1
290
     0
176
     1
 90
       50
176
     1
 40
0.0
176
     1
 40
1.0
176
     1
 90
        0
176
     1
 62
    18
420
        0
176
     1
 90
       50
176
     1
 90
        3
176
     1
 62
     5
420
      255
176
     1
290
     0
176
     1
 90
       50
176
     1
 90
       50
176
     1
 90
       50
176
     1
290
     0
176
     1
 90
       50
176
     1
 62
   256
176
     0
 40
1.0
176
     0
 90
        2
176
     1
  1
strokes_ogs.tif
176
     1
290
     0
176
     1
 40
1.0
176
     1
 40
1.0
176
     1
  0
VISUALSTYLE
  5
3D
102
{ACAD_REACTORS
330
2A
102
}
330
2A
100
AcDbVisualStyle
  2
EdgeColorOff
 70
    22
177
     3
291
     1
 70
    58
 90
        2
176
     0
 90
        2
176
     0
 90
        0
176
     0
 90
        0
176
     0
 40
0.6
176
     0
 40
30.0
176
     0
 62
     7
420
 16777215
176
     0
 90
        1
176
     0
 90
        4
176
     0
 62
     7
176
     0
 62
   257
176
     0
 90
        1
176
     0
 90
        1
176
     0
 40
1.0
176
     0
 90
        8
176
     2
 62
     7
176
     0
 40
1.0
176
     0
 90
        1
176
     0
 90
        6
176
     0
 90
        2
176
     0
 62
     7
176
     0
 90
        5
176
     0
 90
        0
176
     0
 90
        0
176
     0
290
     0
176
     0
 90
        1
176
     0
 40
0.0
176
     0
 90
        0
176
     0
290
     0
176
     0
290
     1
176
     0
290
     1
176
     0
290
     0
176
     0
290
     0
176
     0
290
     0
176
     0
290
     0
176
     0
290
     0
176
     0
290
     0
176
     0
 90
       50
176
     0
 40
0.0
176
     0
 40
1.0
176
     0
 90
        0
176
     0
 62
    18
420
        0
176
     0
 90
       50
176
     0
 90
        3
176
     0
 62
     5
420
      255
176
     0
290
     0
176
     0
 90
       50
176
     0
 90
       50
176
     0
 90
       50
176
     0
290
     0
176
     0
 90
       50
176
     0
 62
   256
176
     0
 40
1.0
176
     0
 90
        2
176
     0
  1
strokes_ogs.tif
176
     0
290
     0
176
     0
 40
1.0
176
     0
 40
1.0
176
     0
  0
VISUALSTYLE
  5
39
102
{ACAD_REACTORS
330
2A
102
}
330
2A
100
AcDbVisualStyle
  2
Facepattern
 70
    15
177
     3
291
     1
 70
    58
 90
        2
176
     1
 90
        2
176
     1
 90
        0
176
     1
 90
        0
176
     1
 40
0.6
176
     1
 40
30.0
176
     1
 62
     7
420
 16777215
176
     1
 90
        1
176
     1
 90
        4
176
     1
 62
     7
176
     1
 62
   257
176
     1
 90
        1
176
     1
 90
        1
176
     1
 40
1.0
176
     1
 90
        8
176
     1
 62
     7
176
     1
 40
1.0
176
     1
 90
        1
176
     1
 90
        6
176
     1
 90
        2
176
     1
 62
     7
176
     1
 90
        5
176
     1
 90
        0
176
     1
 90
        0
176
     1
290
     0
176
     1
 90
        1
176
     1
 40
0.0
176
     1
 90
        0
176
     1
290
     0
176
     1
290
     1
176
     1
290
     1
176
     1
290
     0
176
     1
290
     0
176
     1
290
     0
176
     1
290
     0
176
     1
290
     0
176
     1
290
     0
176
     1
 90
       50
176
     1
 40
0.0
176
     1
 40
1.0
176
     1
 90
        0
176
     1
 62
    18
420
        0
176
     1
 90
       50
176
     1
 90
        3
176
     1
 62
     5
420
      255
176
     1
290
     0
176
     1
 90
       50
176
     1
 90
       50
176
     1
 90
       50
176
     1
290
     0
176
     1
 90
       50
176
     1
 62
   256
176
     0
 40
1.0
176
     0
 90
        2
176
     1
  1
strokes_ogs.tif
176
     1
290
     0
176
     1
 40
1.0
176
     1
 40
1.0
176
     1
  0
VISUALSTYLE
  5
2B
102
{ACAD_REACTORS
330
2A
102
}
330
2A
100
AcDbVisualStyle
  2
Flat
 70
     0
177
     3
291
     1
 70
    58
 90
        2
176
     1
 90
        1
176
     1
 90
        1
176
     1
 90
        2
176
     1
 40
0.6
176
     1
 40
30.0
176
     1
 62
     7
420
 16777215
176
     1
 90
        0
176
     1
 90
        0
176
     1
 62
     7
176
     1
 62
   257
176
     1
 90
        1
176
     1
 90
        1
176
     1
 40
1.0
176
     1
 90
        8
176
     1
 62
     7
176
     1
 40
1.0
176
     1
 90
        1
176
     1
 90
        6
176
     1
 90
        2
176
     1
 62
     7
176
     1
 90
        5
176
     1
 90
        0
176
     1
 90
        0
176
     1
290
     0
176
     1
 90
       13
176
     1
 40
0.0
176
     1
 90
        0
176
     1
290
     0
176
     1
290
     1
176
     1
290
     1
176
     1
290
     0
176
     1
290
     0
176
     1
290
     0
176
     1
290
     0
176
     1
290
     0
176
     1
290
     0
176
     1
 90
       50
176
     1
 40
0.0
176
     1
 40
1.0
176
     1
 90
        0
176
     1
 62
    18
420
        0
176
     1
 90
       50
176
     1
 90
        3
176
     1
 62
     5
420
      255
176
     1
290
     0
176
     1
 90
       50
176
     1
 90
       50
176
     1
 90
       50
176
     1
290
     0
176
     1
 90
       50
176
     1
 62
   256
176
     0
 40
1.0
176
     0
 90
        2
176
     1
  1
strokes_ogs.tif
176
     1
290
     0
176
     1
 40
1.0
176
     1
 40
1.0
176
     1
  0
VISUALSTYLE
  5
2C
102
{ACAD_REACTORS
330
2A
102
}
330
2A
100
AcDbVisualStyle
  2
FlatWithEdges
 70
     1
177
     3
291
     1
 70
    58
 90
        2
176
     1
 90
        1
176
     1
 90
        1
176
     1
 90
        2
176
     1
 40
0.6
176
     1
 40
30.0
176
     1
 62
     7
420
 16777215
176
     1
 90
        1
176
     1
 90
        0
176
     1
 62
     7
176
     1
 62
   257
176
     1
 90
        1
176
     1
 90
        1
176
     1
 40
1.0
176
     1
 90
        0
176
     1
 62
   257
176
     1
 40
1.0
176
     1
 90
        1
176
     1
 90
        6
176
     1
 90
        2
176
     1
 62
     7
176
     1
 90
        5
176
     1
 90
        0
176
     1
 90
        0
176
     1
290
     0
176
     1
 90
       13
176
     1
 40
0.0
176
     1
 90
        0
176
     1
290
     0
176
     1
290
     1
176
     1
290
     1
176
     1
290
     0
176
     1
290
     0
176
     1
290
     0
176
     1
290
     0
176
     1
290
     0
176
     1
290
     0
176
     1
 90
       50
176
     1
 40
0.0
176
     1
 40
1.0
176
     1
 90
        0
176
     1
 62
    18
420
        0
176
     1
 90
       50
176
     1
 90
        3
176
     1
 62
     5
420
      255
176
     1
290
     0
176
     1
 90
       50
176
     1
 90
       50
176
     1
 90
       50
176
     1
290
     0
176
     1
 90
       50
176
     1
 62
   256
176
     0
 40
1.0
176
     0
 90
        2
176
     1
  1
strokes_ogs.tif
176
     1
290
     0
176
     1
 40
1.0
176
     1
 40
1.0
176
     1
  0
VISUALSTYLE
  5
2D
102
{ACAD_REACTORS
330
2A
102
}
330
2A
100
AcDbVisualStyle
  2
Gouraud
 70
     2
177
     3
291
     1
 70
    58
 90
        2
176
     1
 90
        2
176
     1
 90
        1
176
     1
 90
        2
176
     1
 40
0.6
176
     1
 40
30.0
176
     1
 62
     7
420
 16777215
176
     1
 90
        0
176
     1
 90
        0
176
     1
 62
     7
176
     1
 62
   257
176
     1
 90
        1
176
     1
 90
        1
176
     1
 40
1.0
176
     1
 90
        0
176
     1
 62
     7
176
     1
 40
1.0
176
     1
 90
        1
176
     1
 90
        6
176
     1
 90
        2
176
     1
 62
     7
176
     1
 90
        5
176
     1
 90
        0
176
     1
 90
        0
176
     1
290
     0
176
     1
 90
       13
176
     1
 40
0.0
176
     1
 90
        0
176
     1
290
     0
176
     1
290
     1
176
     1
290
     1
176
     1
290
     0
176
     1
290
     0
176
     1
290
     0
176
     1
290
     0
176
     1
290
     0
176
     1
290
     0
176
     1
 90
       50
176
     1
 40
0.0
176
     1
 40
1.0
176
     1
 90
        0
176
     1
 62
    18
420
        0
176
     1
 90
       50
176
     1
 90
        3
176
     1
 62
     5
420
      255
176
     1
290
     0
176
     1
 90
       50
176
     1
 90
       50
176
     1
 90
       50
176
     1
290
     0
176
     1
 90
       50
176
     1
 62
   256
176
     0
 40
1.0
176
     0
 90
        2
176
     1
  1
strokes_ogs.tif
176
     1
290
     0
176
     1
 40
1.0
176
     1
 40
1.0
176
     1
  0
VISUALSTYLE
  5
2E
102
{ACAD_REACTORS
330
2A
102
}
330
2A
100
AcDbVisualStyle
  2
GouraudWithEdges
 70
     3
177
     3
291
     1
 70
    58
 90
        2
176
     1
 90
        2
176
     1
 90
        1
176
     1
 90
        2
176
     1
 40
0.6
176
     1
 40
30.0
176
     1
 62
     7
420
 16777215
176
     1
 90
        1
176
     1
 90
        0
176
     1
 62
     7
176
     1
 62
   257
176
     1
 90
        1
176
     1
 90
        1
176
     1
 40
1.0
176
     1
 90
        0
176
     1
 62
   257
176
     1
 40
1.0
176
     1
 90
        1
176
     1
 90
        6
176
     1
 90
        2
176
     1
 62
     7
176
     1
 90
        5
176
     1
 90
        0
176
     1
 90
        0
176
     1
290
     0
176
     1
 90
       13
176
     1
 40
0.0
176
     1
 90
        0
176
     1
290
     0
176
     1
290
     1
176
     1
290
     1
176
     1
290
     0
176
     1
290
     0
176
     1
290
     0
176
     1
290
     0
176
     1
290
     0
176
     1
290
     0
176
     1
 90
       50
176
     1
 40
0.0
176
     1
 40
1.0
176
     1
 90
        0
176
     1
 62
    18
420
        0
176
     1
 90
       50
176
     1
 90
        3
176
     1
 62
     5
420
      255
176
     1
290
     0
176
     1
 90
       50
176
     1
 90
       50
176
     1
 90
       50
176
     1
290
     0
176
     1
 90
       50
176
     1
 62
   256
176
     0
 40
1.0
176
     0
 90
        2
176
     1
  1
strokes_ogs.tif
176
     1
290
     0
176
     1
 40
1.0
176
     1
 40
1.0
176
     1
  0
VISUALSTYLE
  5
31
102
{ACAD_REACTORS
330
2A
102
}
330
2A
100
AcDbVisualStyle
  2
Hidden
 70
     6
177
     3
291
     0
 70
    58
 90
        1
176
     1
 90
        2
176
     1
 90
        2
176
     1
 90
        0
176
     1
 40
0.6
176
     1
 40
30.0
176
     1
 62
     7
420
 16777215
176
     1
 90
        2
176
     1
 90
        2
176
     1
 62
     7
176
     1
 62
   257
176
     1
 90
        2
176
     1
 90
        1
176
     1
 40
40.0
176
     1
 90
        0
176
     1
 62
   257
176
     1
 40
1.0
176
     1
 90
        1
176
     1
 90
        6
176
     1
 90
        2
176
     1
 62
     7
176
     1
 90
        3
176
     1
 90
        0
176
     1
 90
        0
176
     1
290
     0
176
     1
 90
        1
176
     1
 40
0.0
176
     1
 90
        0
176
     1
290
     0
176
     1
290
     1
176
     1
290
     1
176
     1
290
     0
176
     1
290
     0
176
     1
290
     0
176
     1
290
     0
176
     1
290
     0
176
     1
290
     0
176
     1
 90
       50
176
     1
 40
0.0
176
     1
 40
1.0
176
     1
 90
        0
176
     1
 62
    18
420
        0
176
     1
 90
       50
176
     1
 90
        3
176
     1
 62
     5
420
      255
176
     1
290
     0
176
     1
 90
       50
176
     1
 90
       50
176
     1
 90
       50
176
     1
290
     0
176
     1
 90
       50
176
     1
 62
   256
176
     0
 40
1.0
176
     0
 90
        2
176
     1
  1
strokes_ogs.tif
176
     1
290
     0
176
     1
 40
1.0
176
     1
 40
1.0
176
     1
  0
VISUALSTYLE
  5
3B
102
{ACAD_REACTORS
330
2A
102
}
330
2A
100
AcDbVisualStyle
  2
JitterOff
 70
    20
177
     3
291
     1
 70
    58
 90
        2
176
     0
 90
        2
176
     0
 90
        0
176
     0
 90
        0
176
     0
 40
0.6
176
     0
 40
30.0
176
     0
 62
     7
420
 16777215
176
     0
 90
        1
176
     0
 90
        4
176
     0
 62
     7
176
     0
 62
   257
176
     0
 90
        1
176
     0
 90
        1
176
     0
 40
1.0
176
     0
 90
       10
176
     2
 62
     7
176
     0
 40
1.0
176
     0
 90
        1
176
     0
 90
        6
176
     0
 90
        2
176
     0
 62
     7
176
     0
 90
        5
176
     0
 90
        0
176
     0
 90
        0
176
     0
290
     0
176
     0
 90
        1
176
     0
 40
0.0
176
     0
 90
        0
176
     0
290
     0
176
     0
290
     1
176
     0
290
     1
176
     0
290
     0
176
     0
290
     0
176
     0
290
     0
176
     0
290
     0
176
     0
290
     0
176
     0
290
     0
176
     0
 90
       50
176
     0
 40
0.0
176
     0
 40
1.0
176
     0
 90
        0
176
     0
 62
    18
420
        0
176
     0
 90
       50
176
     0
 90
        3
176
     0
 62
     5
420
      255
176
     0
290
     0
176
     0
 90
       50
176
     0
 90
       50
176
     0
 90
       50
176
     0
290
     0
176
     0
 90
       50
176
     0
 62
   256
176
     0
 40
1.0
176
     0
 90
        2
176
     0
  1
strokes_ogs.tif
176
     0
290
     0
176
     0
 40
1.0
176
     0
 40
1.0
176
     0
  0
VISUALSTYLE
  5
38
102
{ACAD_REACTORS
330
2A
102
}
330
2A
100
AcDbVisualStyle
  2
Linepattern
 70
    14
177
     3
291
     1
 70
    58
 90
        2
176
     1
 90
        2
176
     1
 90
        0
176
     1
 90
        0
176
     1
 40
0.6
176
     1
 40
30.0
176
     1
 62
     7
420
 16777215
176
     1
 90
        1
176
     1
 90
        4
176
     1
 62
     7
176
     1
 62
   257
176
     1
 90
        7
176
     1
 90
        7
176
     1
 40
1.0
176
     1
 90
        8
176
     1
 62
     7
176
     1
 40
1.0
176
     1
 90
        1
176
     1
 90
        6
176
     1
 90
        2
176
     1
 62
     7
176
     1
 90
        5
176
     1
 90
        0
176
     1
 90
        0
176
     1
290
     0
176
     1
 90
        1
176
     1
 40
0.0
176
     1
 90
        0
176
     1
290
     0
176
     1
290
     1
176
     1
290
     1
176
     1
290
     0
176
     1
290
     0
176
     1
290
     0
176
     1
290
     0
176
     1
290
     0
176
     1
290
     0
176
     1
 90
       50
176
     1
 40
0.0
176
     1
 40
1.0
176
     1
 90
        0
176
     1
 62
    18
420
        0
176
     1
 90
       50
176
     1
 90
        3
176
     1
 62
     5
420
      255
176
     1
290
     0
176
     1
 90
       50
176
     1
 90
       50
176
     1
 90
       50
176
     1
290
     0
176
     1
 90
       50
176
     1
 62
   256
176
     0
 40
1.0
176
     0
 90
        2
176
     1
  1
strokes_ogs.tif
176
     1
290
     0
176
     1
 40
1.0
176
     1
 40
1.0
176
     1
  0
VISUALSTYLE
  5
3C
102
{ACAD_REACTORS
330
2A
102
}
330
2A
100
AcDbVisualStyle
  2
OverhangOff
 70
    21
177
     3
291
     1
 70
    58
 90
        2
176
     0
 90
        2
176
     0
 90
        0
176
     0
 90
        0
176
     0
 40
0.6
176
     0
 40
30.0
176
     0
 62
     7
420
 16777215
176
     0
 90
        1
176
     0
 90
        4
176
     0
 62
     7
176
     0
 62
   257
176
     0
 90
        1
176
     0
 90
        1
176
     0
 40
1.0
176
     0
 90
        9
176
     2
 62
     7
176
     0
 40
1.0
176
     0
 90
        1
176
     0
 90
        6
176
     0
 90
        2
176
     0
 62
     7
176
     0
 90
        5
176
     0
 90
        0
176
     0
 90
        0
176
     0
290
     0
176
     0
 90
        1
176
     0
 40
0.0
176
     0
 90
        0
176
     0
290
     0
176
     0
290
     1
176
     0
290
     1
176
     0
290
     0
176
     0
290
     0
176
     0
290
     0
176
     0
290
     0
176
     0
290
     0
176
     0
290
     0
176
     0
 90
       50
176
     0
 40
0.0
176
     0
 40
1.0
176
     0
 90
        0
176
     0
 62
    18
420
        0
176
     0
 90
       50
176
     0
 90
        3
176
     0
 62
     5
420
      255
176
     0
290
     0
176
     0
 90
       50
176
     0
 90
       50
176
     0
 90
       50
176
     0
290
     0
176
     0
 90
       50
176
     0
 62
   256
176
     0
 40
1.0
176
     0
 90
        2
176
     0
  1
strokes_ogs.tif
176
     0
290
     0
176
     0
 40
1.0
176
     0
 40
1.0
176
     0
  0
VISUALSTYLE
  5
33
102
{ACAD_REACTORS
330
2A
102
}
330
2A
100
AcDbVisualStyle
  2
Realistic
 70
     8
177
     3
291
     0
 70
    58
 90
        2
176
     1
 90
        3
176
     1
 90
        0
176
     1
 90
        2
176
     1
 40
0.6
176
     1
 40
30.0
176
     1
 62
     7
420
 16777215
176
     1
 90
        0
176
     1
 90
        0
176
     1
 62
     7
176
     1
 62
   257
176
     1
 90
        1
176
     1
 90
        1
176
     1
 40
1.0
176
     1
 90
        8
176
     1
 62
   257
176
     1
 40
1.0
176
     1
 90
        1
176
     1
 90
        6
176
     1
 90
        2
176
     1
 62
     7
176
     1
 90
        3
176
     1
 90
        0
176
     1
 90
        0
176
     1
290
     0
176
     1
 90
       13
176
     1
 40
0.0
176
     1
 90
        0
176
     1
290
     0
176
     1
290
     1
176
     1
290
     1
176
     1
290
     0
176
     1
290
     0
176
     1
290
     0
176
     1
290
     0
176
     1
290
     0
176
     1
290
     0
176
     1
 90
       50
176
     1
 40
0.0
176
     1
 40
1.0
176
     1
 90
        0
176
     1
 62
    18
420
        0
176
     1
 90
       50
176
     1
 90
        3
176
     1
 62
     5
420
      255
176
     1
290
     0
176
     1
 90
       50
176
     1
 90
       50
176
     1
 90
       50
176
     1
290
     0
176
     1
 90
       50
176
     1
 62
   256
176
     0
 40
1.0
176
     0
 90
        2
176
     1
  1
strokes_ogs.tif
176
     1
290
     0
176
     1
 40
1.0
176
     1
 40
1.0
176
     1
  0
VISUALSTYLE
  5
42
102
{ACAD_REACTORS
330
2A
102
}
330
2A
100
AcDbVisualStyle
  2
Shaded
 70
    27
177
     3
291
     0
 70
    58
 90
        2
176
     1
 90
        2
176
     1
 90
        1
176
     1
 90
        2
176
     1
 40
0.6
176
     1
 40
30.0
176
     1
 62
     7
420
 16777215
176
     1
 90
        0
176
     1
 90
        4
176
     1
 62
     7
176
     1
 62
   257
176
     1
 90
        1
176
     1
 90
        1
176
     1
 40
1.0
176
     1
 90
        8
176
     1
 62
   257
176
     1
 40
1.0
176
     1
 90
        1
176
     1
 90
        6
176
     1
 90
        2
176
     1
 62
     8
420
  7895160
176
     1
 90
        3
176
     1
 90
        0
176
     1
 90
        0
176
     1
290
     0
176
     1
 90
        5
176
     1
 40
0.0
176
     1
 90
        0
176
     1
290
     0
176
     1
290
     1
176
     1
290
     1
176
     1
290
     0
176
     1
290
     0
176
     1
290
     0
176
     1
290
     0
176
     1
290
     0
176
     1
290
     0
176
     1
 90
       50
176
     1
 40
0.0
176
     1
 40
1.0
176
     1
 90
        0
176
     1
 62
    18
420
        0
176
     1
 90
       50
176
     1
 90
        3
176
     1
 62
     5
420
      255
176
     1
290
     0
176
     1
 90
       50
176
     1
 90
       50
176
     1
 90
       50
176
     1
290
     0
176
     1
 90
       50
176
     1
 62
   256
176
     0
 40
1.0
176
     0
 90
        2
176
     1
  1
strokes_ogs.tif
176
     1
290
     0
176
     1
 40
1.0
176
     1
 40
1.0
176
     1
  0
VISUALSTYLE
  5
41
102
{ACAD_REACTORS
330
2A
102
}
330
2A
100
AcDbVisualStyle
  2
Shaded with edges
 70
    26
177
     3
291
     0
 70
    58
 90
        2
176
     1
 90
        2
176
     1
 90
        1
176
     1
 90
        2
176
     1
 40
0.6
176
     1
 40
30.0
176
     1
 62
     7
420
 16777215
176
     1
 90
        1
176
     1
 90
       10
176
     1
 62
     7
176
     1
 62
   257
176
     1
 90
        2
176
     1
 90
        1
176
     1
 40
1.0
176
     1
 90
        8
176
     1
 62
   257
176
     1
 40
1.0
176
     1
 90
        1
176
     1
 90
        6
176
     1
 90
        2
176
     1
 62
     7
176
     1
 90
        3
176
     1
 90
        0
176
     1
 90
        0
176
     1
290
     0
176
     1
 90
        5
176
     1
 40
0.0
176
     1
 90
        0
176
     1
290
     0
176
     1
290
     1
176
     1
290
     1
176
     1
290
     0
176
     1
290
     0
176
     1
290
     0
176
     1
290
     0
176
     1
290
     0
176
     1
290
     0
176
     1
 90
       50
176
     1
 40
0.0
176
     1
 40
1.0
176
     1
 90
        0
176
     1
 62
    18
420
        0
176
     1
 90
       50
176
     1
 90
        3
176
     1
 62
     5
420
      255
176
     1
290
     0
176
     1
 90
       50
176
     1
 90
       50
176
     1
 90
       50
176
     1
290
     0
176
     1
 90
       50
176
     1
 62
   256
176
     0
 40
1.0
176
     0
 90
        2
176
     1
  1
strokes_ogs.tif
176
     1
290
     0
176
     1
 40
1.0
176
     1
 40
1.0
176
     1
  0
VISUALSTYLE
  5
3E
102
{ACAD_REACTORS
330
2A
102
}
330
2A
100
AcDbVisualStyle
  2
Shades of Gray
 70
    23
177
     3
291
     0
 70
    58
 90
        2
176
     1
 90
        2
176
     1
 90
        3
176
     1
 90
        0
176
     1
 40
0.6
176
     1
 40
30.0
176
     1
 62
     7
420
 16777215
176
     1
 90
        2
176
     1
 90
        2
176
     1
 62
     7
176
     1
 62
     7
176
     1
 90
        1
176
     1
 90
        1
176
     1
 40
40.0
176
     1
 90
        8
176
     1
 62
     7
176
     1
 40
1.0
176
     1
 90
        1
176
     1
 90
        6
176
     1
 90
        2
176
     1
 62
     7
176
     1
 90
        3
176
     1
 90
        0
176
     1
 90
        0
176
     1
290
     0
176
     1
 90
        1
176
     1
 40
0.0
176
     1
 90
        0
176
     1
290
     0
176
     1
290
     1
176
     1
290
     1
176
     1
290
     0
176
     1
290
     0
176
     1
290
     0
176
     1
290
     0
176
     1
290
     0
176
     1
290
     0
176
     1
 90
       50
176
     1
 40
0.0
176
     1
 40
1.0
176
     1
 90
        0
176
     1
 62
    18
420
        0
176
     1
 90
       50
176
     1
 90
        3
176
     1
 62
     5
420
      255
176
     1
290
     0
176
     1
 90
       50
176
     1
 90
       50
176
     1
 90
       50
176
     1
290
     0
176
     1
 90
       50
176
     1
 62
   256
176
     0
 40
1.0
176
     0
 90
        2
176
     1
  1
strokes_ogs.tif
176
     1
290
     0
176
     1
 40
1.0
176
     1
 40
1.0
176
     1
  0
VISUALSTYLE
  5
3F
102
{ACAD_REACTORS
330
2A
102
}
330
2A
100
AcDbVisualStyle
  2
Sketchy
 70
    24
177
     3
291
     0
 70
    58
 90
        1
176
     1
 90
        2
176
     1
 90
        2
176
     1
 90
        0
176
     1
 40
0.6
176
     1
 40
30.0
176
     1
 62
     7
420
 16777215
176
     1
 90
        2
176
     1
 90
        2
176
     1
 62
     7
176
     1
 62
     7
176
     1
 90
        1
176
     1
 90
        1
176
     1
 40
40.0
176
     1
 90
       11
176
     1
 62
     7
176
     1
 40
1.0
176
     1
 90
        1
176
     1
 90
        6
176
     1
 90
        2
176
     1
 62
     7
176
     1
 90
        6
176
     1
 90
        0
176
     1
 90
        0
176
     1
290
     0
176
     1
 90
        1
176
     1
 40
0.0
176
     1
 90
        0
176
     1
290
     0
176
     1
290
     1
176
     1
290
     1
176
     1
290
     0
176
     1
290
     0
176
     1
290
     0
176
     1
290
     0
176
     1
290
     0
176
     1
290
     0
176
     1
 90
       50
176
     1
 40
0.0
176
     1
 40
1.0
176
     1
 90
        0
176
     1
 62
    18
420
        0
176
     1
 90
       50
176
     1
 90
        3
176
     1
 62
     5
420
      255
176
     1
290
     0
176
     1
 90
       50
176
     1
 90
       50
176
     1
 90
       50
176
     1
290
     0
176
     1
 90
       50
176
     1
 62
   256
176
     0
 40
1.0
176
     0
 90
        2
176
     1
  1
strokes_ogs.tif
176
     1
290
     0
176
     1
 40
1.0
176
     1
 40
1.0
176
     1
  0
VISUALSTYLE
  5
37
102
{ACAD_REACTORS
330
2A
102
}
330
2A
100
AcDbVisualStyle
  2
Thicken
 70
    13
177
     3
291
     1
 70
    58
 90
        2
176
     1
 90
        2
176
     1
 90
        0
176
     1
 90
        0
176
     1
 40
0.6
176
     1
 40
30.0
176
     1
 62
     7
420
 16777215
176
     1
 90
        1
176
     1
 90
        4
176
     1
 62
     7
176
     1
 62
   257
176
     1
 90
        1
176
     1
 90
        1
176
     1
 40
1.0
176
     1
 90
       12
176
     1
 62
     7
176
     1
 40
1.0
176
     1
 90
        1
176
     1
 90
        6
176
     1
 90
        2
176
     1
 62
     7
176
     1
 90
        5
176
     1
 90
        0
176
     1
 90
        0
176
     1
290
     0
176
     1
 90
        1
176
     1
 40
0.0
176
     1
 90
        0
176
     1
290
     0
176
     1
290
     1
176
     1
290
     1
176
     1
290
     0
176
     1
290
     0
176
     1
290
     0
176
     1
290
     0
176
     1
290
     0
176
     1
290
     0
176
     1
 90
       50
176
     1
 40
0.0
176
     1
 40
1.0
176
     1
 90
        0
176
     1
 62
    18
420
        0
176
     1
 90
       50
176
     1
 90
        3
176
     1
 62
     5
420
      255
176
     1
290
     0
176
     1
 90
       50
176
     1
 90
       50
176
     1
 90
       50
176
     1
290
     0
176
     1
 90
       50
176
     1
 62
   256
176
     0
 40
1.0
176
     0
 90
        2
176
     1
  1
strokes_ogs.tif
176
     1
290
     0
176
     1
 40
1.0
176
     1
 40
1.0
176
     1
  0
VISUALSTYLE
  5
30
102
{ACAD_REACTORS
330
2A
102
}
330
2A
100
AcDbVisualStyle
  2
Wireframe
 70
     5
177
     3
291
     0
 70
    58
 90
        0
176
     1
 90
        2
176
     1
 90
        0
176
     1
 90
        0
176
     1
 40
0.6
176
     1
 40
30.0
176
     1
 62
     7
420
 16777215
176
     1
 90
        1
176
     1
 90
        4
176
     1
 62
     7
176
     1
 62
   257
176
     1
 90
        1
176
     1
 90
        1
176
     1
 40
1.0
176
     1
 90
        0
176
     1
 62
   257
176
     1
 40
1.0
176
     1
 90
        1
176
     1
 90
        6
176
     1
 90
        2
176
     1
 62
     7
176
     1
 90
        3
176
     1
 90
        0
176
     1
 90
        0
176
     1
290
     0
176
     1
 90
        1
176
     1
 40
0.0
176
     1
 90
        0
176
     1
290
     0
176
     1
290
     1
176
     1
290
     1
176
     1
290
     0
176
     1
290
     0
176
     1
290
     0
176
     1
290
     0
176
     1
290
     0
176
     1
290
     0
176
     1
 90
       50
176
     1
 40
0.0
176
     1
 40
1.0
176
     1
 90
        0
176
     1
 62
    18
420
        0
176
     1
 90
       50
176
     1
 90
        3
176
     1
 62
     5
420
      255
176
     1
290
     0
176
     1
 90
       50
176
     1
 90
       50
176
     1
 90
       50
176
     1
290
     0
176
     1
 90
       50
176
     1
 62
   256
176
     0
 40
1.0
176
     0
 90
        2
176
     1
  1
strokes_ogs.tif
176
     1
290
     0
176
     1
 40
1.0
176
     1
 40
1.0
176
     1
  0
VISUALSTYLE
  5
40
102
{ACAD_REACTORS
330
2A
102
}
330
2A
100
AcDbVisualStyle
  2
X-Ray
 70
    25
177
     3
291
     0
 70
    58
 90
        2
176
     1
 90
        2
176
     1
 90
        1
176
     1
 90
        1
176
     1
 40
0.5
176
     1
 40
30.0
176
     1
 62
     7
420
 16777215
176
     1
 90
        1
176
     1
 90
        0
176
     1
 62
     7
176
     1
 62
   257
176
     1
 90
        1
176
     1
 90
        1
176
     1
 40
1.0
176
     1
 90
        8
176
     1
 62
     7
176
     1
 40
1.0
176
     1
 90
        1
176
     1
 90
        6
176
     1
 90
        2
176
     1
 62
     7
176
     1
 90
        3
176
     1
 90
        0
176
     1
 90
        0
176
     1
290
     0
176
     1
 90
       13
176
     1
 40
0.0
176
     1
 90
        0
176
     1
290
     0
176
     1
290
     1
176
     1
290
     1
176
     1
290
     0
176
     1
290
     0
176
     1
290
     0
176
     1
290
     0
176
     1
290
     0
176
     1
290
     0
176
     1
 90
       50
176
     1
 40
0.0
176
     1
 40
1.0
176
     1
 90
        0
176
     1
 62
    18
420
        0
176
     1
 90
       50
176
     1
 90
        3
176
     1
 62
     5
420
      255
176
     1
290
     0
176
     1
 90
       50
176
     1
 90
       50
176
     1
 90
       50
176
     1
290
     0
176
     1
 90
       50
176
     1
 62
   256
176
     0
 40
1.0
176
     0
 90
        2
176
     1
  1
strokes_ogs.tif
176
     1
290
     0
176
     1
 40
1.0
176
     1
 40
1.0
176
     1
  0
DICTIONARYVAR
  5
10F
102
{ACAD_REACTORS
330
10E
102
}
330
10E
100
DictionaryVariables
280
     0
  1
1:1
  0
DICTIONARYVAR
  5
117
102
{ACAD_REACTORS
330
10E
102
}
330
10E
100
DictionaryVariables
280
     0
  1
3.500000
  0
DICTIONARYVAR
  5
118
102
{ACAD_REACTORS
330
10E
102
}
330
10E
100
DictionaryVariables
280
     0
  1
acadiso.lin
  0
DICTIONARYVAR
  5
114
102
{ACAD_REACTORS
330
10E
102
}
330
10E
100
DictionaryVariables
280
     0
  1
Standard
  0
DICTIONARYVAR
  5
113
102
{ACAD_REACTORS
330
10E
102
}
330
10E
100
DictionaryVariables
280
     0
  1
Standard
  0
DICTIONARY
  5
110
330
5A
100
AcDbDictionary
280
     1
281
     1
  3
ACAD_ROUNDTRIP_2008_TABLESTYLE_CELLSTYLEMAP
360
111
  0
CELLSTYLEMAP
  5
111
102
{ACAD_REACTORS
330
110
102
}
330
110
100
AcDbCellStyleMap
 90
        3
300
CELLSTYLE
  1
TABLEFORMAT_BEGIN
 90
        5
170
     1
 91
        0
 92
    32768
 62
   257
 93
        1
300
CONTENTFORMAT
  1
CONTENTFORMAT_BEGIN
 90
        0
 91
        0
 92
        4
 93
        0
300

 40
0.0
140
1.0
 94
        5
 62
     0
340
11
144
6.0
309
CONTENTFORMAT_END
171
     1
301
MARGIN
  1
CELLMARGIN_BEGIN
 40
1.5
 40
1.5
 40
1.5
 40
1.5
 40
1.5
 40
1.5
309
CELLMARGIN_END
 94
        6
 95
        1
302
GRIDFORMAT
  1
GRIDFORMAT_BEGIN
 90
        0
 91
        1
 62
     0
 92
       -2
340
14
 93
        0
 40
0.045
309
GRIDFORMAT_END
 95
        2
302
GRIDFORMAT
  1
GRIDFORMAT_BEGIN
 90
        0
 91
        1
 62
     0
 92
       -2
340
14
 93
        0
 40
0.045
309
GRIDFORMAT_END
 95
        4
302
GRIDFORMAT
  1
GRIDFORMAT_BEGIN
 90
        0
 91
        1
 62
     0
 92
       -2
340
14
 93
        0
 40
0.045
309
GRIDFORMAT_END
 95
        8
302
GRIDFORMAT
  1
GRIDFORMAT_BEGIN
 90
        0
 91
        1
 62
     0
 92
       -2
340
14
 93
        0
 40
0.045
309
GRIDFORMAT_END
 95
       16
302
GRIDFORMAT
  1
GRIDFORMAT_BEGIN
 90
        0
 91
        1
 62
     0
 92
       -2
340
14
 93
        0
 40
0.045
309
GRIDFORMAT_END
 95
       32
302
GRIDFORMAT
  1
GRIDFORMAT_BEGIN
 90
        0
 91
        1
 62
     0
 92
       -2
340
14
 93
        0
 40
0.045
309
GRIDFORMAT_END
309
TABLEFORMAT_END
  1
CELLSTYLE_BEGIN
 90
        1
 91
        1
300
_TITLE
309
CELLSTYLE_END
300
CELLSTYLE
  1
TABLEFORMAT_BEGIN
 90
        5
170
     1
 91
        0
 92
        0
 62
   257
 93
        1
300
CONTENTFORMAT
  1
CONTENTFORMAT_BEGIN
 90
        0
 91
        0
 92
        4
 93
        0
300

 40
0.0
140
1.0
 94
        5
 62
     0
340
11
144
4.5
309
CONTENTFORMAT_END
171
     1
301
MARGIN
  1
CELLMARGIN_BEGIN
 40
1.5
 40
1.5
 40
1.5
 40
1.5
 40
1.5
 40
1.5
309
CELLMARGIN_END
 94
        6
 95
        1
302
GRIDFORMAT
  1
GRIDFORMAT_BEGIN
 90
        0
 91
        1
 62
     0
 92
       -2
340
14
 93
        0
 40
0.045
309
GRIDFORMAT_END
 95
        2
302
GRIDFORMAT
  1
GRIDFORMAT_BEGIN
 90
        0
 91
        1
 62
     0
 92
       -2
340
14
 93
        0
 40
0.045
309
GRIDFORMAT_END
 95
        4
302
GRIDFORMAT
  1
GRIDFORMAT_BEGIN
 90
        0
 91
        1
 62
     0
 92
       -2
340
14
 93
        0
 40
0.045
309
GRIDFORMAT_END
 95
        8
302
GRIDFORMAT
  1
GRIDFORMAT_BEGIN
 90
        0
 91
        1
 62
     0
 92
       -2
340
14
 93
        0
 40
0.045
309
GRIDFORMAT_END
 95
       16
302
GRIDFORMAT
  1
GRIDFORMAT_BEGIN
 90
        0
 91
        1
 62
     0
 92
       -2
340
14
 93
        0
 40
0.045
309
GRIDFORMAT_END
 95
       32
302
GRIDFORMAT
  1
GRIDFORMAT_BEGIN
 90
        0
 91
        1
 62
     0
 92
       -2
340
14
 93
        0
 40
0.045
309
GRIDFORMAT_END
309
TABLEFORMAT_END
  1
CELLSTYLE_BEGIN
 90
        2
 91
        1
300
_HEADER
309
CELLSTYLE_END
300
CELLSTYLE
  1
TABLEFORMAT_BEGIN
 90
        5
170
     1
 91
        0
 92
        0
 62
   257
 93
        1
300
CONTENTFORMAT
  1
CONTENTFORMAT_BEGIN
 90
        0
 91
        0
 92
        4
 93
        0
300

 40
0.0
140
1.0
 94
        2
 62
     0
340
11
144
4.5
309
CONTENTFORMAT_END
171
     1
301
MARGIN
  1
CELLMARGIN_BEGIN
 40
1.5
 40
1.5
 40
1.5
 40
1.5
 40
1.5
 40
1.5
309
CELLMARGIN_END
 94
        6
 95
        1
302
GRIDFORMAT
  1
GRIDFORMAT_BEGIN
 90
        0
 91
        1
 62
     0
 92
       -2
340
14
 93
        0
 40
0.045
309
GRIDFORMAT_END
 95
        2
302
GRIDFORMAT
  1
GRIDFORMAT_BEGIN
 90
        0
 91
        1
 62
     0
 92
       -2
340
14
 93
        0
 40
0.045
309
GRIDFORMAT_END
 95
        4
302
GRIDFORMAT
  1
GRIDFORMAT_BEGIN
 90
        0
 91
        1
 62
     0
 92
       -2
340
14
 93
        0
 40
0.045
309
GRIDFORMAT_END
 95
        8
302
GRIDFORMAT
  1
GRIDFORMAT_BEGIN
 90
        0
 91
        1
 62
     0
 92
       -2
340
14
 93
        0
 40
0.045
309
GRIDFORMAT_END
 95
       16
302
GRIDFORMAT
  1
GRIDFORMAT_BEGIN
 90
        0
 91
        1
 62
     0
 92
       -2
340
14
 93
        0
 40
0.045
309
GRIDFORMAT_END
 95
       32
302
GRIDFORMAT
  1
GRIDFORMAT_BEGIN
 90
        0
 91
        1
 62
     0
 92
       -2
340
14
 93
        0
 40
0.045
309
GRIDFORMAT_END
309
TABLEFORMAT_END
  1
CELLSTYLE_BEGIN
 90
        3
 91
        2
300
_DATA
309
CELLSTYLE_END
  0
ENDSEC
  0
EOF
