  0
SECTION
  2
HEADER
  9
$ACADVER
  1
AC1027
  9
$ACADMAINTVER
 70
   105
  9
$DWGCODEPAGE
  3
ANSI_1252
  9
$LASTSAVEDBY
  1
Nick
  9
$REQUIREDVERSIONS
160
                 0
  9
$INSBASE
 10
0.0
 20
0.0
 30
0.0
  9
$EXTMIN
 10
0.0
 20
0.0
 30
0.0
  9
$EXTMAX
 10
420.0
 20
297.0
 30
0.0
  9
$LIMMIN
 10
0.0
 20
0.0
  9
$LIMMAX
 10
420.0
 20
297.0
  9
$ORTHOMODE
 70
     0
  9
$REGENMODE
 70
     1
  9
$FILLMODE
 70
     1
  9
$QTEXTMODE
 70
     0
  9
$MIRRTEXT
 70
     1
  9
$LTSCALE
 40
1.0
  9
$ATTMODE
 70
     1
  9
$TEXTSIZE
 40
4.2333333333
  9
$TRACEWID
 40
1.0
  9
$TEXTSTYLE
  7
Standard
  9
$CLAYER
  8
0
  9
$CELTYPE
  6
ByLayer
  9
$CECOLOR
 62
   256
  9
$CELTSCALE
 40
1.0
  9
$DISPSILH
 70
     0
  9
$DIMSCALE
 40
1.0
  9
$DIMASZ
 40
3.302
  9
$DIMEXO
 40
1.0
  9
$DIMDLI
 40
3.75
  9
$DIMRND
 40
0.0
  9
$DIMDLE
 40
0.0
  9
$DIMEXE
 40
1.0
  9
$DIMTP
 40
0.0
  9
$DIMTM
 40
0.0
  9
$DIMTXT
 40
4.2333333333
  9
$DIMCEN
 40
2.5
  9
$DIMTSZ
 40
0.0
  9
$DIMTOL
 70
     0
  9
$DIMLIM
 70
     0
  9
$DIMTIH
 70
     1
  9
$DIMTOH
 70
     1
  9
$DIMSE1
 70
     0
  9
$DIMSE2
 70
     0
  9
$DIMTAD
 70
     1
  9
$DIMZIN
 70
     1
  9
$DIMBLK
  1

  9
$DIMASO
 70
     1
  9
$DIMSHO
 70
     1
  9
$DIMPOST
  1

  9
$DIMAPOST
  1

  9
$DIMALT
 70
     0
  9
$DIMALTD
 70
     3
  9
$DIMALTF
 40
0.0393700787
  9
$DIMLFAC
 40
1.0
  9
$DIMTOFL
 70
     1
  9
$DIMTVP
 40
0.0
  9
$DIMTIX
 70
     0
  9
$DIMSOXD
 70
     0
  9
$DIMSAH
 70
     0
  9
$DIMBLK1
  1

  9
$DIMBLK2
  1

  9
$DIMSTYLE
  2
ISO-25
  9
$DIMCLRD
 70
     0
  9
$DIMCLRE
 70
     0
  9
$DIMCLRT
 70
     0
  9
$DIMTFAC
 40
1.0
  9
$DIMGAP
 40
1.524
  9
$DIMJUST
 70
     0
  9
$DIMSD1
 70
     0
  9
$DIMSD2
 70
     0
  9
$DIMTOLJ
 70
     0
  9
$DIMTZIN
 70
     1
  9
$DIMALTZ
 70
     0
  9
$DIMALTTZ
 70
     0
  9
$DIMUPT
 70
     0
  9
$DIMDEC
 70
     0
  9
$DIMTDEC
 70
     0
  9
$DIMALTU
 70
     2
  9
$DIMALTTD
 70
     3
  9
$DIMTXSTY
  7
Standard
  9
$DIMAUNIT
 70
     0
  9
$DIMADEC
 70
     2
  9
$DIMALTRND
 40
0.0
  9
$DIMAZIN
 70
     0
  9
$DIMDSEP
 70
    44
  9
$DIMATFIT
 70
     3
  9
$DIMFRAC
 70
     0
  9
$DIMLDRBLK
  1

  9
$DIMLUNIT
 70
     2
  9
$DIMLWD
 70
    -2
  9
$DIMLWE
 70
    -2
  9
$DIMTMOVE
 70
     0
  9
$DIMFXL
 40
1.0
  9
$DIMFXLON
 70
     0
  9
$DIMJOGANG
 40
0.7853981634
  9
$DIMTFILL
 70
     0
  9
$DIMTFILLCLR
 70
     0
  9
$DIMARCSYM
 70
     0
  9
$DIMLTYPE
  6

  9
$DIMLTEX1
  6

  9
$DIMLTEX2
  6

  9
$DIMTXTDIRECTION
 70
     0
  9
$LUNITS
 70
     2
  9
$LUPREC
 70
     0
  9
$SKETCHINC
 40
1.0
  9
$FILLETRAD
 40
0.0
  9
$AUNITS
 70
     0
  9
$AUPREC
 70
     2
  9
$MENU
  1
.
  9
$ELEVATION
 40
0.0
  9
$PELEVATION
 40
0.0
  9
$THICKNESS
 40
0.0
  9
$LIMCHECK
 70
     0
  9
$CHAMFERA
 40
0.0
  9
$CHAMFERB
 40
0.0
  9
$CHAMFERC
 40
0.0
  9
$CHAMFERD
 40
0.0
  9
$SKPOLY
 70
     0
  9
$TDCREATE
 40
2460934.573473507
  9
$TDUCREATE
 40
2460934.15680684
  9
$TDUPDATE
 40
2460934.573473739
  9
$TDUUPDATE
 40
2460934.156807072
  9
$TDINDWG
 40
0.0000000116
  9
$TDUSRTIMER
 40
0.0000000116
  9
$USRTIMER
 70
     1
  9
$ANGBASE
 50
0.0
  9
$ANGDIR
 70
     0
  9
$PDMODE
 70
     0
  9
$PDSIZE
 40
-1.0
  9
$PLINEWID
 40
0.0
  9
$SPLFRAME
 70
     0
  9
$SPLINETYPE
 70
     6
  9
$SPLINESEGS
 70
     8
  9
$HANDSEED
  5
109
  9
$SURFTAB1
 70
     6
  9
$SURFTAB2
 70
     6
  9
$SURFTYPE
 70
     6
  9
$SURFU
 70
     6
  9
$SURFV
 70
     6
  9
$UCSBASE
  2

  9
$UCSNAME
  2

  9
$UCSORG
 10
0.0
 20
0.0
 30
0.0
  9
$UCSXDIR
 10
1.0
 20
0.0
 30
0.0
  9
$UCSYDIR
 10
0.0
 20
1.0
 30
0.0
  9
$UCSORTHOREF
  2

  9
$UCSORTHOVIEW
 70
     0
  9
$UCSORGTOP
 10
0.0
 20
0.0
 30
0.0
  9
$UCSORGBOTTOM
 10
0.0
 20
0.0
 30
0.0
  9
$UCSORGLEFT
 10
0.0
 20
0.0
 30
0.0
  9
$UCSORGRIGHT
 10
0.0
 20
0.0
 30
0.0
  9
$UCSORGFRONT
 10
0.0
 20
0.0
 30
0.0
  9
$UCSORGBACK
 10
0.0
 20
0.0
 30
0.0
  9
$PUCSBASE
  2

  9
$PUCSNAME
  2

  9
$PUCSORG
 10
0.0
 20
0.0
 30
0.0
  9
$PUCSXDIR
 10
1.0
 20
0.0
 30
0.0
  9
$PUCSYDIR
 10
0.0
 20
1.0
 30
0.0
  9
$PUCSORTHOREF
  2

  9
$PUCSORTHOVIEW
 70
     0
  9
$PUCSORGTOP
 10
0.0
 20
0.0
 30
0.0
  9
$PUCSORGBOTTOM
 10
0.0
 20
0.0
 30
0.0
  9
$PUCSORGLEFT
 10
0.0
 20
0.0
 30
0.0
  9
$PUCSORGRIGHT
 10
0.0
 20
0.0
 30
0.0
  9
$PUCSORGFRONT
 10
0.0
 20
0.0
 30
0.0
  9
$PUCSORGBACK
 10
0.0
 20
0.0
 30
0.0
  9
$USERI1
 70
     0
  9
$USERI2
 70
     0
  9
$USERI3
 70
     0
  9
$USERI4
 70
     0
  9
$USERI5
 70
     0
  9
$USERR1
 40
0.0
  9
$USERR2
 40
0.0
  9
$USERR3
 40
0.0
  9
$USERR4
 40
0.0
  9
$USERR5
 40
0.0
  9
$WORLDVIEW
 70
     1
  9
$SHADEDGE
 70
     3
  9
$SHADEDIF
 70
    70
  9
$TILEMODE
 70
     1
  9
$MAXACTVP
 70
    64
  9
$PINSBASE
 10
0.0
 20
0.0
 30
0.0
  9
$PLIMCHECK
 70
     0
  9
$PEXTMIN
 10
1.0000000000E+20
 20
1.0000000000E+20
 30
1.0000000000E+20
  9
$PEXTMAX
 10
-1.0000000000E+20
 20
-1.0000000000E+20
 30
-1.0000000000E+20
  9
$PLIMMIN
 10
0.0
 20
0.0
  9
$PLIMMAX
 10
420.0
 20
297.0
  9
$UNITMODE
 70
     0
  9
$VISRETAIN
 70
     1
  9
$PLINEGEN
 70
     0
  9
$PSLTSCALE
 70
     1
  9
$TREEDEPTH
 70
  3020
  9
$CMLSTYLE
  2
Standard
  9
$CMLJUST
 70
     0
  9
$CMLSCALE
 40
20.0
  9
$PROXYGRAPHICS
 70
     1
  9
$MEASUREMENT
 70
     1
  9
$CELWEIGHT
370
    -1
  9
$ENDCAPS
280
     0
  9
$JOINSTYLE
280
     0
  9
$LWDISPLAY
290
     1
  9
$INSUNITS
 70
     4
  9
$HYPERLINKBASE
  1

  9
$STYLESHEET
  1

  9
$XEDIT
290
     1
  9
$CEPSNTYPE
380
     0
  9
$PSTYLEMODE
290
     1
  9
$FINGERPRINTGUID
  2
{ab426da5-d228-45b4-8ad2-79f0da9a51d1}
  9
$VERSIONGUID
  2
{FAEB1C32-E019-11D5-929B-00C0DF256EC4}
  9
$EXTNAMES
290
     1
  9
$PSVPSCALE
 40
0.0
  9
$OLESTARTUP
290
     0
  9
$SORTENTS
280
   127
  9
$INDEXCTL
280
     0
  9
$HIDETEXT
280
     1
  9
$XCLIPFRAME
280
     2
  9
$HALOGAP
280
     0
  9
$OBSCOLOR
 70
   257
  9
$OBSLTYPE
280
     0
  9
$INTERSECTIONDISPLAY
280
     0
  9
$INTERSECTIONCOLOR
 70
   257
  9
$DIMASSOC
280
     2
  9
$PROJECTNAME
  1

  9
$CAMERADISPLAY
290
     0
  9
$LENSLENGTH
 40
50.0
  9
$CAMERAHEIGHT
 40
0.0
  9
$STEPSPERSEC
 40
2.0
  9
$STEPSIZE
 40
6.0
  9
$3DDWFPREC
 40
2.0
  9
$PSOLWIDTH
 40
5.0
  9
$PSOLHEIGHT
 40
80.0
  9
$LOFTANG1
 40
1.5707963268
  9
$LOFTANG2
 40
1.5707963268
  9
$LOFTMAG1
 40
0.0
  9
$LOFTMAG2
 40
0.0
  9
$LOFTPARAM
 70
     7
  9
$LOFTNORMALS
280
     1
  9
$LATITUDE
 40
37.795
  9
$LONGITUDE
 40
-122.394
  9
$NORTHDIRECTION
 40
0.0
  9
$TIMEZONE
 70
 -8000
  9
$LIGHTGLYPHDISPLAY
280
     1
  9
$TILEMODELIGHTSYNCH
280
     1
  9
$CMATERIAL
347
44
  9
$SOLIDHIST
280
     0
  9
$SHOWHIST
280
     1
  9
$DWFFRAME
280
     2
  9
$DGNFRAME
280
     2
  9
$REALWORLDSCALE
290
     1
  9
$INTERFERECOLOR
 62
   256
  9
$CSHADOW
280
     0
  9
$SHADOWPLANELOCATION
 40
0.0
  0
ENDSEC
  0
SECTION
  2
CLASSES
  0
CLASS
  1
ACDBDICTIONARYWDFLT
  2
AcDbDictionaryWithDefault
  3
ObjectDBX Classes
 90
        0
 91
        3
280
     0
281
     0
  0
CLASS
  1
VISUALSTYLE
  2
AcDbVisualStyle
  3
ObjectDBX Classes
 90
     4095
 91
        3
280
     0
281
     0
  0
CLASS
  1
MATERIAL
  2
AcDbMaterial
  3
ObjectDBX Classes
 90
     1153
 91
        3
280
     0
281
     0
  0
CLASS
  1
SCALE
  2
AcDbScale
  3
ObjectDBX Classes
 90
     1153
 91
        3
280
     0
281
     0
  0
CLASS
  1
TABLESTYLE
  2
AcDbTableStyle
  3
ObjectDBX Classes
 90
     4095
 91
        3
280
     0
281
     0
  0
CLASS
  1
MLEADERSTYLE
  2
AcDbMLeaderStyle
  3
ACDB_MLEADERSTYLE_CLASS
 90
     4095
 91
        3
280
     0
281
     0
  0
CLASS
  1
SUN
  2
AcDbSun
  3
SCENEOE
 90
     1153
 91
        3
280
     0
281
     0
  0
CLASS
  1
DICTIONARYVAR
  2
AcDbDictionaryVar
  3
ObjectDBX Classes
 90
        0
 91
        3
280
     0
281
     0
  0
CLASS
  1
CELLSTYLEMAP
  2
AcDbCellStyleMap
  3
ObjectDBX Classes
 90
     1152
 91
        3
280
     0
281
     0
  0
ENDSEC
  0
SECTION
  2
TABLES
  0
TABLE
  2
VPORT
  5
8
330
0
100
AcDbSymbolTable
 70
     1
  0
VPORT
  5
29
330
8
100
AcDbSymbolTableRecord
100
AcDbViewportTableRecord
  2
*Active
 70
     0
 10
0.0
 20
0.0
 11
1.0
 21
1.0
 12
210.0
 22
148.5
 13
0.0
 23
0.0
 14
10.0
 24
10.0
 15
10.0
 25
10.0
 16
0.0
 26
0.0
 36
1.0
 17
0.0
 27
0.0
 37
0.0
 40
297.0
 41
1.4141414141
 42
50.0
 43
0.0
 44
0.0
 50
0.0
 51
0.0
 71
     0
 72
  2000
 73
     1
 74
     3
 75
     0
 76
     0
 77
     0
 78
     0
281
     0
 65
     1
110
0.0
120
0.0
130
0.0
111
1.0
121
0.0
131
0.0
112
0.0
122
1.0
132
0.0
 79
     0
146
0.0
348
2F
 60
     3
 61
     5
292
     1
282
     1
141
0.0
142
0.0
 63
   250
361
5D
  0
ENDTAB
  0
TABLE
  2
LTYPE
  5
5
330
0
100
AcDbSymbolTable
 70
     6
  0
LTYPE
  5
14
330
5
100
AcDbSymbolTableRecord
100
AcDbLinetypeTableRecord
  2
ByBlock
 70
     0
  3

 72
    65
 73
     0
 40
0.0
  0
LTYPE
  5
15
330
5
100
AcDbSymbolTableRecord
100
AcDbLinetypeTableRecord
  2
ByLayer
 70
     0
  3

 72
    65
 73
     0
 40
0.0
  0
LTYPE
  5
16
330
5
100
AcDbSymbolTableRecord
100
AcDbLinetypeTableRecord
  2
Continuous
 70
     0
  3
Solid line
 72
    65
 73
     0
 40
0.0
  0
LTYPE
  5
5E
330
5
100
AcDbSymbolTableRecord
100
AcDbLinetypeTableRecord
  2
HIDDEN
 70
     0
  3
Hidden __ __ __ __ __ __ __ __ __ __ __ __ __ __
 72
    65
 73
     2
 40
1.905
 49
1.27
 74
     0
 49
-0.635
 74
     0
  0
LTYPE
  5
5F
330
5
100
AcDbSymbolTableRecord
100
AcDbLinetypeTableRecord
  2
PHANTOM
 70
     0
  3
Phantom ______  __  __  ______  __  __  ______
 72
    65
 73
     6
 40
12.7
 49
6.35
 74
     0
 49
-1.27
 74
     0
 49
1.27
 74
     0
 49
-1.27
 74
     0
 49
1.27
 74
     0
 49
-1.27
 74
     0
  0
LTYPE
  5
60
330
5
100
AcDbSymbolTableRecord
100
AcDbLinetypeTableRecord
  2
CENTER
 70
     0
  3
Center ____ _ ____ _ ____ _ ____ _ ____ _ ____
 72
    65
 73
     4
 40
10.16
 49
6.35
 74
     0
 49
-1.27
 74
     0
 49
1.27
 74
     0
 49
-1.27
 74
     0
  0
LTYPE
  5
61
330
5
100
AcDbSymbolTableRecord
100
AcDbLinetypeTableRecord
  2
CENTERX2
 70
     0
  3
Center (2x) ________  __  ________  __  _____
 72
    65
 73
     4
 40
20.32
 49
12.7
 74
     0
 49
-2.54
 74
     0
 49
2.54
 74
     0
 49
-2.54
 74
     0
  0
LTYPE
  5
62
330
5
100
AcDbSymbolTableRecord
100
AcDbLinetypeTableRecord
  2
DOT2
 70
     0
  3
Dot (.5x) ........................................
 72
    65
 73
     2
 40
0.635
 49
0.0
 74
     0
 49
-0.635
 74
     0
  0
ENDTAB
  0
TABLE
  2
LAYER
  5
2
330
0
100
AcDbSymbolTable
 70
    13
  0
LAYER
  5
10
330
2
100
AcDbSymbolTableRecord
100
AcDbLayerTableRecord
  2
0
 70
     0
 62
     7
  6
Continuous
370
    -3
390
F
347
46
348
0
  0
LAYER
  5
63
330
2
100
AcDbSymbolTableRecord
100
AcDbLayerTableRecord
  2
DRAWING-SHEET
 70
     0
 62
   179
  6
Continuous
370
    -3
390
F
347
46
348
0
  0
LAYER
  5
64
330
2
100
AcDbSymbolTableRecord
100
AcDbLayerTableRecord
  2
BORDER
 70
     0
 62
   179
  6
Continuous
370
    -3
390
F
347
46
348
0
  0
LAYER
  5
65
330
2
100
AcDbSymbolTableRecord
100
AcDbLayerTableRecord
  2
DIMENSIONS
 70
     0
 62
     7
  6
Continuous
370
    -3
390
F
347
46
348
0
  0
LAYER
  5
66
330
2
100
AcDbSymbolTableRecord
100
AcDbLayerTableRecord
  2
CENTRE_LINES
 70
     0
 62
     7
  6
Continuous
370
    -3
390
F
347
46
348
0
  0
LAYER
  5
67
330
2
100
AcDbSymbolTableRecord
100
AcDbLayerTableRecord
  2
FORMAT
 70
     0
 62
     7
  6
Continuous
370
    -3
390
F
347
46
348
0
  0
LAYER
  5
68
330
2
100
AcDbSymbolTableRecord
100
AcDbLayerTableRecord
  2
SLD-0
 70
     0
 62
   179
  6
Continuous
370
    -3
390
F
347
46
348
0
  0
LAYER
  5
69
330
2
100
AcDbSymbolTableRecord
100
AcDbLayerTableRecord
  2
OUTLINE
 70
     0
 62
     4
  6
Continuous
370
    -3
390
F
347
46
348
0
  0
LAYER
  5
6A
330
2
100
AcDbSymbolTableRecord
100
AcDbLayerTableRecord
  2
4
 70
     0
 62
     7
  6
Continuous
370
    70
390
F
347
46
348
0
  0
LAYER
  5
6B
330
2
100
AcDbSymbolTableRecord
100
AcDbLayerTableRecord
  2
TEXT25
 70
     0
 62
   179
  6
Continuous
370
    -3
390
F
347
46
348
0
  0
LAYER
  5
6C
330
2
100
AcDbSymbolTableRecord
100
AcDbLayerTableRecord
  2
TEXT35
 70
     0
 62
     7
  6
Continuous
370
    -3
390
F
347
46
348
0
  0
LAYER
  5
6D
330
2
100
AcDbSymbolTableRecord
100
AcDbLayerTableRecord
  2
TEXT5
 70
     0
 62
     7
  6
Continuous
370
    -3
390
F
347
46
348
0
  0
LAYER
  5
6E
330
2
100
AcDbSymbolTableRecord
100
AcDbLayerTableRecord
  2
5
 70
     0
 62
     7
  6
Continuous
370
    35
390
F
347
46
348
0
  0
ENDTAB
  0
TABLE
  2
STYLE
  5
3
330
0
100
AcDbSymbolTable
 70
     3
  0
STYLE
  5
11
330
3
100
AcDbSymbolTableRecord
100
AcDbTextStyleTableRecord
  2
Standard
 70
     0
 40
0.0
 41
1.0
 50
0.0
 71
     0
 42
4.2333333333
  3
txt
  4

  0
STYLE
  5
75
330
3
100
AcDbSymbolTableRecord
100
AcDbTextStyleTableRecord
  2
SLDTEXTSTYLE0
 70
     0
 40
0.0
 41
0.75
 50
0.0
 71
     0
 42
4.2333333333
  3
TXT
  4

  0
STYLE
  5
7B
330
3
100
AcDbSymbolTableRecord
100
AcDbTextStyleTableRecord
  2
SLDTEXTSTYLE1
 70
     0
 40
0.0
 41
0.6
 50
0.0
 71
     0
 42
4.2333333333
  3
TXT
  4

  0
ENDTAB
  0
TABLE
  2
VIEW
  5
6
330
0
100
AcDbSymbolTable
 70
     0
  0
ENDTAB
  0
TABLE
  2
UCS
  5
7
330
0
100
AcDbSymbolTable
 70
     0
  0
ENDTAB
  0
TABLE
  2
APPID
  5
9
330
0
100
AcDbSymbolTable
 70
     1
  0
APPID
  5
12
330
9
100
AcDbSymbolTableRecord
100
AcDbRegAppTableRecord
  2
ACAD
 70
     0
  0
ENDTAB
  0
TABLE
  2
DIMSTYLE
  5
A
330
0
100
AcDbSymbolTable
 70
     1
100
AcDbDimStyleTable
  0
DIMSTYLE
105
27
330
A
100
AcDbSymbolTableRecord
100
AcDbDimStyleTableRecord
  2
ISO-25
 70
     0
 41
2.5
 42
0.625
 43
3.75
 44
1.25
 73
     0
 74
     0
 77
     1
 78
     8
140
2.5
141
2.5
143
0.0393700787
147
0.625
171
     3
172
     1
178
     0
271
     2
272
     2
274
     3
278
    44
283
     0
284
     8
340
11
  0
ENDTAB
  0
TABLE
  2
BLOCK_RECORD
  5
1
330
0
100
AcDbSymbolTable
 70
     6
  0
BLOCK_RECORD
  5
1F
330
1
100
AcDbSymbolTableRecord
100
AcDbBlockTableRecord
  2
*Model_Space
340
22
 70
     0
280
     1
281
     0
  0
BLOCK_RECORD
  5
1B
330
1
100
AcDbSymbolTableRecord
100
AcDbBlockTableRecord
  2
*Paper_Space
340
1E
 70
     0
280
     1
281
     0
  0
BLOCK_RECORD
  5
23
330
1
100
AcDbSymbolTableRecord
100
AcDbBlockTableRecord
  2
*Paper_Space0
340
26
 70
     0
280
     1
281
     0
  0
BLOCK_RECORD
  5
6F
330
1
100
AcDbSymbolTableRecord
100
AcDbBlockTableRecord
  2
Block1
340
0
 70
     0
280
     1
281
     0
  0
BLOCK_RECORD
  5
72
330
1
100
AcDbSymbolTableRecord
100
AcDbBlockTableRecord
  2
SW_NOTE_0
340
0
102
{BLKREFS
331
77
102
}
 70
     0
280
     1
281
     0
  0
BLOCK_RECORD
  5
78
330
1
100
AcDbSymbolTableRecord
100
AcDbBlockTableRecord
  2
SW_NOTE_0_1
340
0
102
{BLKREFS
331
7D
102
}
 70
     0
280
     1
281
     0
  0
BLOCK_RECORD
  5
7E
330
1
100
AcDbSymbolTableRecord
100
AcDbBlockTableRecord
  2
SW_NOTE_0_2
340
0
102
{BLKREFS
331
82
102
}
 70
     0
280
     1
281
     0
  0
BLOCK_RECORD
  5
83
330
1
100
AcDbSymbolTableRecord
100
AcDbBlockTableRecord
  2
SW_NOTE_0_3
340
0
102
{BLKREFS
331
87
102
}
 70
     0
280
     1
281
     0
  0
ENDTAB
  0
ENDSEC
  0
SECTION
  2
BLOCKS
  0
BLOCK
  5
20
330
1F
100
AcDbEntity
  8
0
100
AcDbBlockBegin
  2
*Model_Space
 70
     0
 10
0.0
 20
0.0
 30
0.0
  3
*Model_Space
  1

  0
ENDBLK
  5
21
330
1F
100
AcDbEntity
  8
0
100
AcDbBlockEnd
  0
BLOCK
  5
1C
330
1B
100
AcDbEntity
 67
     1
  8
0
100
AcDbBlockBegin
  2
*Paper_Space
 70
     0
 10
0.0
 20
0.0
 30
0.0
  3
*Paper_Space
  1

  0
ENDBLK
  5
1D
330
1B
100
AcDbEntity
 67
     1
  8
0
100
AcDbBlockEnd
  0
BLOCK
  5
24
330
23
100
AcDbEntity
  8
0
100
AcDbBlockBegin
  2
*Paper_Space0
 70
     0
 10
0.0
 20
0.0
 30
0.0
  3
*Paper_Space0
  1

  0
ENDBLK
  5
25
330
23
100
AcDbEntity
  8
0
100
AcDbBlockEnd
  0
BLOCK
  5
70
330
6F
100
AcDbEntity
  8
0
100
AcDbBlockBegin
  2
Block1
 70
     0
 10
0.0
 20
0.0
 30
0.0
  3
Block1
  1

  0
INSERT
  5
77
330
6F
100
AcDbEntity
  8
0
  6
Continuous
 62
     7
370
     0
100
AcDbBlockReference
  2
SW_NOTE_0
 10
40.5248655077
 20
20.5912386523
 30
0.0
  0
INSERT
  5
7D
330
6F
100
AcDbEntity
  8
DRAWING-SHEET
 62
     7
100
AcDbBlockReference
  2
SW_NOTE_0_1
 10
3.556761253
 20
-0.3611706024
 30
0.0
  0
INSERT
  5
82
330
6F
100
AcDbEntity
  8
DRAWING-SHEET
 62
     7
100
AcDbBlockReference
  2
SW_NOTE_0_2
 10
7.9590819428
 20
3.0109637777
 30
0.0
  0
INSERT
  5
87
330
6F
100
AcDbEntity
  8
DRAWING-SHEET
 62
     7
100
AcDbBlockReference
  2
SW_NOTE_0_3
 10
0.0721004934
 20
6.5234823937
 30
0.0
  0
ENDBLK
  5
71
330
6F
100
AcDbEntity
  8
0
100
AcDbBlockEnd
  0
BLOCK
  5
73
330
72
100
AcDbEntity
  8
0
100
AcDbBlockBegin
  2
SW_NOTE_0
 70
     0
 10
0.0
 20
0.0
 30
0.0
  3
SW_NOTE_0
  1

  0
MTEXT
  5
76
330
72
100
AcDbEntity
  8
0
  6
Continuous
 62
     0
370
     0
100
AcDbMText
 10
0.0
 20
1.9336016097
 30
0.0
 40
1.5
 41
0.0
 46
0.0
 71
     1
 72
     1
  1
TITLE:
  7
SLDTEXTSTYLE0
 73
     1
 44
1.0
  0
ENDBLK
  5
74
330
72
100
AcDbEntity
  8
0
100
AcDbBlockEnd
  0
BLOCK
  5
79
330
78
100
AcDbEntity
  8
0
100
AcDbBlockBegin
  2
SW_NOTE_0_1
 70
     0
 10
0.0
 20
0.0
 30
0.0
  3
SW_NOTE_0_1
  1

  0
MTEXT
  5
7C
330
78
100
AcDbEntity
  8
DRAWING-SHEET
 62
     0
100
AcDbMText
 10
0.0
 20
2.7285267159
 30
0.0
 40
2.1166666667
 41
0.0
 46
0.0
 71
     1
 72
     1
  1
Email: roddyeng.com.au
  7
SLDTEXTSTYLE1
 73
     1
 44
1.0
  0
ENDBLK
  5
7A
330
78
100
AcDbEntity
  8
0
100
AcDbBlockEnd
  0
BLOCK
  5
7F
330
7E
100
AcDbEntity
  8
0
100
AcDbBlockBegin
  2
SW_NOTE_0_2
 70
     0
 10
0.0
 20
0.0
 30
0.0
  3
SW_NOTE_0_2
  1

  0
MTEXT
  5
81
330
7E
100
AcDbEntity
  8
DRAWING-SHEET
 62
     0
100
AcDbMText
 10
0.0
 20
2.7285267159
 30
0.0
 40
2.1166666667
 41
0.0
 46
0.0
 71
     1
 72
     1
  1
Ph: - 02 6947 4039
  7
SLDTEXTSTYLE1
 73
     1
 44
1.0
  0
ENDBLK
  5
80
330
7E
100
AcDbEntity
  8
0
100
AcDbBlockEnd
  0
BLOCK
  5
84
330
83
100
AcDbEntity
  8
0
100
AcDbBlockBegin
  2
SW_NOTE_0_3
 70
     0
 10
0.0
 20
0.0
 30
0.0
  3
SW_NOTE_0_3
  1

  0
MTEXT
  5
86
330
83
100
AcDbEntity
  8
DRAWING-SHEET
 62
     0
100
AcDbMText
 10
0.0
 20
2.7285267159
 30
0.0
 40
2.1166666667
 41
0.0
 46
0.0
 71
     1
 72
     1
  1
14 Waratah St TUMUT NSW 2720
  7
SLDTEXTSTYLE1
 73
     1
 44
1.0
  0
ENDBLK
  5
85
330
83
100
AcDbEntity
  8
0
100
AcDbBlockEnd
  0
ENDSEC
  0
SECTION
  2
ENTITIES
  0
SPLINE
  5
88
330
1F
100
AcDbEntity
  8
0
  6
Continuous
 62
     7
370
    25
100
AcDbSpline
210
0.0
220
0.0
230
1.0
 70
     8
 71
     3
 72
    19
 73
    15
 74
     0
 42
0.00000001
 43
0.00000001
 40
0.0
 40
0.0
 40
0.0
 40
0.0
 40
0.074058426273383
 40
0.1488703523168785
 40
0.2266676683691797
 40
0.3077347594511144
 40
0.39115720380598
 40
0.4739293555425543
 40
0.5579277515150556
 40
0.6449892900513604
 40
0.7333640555176183
 40
0.8210920421841613
 40
0.9092872149973381
 40
1.0
 40
1.0
 40
1.0
 40
1.0
 10
922.6668602670437
 20
833.366715484035
 30
0.0
 10
922.6705983792673
 20
833.4519670460501
 30
0.0
 10
922.678112636749
 20
833.6233375532482
 30
0.0
 10
922.7388745123726
 20
833.8784372636953
 30
0.0
 10
922.8378918072597
 20
834.1289894123222
 30
0.0
 10
922.9725683718613
 20
834.3737796130547
 30
0.0
 10
923.1403105801958
 20
834.6045229608538
 30
0.0
 10
923.3415598278092
 20
834.8114736952197
 30
0.0
 10
923.5715102205423
 20
834.9927570837569
 30
0.0
 10
923.8290139165503
 20
835.1449311928964
 30
0.0
 10
924.106125312513
 20
835.2687795558392
 30
0.0
 10
924.3985041099608
 20
835.3542159508534
 30
0.0
 10
924.7010560943228
 20
835.4100699318989
 30
0.0
 10
924.9069937385481
 20
835.4163937139303
 30
0.0
 10
925.0114115490951
 20
835.4196000994195
 30
0.0
  0
SPLINE
  5
89
330
1F
100
AcDbEntity
  8
0
  6
Continuous
 62
     7
370
    25
100
AcDbSpline
210
0.0
220
0.0
230
1.0
 70
     8
 71
     3
 72
    15
 73
    11
 74
     0
 42
0.00000001
 43
0.00000001
 40
0.0
 40
0.0
 40
0.0
 40
0.0
 40
0.1458600603916679
 40
0.2824259030758202
 40
0.410850400357552
 40
0.5350294213479304
 40
0.6547010781259424
 40
0.7701334325965028
 40
0.8845558441988611
 40
1.0
 40
1.0
 40
1.0
 40
1.0
 10
923.835129497813
 20
831.6712026635221
 30
0.0
 10
923.7423492128473
 20
831.7217964203674
 30
0.0
 10
923.5627006119989
 20
831.8197600947868
 30
0.0
 10
923.3248276036962
 20
831.9997527944283
 30
0.0
 10
923.120506178658
 20
832.1946963711488
 30
0.0
 10
922.9553525383944
 20
832.4087073307452
 30
0.0
 10
922.8253588742294
 20
832.635100186297
 30
0.0
 10
922.7361734924084
 20
832.8724584774499
 30
0.0
 10
922.6758386718277
 20
833.116381022605
 30
0.0
 10
922.6698619240763
 20
833.2830237576399
 30
0.0
 10
922.6668602670437
 20
833.366715484035
 30
0.0
  0
SPLINE
  5
8A
330
1F
100
AcDbEntity
  8
0
  6
Continuous
 62
     7
370
    25
100
AcDbSpline
210
0.0
220
0.0
230
1.0
 70
     8
 71
     3
 72
    23
 73
    19
 74
     0
 42
0.00000001
 43
0.00000001
 40
0.0
 40
0.0
 40
0.0
 40
0.0
 40
0.0588535860286696
 40
0.1163154589633518
 40
0.172674843411458
 40
0.2287803868809004
 40
0.2845803591252759
 40
0.3402565063845453
 40
0.3966298050124567
 40
0.4535072628751916
 40
0.5123181897799954
 40
0.5726484440568309
 40
0.6360219358218017
 40
0.7023629463891925
 40
0.7714830560569291
 40
0.8441844774898998
 40
0.9200697939721535
 40
1.0
 40
1.0
 40
1.0
 40
1.0
 10
922.2566038567874
 20
829.4788949712145
 30
0.0
 10
922.2579247277101
 20
829.5350302672986
 30
0.0
 10
922.2605352348686
 20
829.6459734258835
 30
0.0
 10
922.2786034593965
 20
829.8098804619641
 30
0.0
 10
922.307651370947
 20
829.9694144843054
 30
0.0
 10
922.3471015579036
 20
830.1251647555681
 30
0.0
 10
922.4005667612597
 20
830.2759973784724
 30
0.0
 10
922.465120208447
 20
830.4226270325968
 30
0.0
 10
922.5403932426804
 20
830.5652192587548
 30
0.0
 10
922.6274359056564
 20
830.7045538440552
 30
0.0
 10
922.7286976748021
 20
830.8386784434365
 30
0.0
 10
922.8433574457437
 20
830.9698692882589
 30
0.0
 10
922.9737068598353
 20
831.0960906988582
 30
0.0
 10
923.1182957944651
 20
831.2188848129535
 30
0.0
 10
923.275471884672
 20
831.34042989597
 30
0.0
 10
923.4493176686383
 20
831.4541572756527
 30
0.0
 10
923.6352245664457
 20
831.5681183379681
 30
0.0
 10
923.7673512078339
 20
831.6362516532498
 30
0.0
 10
923.835129497813
 20
831.6712026635221
 30
0.0
  0
SPLINE
  5
8B
330
1F
100
AcDbEntity
  8
0
  6
Continuous
 62
     7
370
    25
100
AcDbSpline
210
0.0
220
0.0
230
1.0
 70
     8
 71
     3
 72
    23
 73
    19
 74
     0
 42
0.00000001
 43
0.00000001
 40
0.0
 40
0.0
 40
0.0
 40
0.0
 40
0.0785564333527028
 40
0.1528628401420925
 40
0.2235596934382879
 40
0.2903749439782092
 40
0.3554030728222045
 40
0.4182911570440929
 40
0.4803885637756464
 40
0.5430726152062793
 40
0.6049239444620949
 40
0.6643983091133006
 40
0.7219425547367038
 40
0.7783748910546743
 40
0.8338299406509401
 40
0.8888612363188853
 40
0.9440889395778875
 40
1.0
 40
1.0
 40
1.0
 40
1.0
 10
924.9633346260181
 20
827.0093436891631
 30
0.0
 10
924.8558754520385
 20
827.011977924488
 30
0.0
 10
924.646770814356
 20
827.0171038788648
 30
0.0
 10
924.3424099514057
 20
827.0518340081845
 30
0.0
 10
924.0587000774738
 20
827.112697703449
 30
0.0
 10
923.7939915785053
 20
827.1959996676137
 30
0.0
 10
923.5498802794439
 20
827.304365903765
 30
0.0
 10
923.3270617624772
 20
827.4392422666162
 30
0.0
 10
923.1223212544686
 20
827.5951998486988
 30
0.0
 10
922.9418721720314
 20
827.7767177417298
 30
0.0
 10
922.7816700146456
 20
827.97113573561
 30
0.0
 10
922.6409430362056
 20
828.1717108436346
 30
0.0
 10
922.5239737138564
 20
828.3784613751525
 30
0.0
 10
922.4249403530667
 20
828.5883045001489
 30
0.0
 10
922.3491277297895
 20
828.8041814238771
 30
0.0
 10
922.2966198204672
 20
829.0249814538964
 30
0.0
 10
922.2632728169395
 20
829.2503189232727
 30
0.0
 10
922.2588359371623
 20
829.4023912736133
 30
0.0
 10
922.2566038567874
 20
829.4788949712145
 30
0.0
  0
SPLINE
  5
8C
330
1F
100
AcDbEntity
  8
0
  6
Continuous
 62
     7
370
    25
100
AcDbSpline
210
0.0
220
0.0
230
1.0
 70
     8
 71
     3
 72
    15
 73
    11
 74
     0
 42
0.00000001
 43
0.00000001
 40
0.0
 40
0.0
 40
0.0
 40
0.0
 40
0.1192834503733708
 40
0.2370928820686309
 40
0.3547960442151283
 40
0.4745763009408482
 40
0.5974600658149762
 40
0.7249261546156146
 40
0.8588831991927639
 40
1.0
 40
1.0
 40
1.0
 40
1.0
 10
927.0867320619155
 20
827.8875488173683
 30
0.0
 10
927.0231058349343
 20
827.8176201906462
 30
0.0
 10
926.8966396279045
 20
827.6786270646365
 30
0.0
 10
926.6799929362104
 20
827.4981680703715
 30
0.0
 10
926.4422286303454
 20
827.3465123124444
 30
0.0
 10
926.1842667271712
 20
827.2229194106184
 30
0.0
 10
925.9067967811009
 20
827.1267231616472
 30
0.0
 10
925.6098779134202
 20
827.0575974064167
 30
0.0
 10
925.2929312781779
 20
827.018003282493
 30
0.0
 10
925.075090201342
 20
827.0122798774657
 30
0.0
 10
924.9633346260181
 20
827.0093436891631
 30
0.0
  0
SPLINE
  5
8D
330
1F
100
AcDbEntity
  8
0
  6
Continuous
 62
     7
370
    25
100
AcDbSpline
210
0.0
220
0.0
230
1.0
 70
     8
 71
     3
 72
    15
 73
    11
 74
     0
 42
0.00000001
 43
0.00000001
 40
0.0
 40
0.0
 40
0.0
 40
0.0
 40
0.128158185527677
 40
0.2536731361531684
 40
0.3773253059734882
 40
0.4993845547646058
 40
0.6229183680423441
 40
0.745839393104578
 40
0.8713952850140295
 40
1.0
 40
1.0
 40
1.0
 40
1.0
 10
927.6925012926848
 20
829.5446000994195
 30
0.0
 10
927.6907380457374
 20
829.4675767105606
 30
0.0
 10
927.68724791843
 20
829.3151185236055
 30
0.0
 10
927.6568479549455
 20
829.0900988401826
 30
0.0
 10
927.611332575553
 20
828.8715576243461
 30
0.0
 10
927.5448651189158
 20
828.6595427881972
 30
0.0
 10
927.4586630826881
 20
828.4552242205583
 30
0.0
 10
927.3524303147343
 20
828.2584270241172
 30
0.0
 10
927.2321761315418
 20
828.0659257460054
 30
0.0
 10
927.1355995847849
 20
827.9474813994389
 30
0.0
 10
927.0867320619155
 20
827.8875488173683
 30
0.0
  0
SPLINE
  5
8E
330
1F
100
AcDbEntity
  8
0
  6
Continuous
 62
     7
370
    25
100
AcDbSpline
210
0.0
220
0.0
230
1.0
 70
     8
 71
     3
 72
    23
 73
    19
 74
     0
 42
0.00000001
 43
0.00000001
 40
0.0
 40
0.0
 40
0.0
 40
0.0
 40
0.0795248295850124
 40
0.1550999763495355
 40
0.2272198200732677
 40
0.295910504191471
 40
0.3620558809471782
 40
0.4255201169126369
 40
0.4858127192253068
 40
0.5444947060018102
 40
0.6014596357222266
 40
0.6578405937966495
 40
0.7139744721931387
 40
0.7694679515974512
 40
0.8261299671813293
 40
0.882885359309069
 40
0.9407008816662019
 40
1.0
 40
1.0
 40
1.0
 40
1.0
 10
926.1460269337103
 20
831.6712026635221
 30
0.0
 10
926.2115093271959
 20
831.637058764188
 30
0.0
 10
926.339221863443
 20
831.5704667575554
 30
0.0
 10
926.5211126250662
 20
831.4632420085535
 30
0.0
 10
926.6873411993537
 20
831.3502340888585
 30
0.0
 10
926.8425196262974
 20
831.2367806959155
 30
0.0
 10
926.9839215709984
 20
831.1185369212895
 30
0.0
 10
927.1099659432483
 20
830.9950325642428
 30
0.0
 10
927.2237662173463
 20
830.8693504035696
 30
0.0
 10
927.3230274378934
 20
830.7393621974787
 30
0.0
 10
927.4103344932514
 20
830.6054132852635
 30
0.0
 10
927.4857908022881
 20
830.4671520897382
 30
0.0
 10
927.5502872659057
 20
830.3248816125482
 30
0.0
 10
927.6014025544246
 20
830.1770488584098
 30
0.0
 10
927.6435095068608
 20
830.0258254031912
 30
0.0
 10
927.6724823183849
 20
829.869258587529
 30
0.0
 10
927.688063844825
 20
829.7083800940536
 30
0.0
 10
927.6910097041194
 20
829.5996525473477
 30
0.0
 10
927.6925012926848
 20
829.5446000994195
 30
0.0
  0
SPLINE
  5
8F
330
1F
100
AcDbEntity
  8
0
  6
Continuous
 62
     7
370
    25
100
AcDbSpline
210
0.0
220
0.0
230
1.0
 70
     8
 71
     3
 72
    15
 73
    11
 74
     0
 42
0.00000001
 43
0.00000001
 40
0.0
 40
0.0
 40
0.0
 40
0.0
 40
0.1219040408698855
 40
0.2394126076020053
 40
0.3554101042801773
 40
0.4720907288033007
 40
0.5928589821563577
 40
0.7187034677136851
 40
0.8548923829515255
 40
1.0
 40
1.0
 40
1.0
 40
1.0
 10
927.2822448824284
 20
833.3442795865991
 30
0.0
 10
927.2789658866969
 20
833.2574757834979
 30
0.0
 10
927.2725261254488
 20
833.0869980478794
 30
0.0
 10
927.2183548351009
 20
832.8384802867868
 30
0.0
 10
927.1271244040129
 20
832.6057441978012
 30
0.0
 10
927.0025663171942
 20
832.3861488785553
 30
0.0
 10
926.8402223457978
 20
832.1836768840188
 30
0.0
 10
926.6422595274051
 20
831.9957535242671
 30
0.0
 10
926.4102561485358
 20
831.8208350595066
 30
0.0
 10
926.2359455514764
 20
831.7221233697311
 30
0.0
 10
926.1460269337103
 20
831.6712026635221
 30
0.0
  0
SPLINE
  5
90
330
1F
100
AcDbEntity
  8
0
  6
Continuous
 62
     7
370
    25
100
AcDbSpline
210
0.0
220
0.0
230
1.0
 70
     8
 71
     3
 72
    19
 73
    15
 74
     0
 42
0.00000001
 43
0.00000001
 40
0.0
 40
0.0
 40
0.0
 40
0.0
 40
0.089409711110136
 40
0.1763057644831058
 40
0.2626259021834181
 40
0.3494457264756545
 40
0.4354982637429564
 40
0.5189281301037145
 40
0.6013546565787405
 40
0.6842564217184176
 40
0.7658067397968339
 40
0.8448768657103879
 40
0.9222797948488742
 40
1.0
 40
1.0
 40
1.0
 40
1.0
 10
925.0114115490951
 20
835.4196000994195
 30
0.0
 10
925.1131345547889
 20
835.4162941723112
 30
0.0
 10
925.313720733423
 20
835.4097752606745
 30
0.0
 10
925.60856559646
 20
835.3554052536757
 30
0.0
 10
925.8906796020278
 20
835.2645949228273
 30
0.0
 10
926.1590898852975
 20
835.1414012695035
 30
0.0
 10
926.4089912966572
 20
834.9896596905159
 30
0.0
 10
926.6297965749515
 20
834.8058862640672
 30
0.0
 10
926.8248424765867
 20
834.5998484338483
 30
0.0
 10
926.9861782348916
 20
834.3691750548458
 30
0.0
 10
927.119121982134
 20
834.1253254693934
 30
0.0
 10
927.2116954704006
 20
833.8701882787809
 30
0.0
 10
927.2710142680518
 20
833.6092761442404
 30
0.0
 10
927.2784962432986
 20
833.4327321353113
 30
0.0
 10
927.2822448824284
 20
833.3442795865991
 30
0.0
  0
LINE
  5
91
330
1F
100
AcDbEntity
  8
0
  6
Continuous
 62
     7
370
    25
100
AcDbLine
 10
941.2726294978
 20
827.2144718943
 30
0.0
 11
936.0001936004
 21
833.4965231763
 31
0.0
  0
LINE
  5
92
330
1F
100
AcDbEntity
  8
0
  6
Continuous
 62
     7
370
    25
100
AcDbLine
 10
941.4360910363
 20
827.2144718943
 30
0.0
 11
941.2726294978
 21
827.2144718943
 31
0.0
  0
LINE
  5
93
330
1F
100
AcDbEntity
  8
0
  6
Continuous
 62
     7
370
    25
100
AcDbLine
 10
941.4360910363
 20
835.2144718943
 30
0.0
 11
941.4360910363
 21
827.2144718943
 31
0.0
  0
LINE
  5
94
330
1F
100
AcDbEntity
  8
0
  6
Continuous
 62
     7
370
    25
100
AcDbLine
 10
940.7181423183
 20
835.2144718943
 30
0.0
 11
941.4360910363
 21
835.2144718943
 31
0.0
  0
LINE
  5
95
330
1F
100
AcDbEntity
  8
0
  6
Continuous
 62
     7
370
    25
100
AcDbLine
 10
940.7181423183
 20
828.9179975353
 30
0.0
 11
940.7181423183
 21
835.2144718943
 31
0.0
  0
LINE
  5
96
330
1F
100
AcDbEntity
  8
0
  6
Continuous
 62
     7
370
    25
100
AcDbLine
 10
935.4328859081
 20
835.2144718943
 30
0.0
 11
940.7181423183
 21
828.9179975353
 31
0.0
  0
LINE
  5
97
330
1F
100
AcDbEntity
  8
0
  6
Continuous
 62
     7
370
    25
100
AcDbLine
 10
935.2822448824
 20
835.2144718943
 30
0.0
 11
935.4328859081
 21
835.2144718943
 31
0.0
  0
LINE
  5
98
330
1F
100
AcDbEntity
  8
0
  6
Continuous
 62
     7
370
    25
100
AcDbLine
 10
935.2822448824
 20
827.2144718943
 30
0.0
 11
935.2822448824
 21
835.2144718943
 31
0.0
  0
LINE
  5
99
330
1F
100
AcDbEntity
  8
0
  6
Continuous
 62
     7
370
    25
100
AcDbLine
 10
936.0001936004
 20
827.2144718943
 30
0.0
 11
935.2822448824
 21
827.2144718943
 31
0.0
  0
LINE
  5
9A
330
1F
100
AcDbEntity
  8
0
  6
Continuous
 62
     7
370
    25
100
AcDbLine
 10
936.0001936004
 20
833.4965231763
 30
0.0
 11
936.0001936004
 21
827.2144718943
 31
0.0
  0
SPLINE
  5
9B
330
1F
100
AcDbEntity
  8
0
  6
Continuous
 62
     7
370
    25
100
AcDbSpline
210
0.0
220
0.0
230
1.0
 70
     8
 71
     3
 72
    23
 73
    19
 74
     0
 42
0.00000001
 43
0.00000001
 40
0.0
 40
0.0
 40
0.0
 40
0.0
 40
0.0611602766365165
 40
0.1203345577262017
 40
0.1781802550631244
 40
0.2352351259863634
 40
0.2926829614441805
 40
0.3511862482150802
 40
0.4104566095096941
 40
0.4717198544629959
 40
0.5337612027725886
 40
0.5957390238870942
 40
0.6578875151248846
 40
0.7212951802914609
 40
0.7868225145418899
 40
0.8546861538286843
 40
0.9254779862699962
 40
1.0
 40
1.0
 40
1.0
 40
1.0
 10
948.2053218055053
 20
829.4853052276246
 30
0.0
 10
948.2030890145949
 20
829.4072095199175
 30
0.0
 10
948.1986959359253
 20
829.253554027103
 30
0.0
 10
948.1662845718186
 20
829.0278280052732
 30
0.0
 10
948.1114066129823
 20
828.8121138415868
 30
0.0
 10
948.0358154212914
 20
828.60501628112
 30
0.0
 10
947.9371587022097
 20
828.4069359737584
 30
0.0
 10
947.8170947837377
 20
828.2176485132179
 30
0.0
 10
947.6739369240283
 20
828.0390557575308
 30
0.0
 10
947.5137932235668
 20
827.8691731904383
 30
0.0
 10
947.332622605307
 20
827.7164239622331
 30
0.0
 10
947.1371580226269
 20
827.5803880612473
 30
0.0
 10
946.92493786287
 20
827.4685113478405
 30
0.0
 10
946.6994475908324
 20
827.3745318701197
 30
0.0
 10
946.4581577254284
 20
827.3027439879138
 30
0.0
 10
946.2021517657488
 20
827.2525209618582
 30
0.0
 10
945.9316505044118
 20
827.21868087729
 30
0.0
 10
945.7460282161568
 20
827.215898694673
 30
0.0
 10
945.6508346260181
 20
827.2144718942914
 30
0.0
  0
SPLINE
  5
9C
330
1F
100
AcDbEntity
  8
0
  6
Continuous
 62
     7
370
    25
100
AcDbSpline
210
0.0
220
0.0
230
1.0
 70
     8
 71
     3
 72
    19
 73
    15
 74
     0
 42
0.00000001
 43
0.00000001
 40
0.0
 40
0.0
 40
0.0
 40
0.0
 40
0.1060574933033971
 40
0.2029142570846101
 40
0.2903001653958387
 40
0.3702225656250411
 40
0.4463837207709699
 40
0.5213968999648275
 40
0.5982910828464573
 40
0.6761424688569286
 40
0.7555286995560231
 40
0.8348871724576568
 40
0.9166460487466405
 40
1.0
 40
1.0
 40
1.0
 40
1.0
 10
946.6652577029412
 20
831.5301770224964
 30
0.0
 10
946.7561386803008
 20
831.4952855963464
 30
0.0
 10
946.9300165028822
 20
831.4285296548724
 30
0.0
 10
947.1692988170123
 20
831.3105057371648
 30
0.0
 10
947.3754584627177
 20
831.1821351991274
 30
0.0
 10
947.5500805106839
 20
831.0419481130846
 30
0.0
 10
947.6994237219218
 20
830.8908422598502
 30
0.0
 10
947.829830445517
 20
830.726601998711
 30
0.0
 10
947.9411021578849
 20
830.5470848378484
 30
0.0
 10
948.0364459831776
 20
830.3541624713058
 30
0.0
 10
948.1108431398089
 20
830.1498048293472
 30
0.0
 10
948.1665594926541
 20
829.935928769696
 30
0.0
 10
948.1984850906787
 20
829.7133012149661
 30
0.0
 10
948.2030282707432
 20
829.5617917764781
 30
0.0
 10
948.2053218055053
 20
829.4853052276246
 30
0.0
  0
SPLINE
  5
9D
330
1F
100
AcDbEntity
  8
0
  6
Continuous
 62
     7
370
    25
100
AcDbSpline
210
0.0
220
0.0
230
1.0
 70
     8
 71
     3
 72
    15
 73
    11
 74
     0
 42
0.00000001
 43
0.00000001
 40
0.0
 40
0.0
 40
0.0
 40
0.0
 40
0.1305691070873079
 40
0.2565806086940823
 40
0.3805516168036832
 40
0.5036229172007081
 40
0.6257393231697876
 40
0.7475485819596254
 40
0.8717661185648725
 40
1.0
 40
1.0
 40
1.0
 40
1.0
 10
947.5899371901206
 20
833.2321000994195
 30
0.0
 10
947.5874384051091
 20
833.1437514007271
 30
0.0
 10
947.5825280569145
 20
832.9701378761076
 30
0.0
 10
947.5355731784396
 20
832.7162084834592
 30
0.0
 10
947.4620630791492
 20
832.4744914118539
 30
0.0
 10
947.3598796524886
 20
832.2458688166153
 30
0.0
 10
947.2270750897502
 20
832.0355062722824
 30
0.0
 10
947.0696846470872
 20
831.8417068070365
 30
0.0
 10
946.8797948128221
 20
831.6726758196195
 30
0.0
 10
946.7375245499925
 20
831.5781777566465
 30
0.0
 10
946.6652577029412
 20
831.5301770224964
 30
0.0
  0
SPLINE
  5
9E
330
1F
100
AcDbEntity
  8
0
  6
Continuous
 62
     7
370
    25
100
AcDbSpline
210
0.0
220
0.0
230
1.0
 70
     8
 71
     3
 72
    23
 73
    19
 74
     0
 42
0.00000001
 43
0.00000001
 40
0.0
 40
0.0
 40
0.0
 40
0.0
 40
0.0625940971873315
 40
0.1213229386347494
 40
0.1766801421977661
 40
0.2283650957096757
 40
0.276868445836807
 40
0.3218791276660453
 40
0.3640986251098918
 40
0.4033556962427022
 40
0.4779679481633714
 40
0.5505354613647754
 40
0.6235844567403234
 40
0.698174882264203
 40
0.7733536703408757
 40
0.8472811254977338
 40
0.9228183395566691
 40
1.0
 40
1.0
 40
1.0
 40
1.0
 10
945.048270523454
 20
835.2144718942914
 30
0.0
 10
945.1246784735974
 20
835.2140701790873
 30
0.0
 10
945.2727760972236
 20
835.2132915550438
 30
0.0
 10
945.4881348214036
 20
835.2012158267079
 30
0.0
 10
945.689846388582
 20
835.1847502955567
 30
0.0
 10
945.8779692968118
 20
835.1586243695128
 30
0.0
 10
946.0524166165628
 20
835.1271003074663
 30
0.0
 10
946.2137140731064
 20
835.0889247278312
 30
0.0
 10
946.3613487525769
 20
835.0431496108964
 30
0.0
 10
946.537606435791
 20
834.9703581109364
 30
0.0
 10
946.7385679463712
 20
834.8621908689943
 30
0.0
 10
946.9561642725494
 20
834.7023541486536
 30
0.0
 10
947.1422311053707
 20
834.5068513758072
 30
0.0
 10
947.30265697335
 20
834.28631959198
 30
0.0
 10
947.4302023896043
 20
834.0437235422634
 30
0.0
 10
947.522475069183
 20
833.7848453964864
 30
0.0
 10
947.5808930700027
 20
833.5130242720987
 30
0.0
 10
947.586900919639
 20
833.3264112940898
 30
0.0
 10
947.5899371901206
 20
833.2321000994195
 30
0.0
  0
LINE
  5
9F
330
1F
100
AcDbEntity
  8
0
  6
Continuous
 62
     7
370
    25
100
AcDbLine
 10
943.4873730876
 20
835.2144718943
 30
0.0
 11
945.0482705235
 21
835.2144718943
 31
0.0
  0
LINE
  5
A0
330
1F
100
AcDbEntity
  8
0
  6
Continuous
 62
     7
370
    25
100
AcDbLine
 10
943.4873730876
 20
827.2144718943
 30
0.0
 11
943.4873730876
 21
835.2144718943
 31
0.0
  0
LINE
  5
A1
330
1F
100
AcDbEntity
  8
0
  6
Continuous
 62
     7
370
    25
100
AcDbLine
 10
945.650834626
 20
827.2144718943
 30
0.0
 11
943.4873730876
 21
827.2144718943
 31
0.0
  0
CIRCLE
  5
A2
330
1F
100
AcDbEntity
  8
0
  6
Continuous
 62
     7
370
    25
100
AcDbCircle
 10
900.2220382074
 20
836.9012494638
 30
0.0
 40
9.499999999999886
  0
CIRCLE
  5
A3
330
1F
100
AcDbEntity
  8
0
  6
Continuous
 62
     7
370
    25
100
AcDbCircle
 10
900.2220382074
 20
734.3707661918
 30
0.0
 40
9.500000000000114
  0
CIRCLE
  5
A4
330
1F
100
AcDbEntity
  8
0
  6
Continuous
 62
     7
370
    25
100
AcDbCircle
 10
1002.7525214795
 20
734.3707661918
 30
0.0
 40
9.500000000000114
  0
CIRCLE
  5
A5
330
1F
100
AcDbEntity
  8
0
  6
Continuous
 62
     7
370
    25
100
AcDbCircle
 10
1002.7525214795
 20
836.9012494638
 30
0.0
 40
9.499999999999886
  0
CIRCLE
  5
A6
330
1F
100
AcDbEntity
  8
0
  6
Continuous
 62
     7
370
    25
100
AcDbCircle
 10
951.4872798434
 20
785.6360078278
 30
0.0
 40
90.0
  0
LINE
  5
A7
330
1F
100
AcDbEntity
  8
0
  6
Continuous
 62
     7
370
    25
100
AcDbLine
 10
974.0514756517
 20
831.0750488174
 30
0.0
 11
974.0514756517
 21
827.2144718943
 31
0.0
  0
LINE
  5
A8
330
1F
100
AcDbEntity
  8
0
  6
Continuous
 62
     7
370
    25
100
AcDbLine
 10
977.7614115491
 20
827.2144718943
 30
0.0
 11
974.0514756517
 21
831.0750488174
 31
0.0
  0
LINE
  5
A9
330
1F
100
AcDbEntity
  8
0
  6
Continuous
 62
     7
370
    25
100
AcDbLine
 10
978.7181423183
 20
827.2144718943
 30
0.0
 11
977.7614115491
 21
827.2144718943
 31
0.0
  0
LINE
  5
AA
330
1F
100
AcDbEntity
  8
0
  6
Continuous
 62
     7
370
    25
100
AcDbLine
 10
974.479360267
 20
831.6247283045
 30
0.0
 11
978.7181423183
 21
827.2144718943
 31
0.0
  0
LINE
  5
AB
330
1F
100
AcDbEntity
  8
0
  6
Continuous
 62
     7
370
    25
100
AcDbLine
 10
978.4104500106
 20
835.2144718943
 30
0.0
 11
974.479360267
 21
831.6247283045
 31
0.0
  0
LINE
  5
AC
330
1F
100
AcDbEntity
  8
0
  6
Continuous
 62
     7
370
    25
100
AcDbLine
 10
977.3864115491
 20
835.2144718943
 30
0.0
 11
978.4104500106
 21
835.2144718943
 31
0.0
  0
LINE
  5
AD
330
1F
100
AcDbEntity
  8
0
  6
Continuous
 62
     7
370
    25
100
AcDbLine
 10
974.0514756517
 20
832.1679975353
 30
0.0
 11
977.3864115491
 21
835.2144718943
 31
0.0
  0
LINE
  5
AE
330
1F
100
AcDbEntity
  8
0
  6
Continuous
 62
     7
370
    25
100
AcDbLine
 10
974.0514756517
 20
835.2144718943
 30
0.0
 11
974.0514756517
 21
832.1679975353
 31
0.0
  0
LINE
  5
AF
330
1F
100
AcDbEntity
  8
0
  6
Continuous
 62
     7
370
    25
100
AcDbLine
 10
973.3335269337
 20
835.2144718943
 30
0.0
 11
974.0514756517
 21
835.2144718943
 31
0.0
  0
LINE
  5
B0
330
1F
100
AcDbEntity
  8
0
  6
Continuous
 62
     7
370
    25
100
AcDbLine
 10
973.3335269337
 20
827.2144718943
 30
0.0
 11
973.3335269337
 21
835.2144718943
 31
0.0
  0
LINE
  5
B1
330
1F
100
AcDbEntity
  8
0
  6
Continuous
 62
     7
370
    25
100
AcDbLine
 10
974.0514756517
 20
827.2144718943
 30
0.0
 11
973.3335269337
 21
827.2144718943
 31
0.0
  0
SPLINE
  5
B2
330
1F
100
AcDbEntity
  8
0
  6
Continuous
 62
     7
370
    25
100
AcDbSpline
210
0.0
220
0.0
230
1.0
 70
     8
 71
     3
 72
    15
 73
    11
 74
     0
 42
0.00000001
 43
0.00000001
 40
0.0
 40
0.0
 40
0.0
 40
0.0
 40
0.1022030370352184
 40
0.2110233423738751
 40
0.3250996615652069
 40
0.44650209713489
 40
0.5737877176488543
 40
0.7089007097660672
 40
0.8503578712933998
 40
1.0
 40
1.0
 40
1.0
 40
1.0
 10
969.147629497813
 20
831.6247283045477
 30
0.0
 10
969.085620517684
 20
831.6234012390447
 30
0.0
 10
968.9575877055132
 20
831.62066118546
 30
0.0
 10
968.7611926729892
 20
831.6004863355712
 30
0.0
 10
968.5548115918995
 20
831.5679393768784
 30
0.0
 10
968.3392356020568
 20
831.5231708112345
 30
0.0
 10
968.1138172978214
 20
831.464585492929
 30
0.0
 10
967.8790323818733
 20
831.3943809200706
 30
0.0
 10
967.634387201075
 20
831.310444923011
 30
0.0
 10
967.4695466881635
 20
831.2470570058756
 30
0.0
 10
967.3848089849924
 20
831.2144718942914
 30
0.0
  0
SPLINE
  5
B3
330
1F
100
AcDbEntity
  8
0
  6
Continuous
 62
     7
370
    25
100
AcDbSpline
210
0.0
220
0.0
230
1.0
 70
     8
 71
     3
 72
    23
 73
    19
 74
     0
 42
0.00000001
 43
0.00000001
 40
0.0
 40
0.0
 40
0.0
 40
0.0
 40
0.0653513820265938
 40
0.1279160318306125
 40
0.1883602055717017
 40
0.2472160772654532
 40
0.3056301291974113
 40
0.3637698398318189
 40
0.4226609139127806
 40
0.4826872940903928
 40
0.54330022123956
 40
0.604117955323104
 40
0.664964891265285
 40
0.7274134941125658
 40
0.7914676251494254
 40
0.8580554427290993
 40
0.9270368146149474
 40
1.0
 40
1.0
 40
1.0
 40
1.0
 10
971.0771166773001
 20
829.8587026635221
 30
0.0
 10
971.0756115813882
 20
829.9228758100849
 30
0.0
 10
971.0726655702924
 20
830.0484856136395
 30
0.0
 10
971.0485956953144
 20
830.2322552283624
 30
0.0
 10
971.0067283299344
 20
830.4061364679088
 30
0.0
 10
970.9486166043414
 20
830.5709690027019
 30
0.0
 10
970.8748348723788
 20
830.7269082994975
 30
0.0
 10
970.784671872793
 20
830.8741152942407
 30
0.0
 10
970.6764355346363
 20
831.0106497701802
 30
0.0
 10
970.552796932148
 20
831.1365756070019
 30
0.0
 10
970.4173499814209
 20
831.2527924638548
 30
0.0
 10
970.2677642840562
 20
831.3518646614592
 30
0.0
 10
970.1071701656672
 20
831.4352107589491
 30
0.0
 10
969.9375025097385
 20
831.507137612304
 30
0.0
 10
969.7547255986815
 20
831.5587964589309
 30
0.0
 10
969.5624590103857
 20
831.5975801970844
 30
0.0
 10
969.3586265350783
 20
831.6200153117776
 30
0.0
 10
969.2192649622008
 20
831.6231281994935
 30
0.0
 10
969.147629497813
 20
831.6247283045477
 30
0.0
  0
SPLINE
  5
B4
330
1F
100
AcDbEntity
  8
0
  6
Continuous
 62
     7
370
    25
100
AcDbSpline
210
0.0
220
0.0
230
1.0
 70
     8
 71
     3
 72
    23
 73
    19
 74
     0
 42
0.00000001
 43
0.00000001
 40
0.0
 40
0.0
 40
0.0
 40
0.0
 40
0.0642072952829857
 40
0.1264246897797409
 40
0.1876802842649223
 40
0.2482164244552126
 40
0.308305060008613
 40
0.3696609913251435
 40
0.431698551786781
 40
0.4959468922087648
 40
0.5597580239721199
 40
0.6222954078261586
 40
0.6839106352841732
 40
0.7450924080566249
 40
0.8067402253892925
 40
0.8690866181212031
 40
0.9332900029747998
 40
1.0
 40
1.0
 40
1.0
 40
1.0
 10
969.0466679593515
 20
827.8298565096759
 30
0.0
 10
969.1151444037338
 20
827.831732573459
 30
0.0
 10
969.2499750830219
 20
827.8354265583986
 30
0.0
 10
969.4484011097488
 20
827.8638585860325
 30
0.0
 10
969.6399733936394
 20
827.90764732045
 30
0.0
 10
969.8228016376598
 20
827.9731784175557
 30
0.0
 10
970.0000851567206
 20
828.0528234882432
 30
0.0
 10
970.1673394891162
 20
828.1550293758224
 30
0.0
 10
970.3294032082948
 20
828.2726522751252
 30
0.0
 10
970.4812389420573
 20
828.407410286653
 30
0.0
 10
970.6203005403648
 20
828.5559124457827
 30
0.0
 10
970.7431716743853
 20
828.7147179164682
 30
0.0
 10
970.8455189050736
 20
828.8841278514234
 30
0.0
 10
970.9317682967758
 20
829.0612093436541
 30
0.0
 10
970.9972615512274
 20
829.2479031886334
 30
0.0
 10
971.0439837940224
 20
829.4433344461704
 30
0.0
 10
971.0714193570361
 20
829.6479858294994
 30
0.0
 10
971.0751934826864
 20
829.7875728232735
 30
0.0
 10
971.0771166773001
 20
829.8587026635221
 30
0.0
  0
SPLINE
  5
B5
330
1F
100
AcDbEntity
  8
0
  6
Continuous
 62
     7
370
    25
100
AcDbSpline
210
0.0
220
0.0
230
1.0
 70
     8
 71
     3
 72
    19
 73
    15
 74
     0
 42
0.00000001
 43
0.00000001
 40
0.0
 40
0.0
 40
0.0
 40
0.0
 40
0.0946872518675539
 40
0.1819941557072741
 40
0.2643769486105109
 40
0.3421798619477707
 40
0.4186176108621471
 40
0.4965090753719078
 40
0.5773690916117316
 40
0.6615105924541981
 40
0.7467325508291965
 40
0.8312579843277426
 40
0.9152056162136545
 40
1.0
 40
1.0
 40
1.0
 40
1.0
 10
967.2822448824284
 20
829.2657539455734
 30
0.0
 10
967.2999101564629
 20
829.189464911405
 30
0.0
 10
967.3338637940421
 20
829.0428331516977
 30
0.0
 10
967.4083912197609
 20
828.8368186572221
 30
0.0
 10
967.4995132208414
 20
828.6532318602484
 30
0.0
 10
967.6078660172238
 20
828.4896442413374
 30
0.0
 10
967.7371232297637
 20
828.346995104715
 30
0.0
 10
967.8846190673423
 20
828.2198703917144
 30
0.0
 10
968.0499852917977
 20
828.1051843818228
 30
0.0
 10
968.233741244986
 20
828.0095894853719
 30
0.0
 10
968.427599712004
 20
827.9280609061718
 30
0.0
 10
968.630496192026
 20
827.8737713177107
 30
0.0
 10
968.8369061268171
 20
827.8355978483559
 30
0.0
 10
968.9765138301233
 20
827.8317766808092
 30
0.0
 10
969.0466679593515
 20
827.8298565096759
 30
0.0
  0
LINE
  5
B6
330
1F
100
AcDbEntity
  8
0
  6
Continuous
 62
     7
370
    25
100
AcDbLine
 10
966.5642961645
 20
829.2657539456
 30
0.0
 11
967.2822448824
 21
829.2657539456
 31
0.0
  0
SPLINE
  5
B7
330
1F
100
AcDbEntity
  8
0
  6
Continuous
 62
     7
370
    25
100
AcDbSpline
210
0.0
220
0.0
230
1.0
 70
     8
 71
     3
 72
    23
 73
    19
 74
     0
 42
0.00000001
 43
0.00000001
 40
0.0
 40
0.0
 40
0.0
 40
0.0
 40
0.0654211437588935
 40
0.1287083718818825
 40
0.1902361418635385
 40
0.2507244020335391
 40
0.3106371794134439
 40
0.3707664082897268
 40
0.431614744412352
 40
0.4935229735663541
 40
0.5558834553775337
 40
0.6173423673185097
 40
0.6786680390972761
 40
0.7407113595451474
 40
0.8029853625127442
 40
0.866802580265518
 40
0.9323471713458881
 40
1.0
 40
1.0
 40
1.0
 40
1.0
 10
969.0050012926847
 20
827.0093436891631
 30
0.0
 10
968.9252888796511
 20
827.0109227474126
 30
0.0
 10
968.7684641237565
 20
827.014029357978
 30
0.0
 10
968.5387028275929
 20
827.0465287528444
 30
0.0
 10
968.3176408717222
 20
827.093074847456
 30
0.0
 10
968.1070577833624
 20
827.1631006071094
 30
0.0
 10
967.9050663234647
 20
827.2508429949728
 30
0.0
 10
967.7143858256616
 20
827.3617371012481
 30
0.0
 10
967.5301440518379
 20
827.4874036240984
 30
0.0
 10
967.3598308249819
 20
827.6357015737321
 30
0.0
 10
967.2017597084799
 20
827.797794561235
 30
0.0
 10
967.0602591167761
 20
827.9736977410424
 30
0.0
 10
966.9342395128067
 20
828.1605078943821
 30
0.0
 10
966.8257189482607
 20
828.3591322465552
 30
0.0
 10
966.7331520423947
 20
828.5690488886984
 30
0.0
 10
966.6604320691908
 20
828.7910443193085
 30
0.0
 10
966.6017386864637
 20
829.0239586140272
 30
0.0
 10
966.5769080110892
 20
829.1843094949655
 30
0.0
 10
966.5642961644796
 20
829.2657539455734
 30
0.0
  0
SPLINE
  5
B8
330
1F
100
AcDbEntity
  8
0
  6
Continuous
 62
     7
370
    25
100
AcDbSpline
210
0.0
220
0.0
230
1.0
 70
     8
 71
     3
 72
    31
 73
    27
 74
     0
 42
0.00000001
 43
0.00000001
 40
0.0
 40
0.0
 40
0.0
 40
0.0
 40
0.0440144705761397
 40
0.0874341236677055
 40
0.1301183986578982
 40
0.172553694558183
 40
0.2145547559681384
 40
0.2562980920971303
 40
0.2984382251332506
 40
0.3408490025880951
 40
0.3827151889670266
 40
0.4239240454075313
 40
0.4642462432504175
 40
0.5040736714617959
 40
0.5438619058684914
 40
0.5835667249796535
 40
0.6230943188523332
 40
0.6632290607685843
 40
0.7035512586114705
 40
0.7439378946861852
 40
0.784541254800093
 40
0.8257501112405972
 40
0.8677573633885062
 40
0.91074516403231
 40
0.954914446891478
 40
0.9999999999999999
 40
0.9999999999999999
 40
0.9999999999999999
 40
0.9999999999999999
 10
971.7950653952488
 20
829.8282539455734
 30
0.0
 10
971.7935452231953
 20
829.7630602990546
 30
0.0
 10
971.7905254228984
 20
829.6335540417384
 30
0.0
 10
971.7751686511322
 20
829.4412244401719
 30
0.0
 10
971.7456013001283
 20
829.2529665359838
 30
0.0
 10
971.7059036450332
 20
829.0687553546381
 30
0.0
 10
971.6543781182551
 20
828.8889396468002
 30
0.0
 10
971.5920031379069
 20
828.7130047258247
 30
0.0
 10
971.5156693607415
 20
828.5420456246975
 30
0.0
 10
971.4319405030068
 20
828.3744447217861
 30
0.0
 10
971.3376628389261
 20
828.2139909910552
 30
0.0
 10
971.2330262507227
 20
828.0639361646719
 30
0.0
 10
971.1224765565003
 20
827.9220292355749
 30
0.0
 10
971.0035248183099
 20
827.7897921315539
 30
0.0
 10
970.8750654009098
 20
827.6680938049413
 30
0.0
 10
970.7386540480829
 20
827.5562120186421
 30
0.0
 10
970.5953792617307
 20
827.4522546922351
 30
0.0
 10
970.44302442214
 20
827.3604416746911
 30
0.0
 10
970.2849844610804
 20
827.2759549177704
 30
0.0
 10
970.1189771076163
 20
827.2066439752896
 30
0.0
 10
969.9487812208564
 20
827.1446770539526
 30
0.0
 10
969.7719472194966
 20
827.0952838479832
 30
0.0
 10
969.5888756478035
 20
827.0565808662246
 30
0.0
 10
969.3992647324159
 20
827.0302937791333
 30
0.0
 10
969.2041089152189
 20
827.0111476363442
 30
0.0
 10
969.071823172179
 20
827.0099491061713
 30
0.0
 10
969.0050012926847
 20
827.0093436891631
 30
0.0
  0
SPLINE
  5
B9
330
1F
100
AcDbEntity
  8
0
  6
Continuous
 62
     7
370
    25
100
AcDbSpline
210
0.0
220
0.0
230
1.0
 70
     8
 71
     3
 72
    23
 73
    19
 74
     0
 42
0.00000001
 43
0.00000001
 40
0.0
 40
0.0
 40
0.0
 40
0.0
 40
0.0658076458106949
 40
0.1293942736680547
 40
0.1908940606321903
 40
0.2512810689298358
 40
0.3108149644652737
 40
0.3703709874482449
 40
0.4307682625897257
 40
0.4928812506175028
 40
0.5551039481552504
 40
0.6160670509938414
 40
0.6772560331746539
 40
0.7382598051991166
 40
0.8007621343762962
 40
0.8647775815744851
 40
0.931045294999404
 40
1.0
 40
1.0
 40
1.0
 40
1.0
 10
969.2774371901206
 20
832.4452411250605
 30
0.0
 10
969.36677145232
 20
832.4433075577585
 30
0.0
 10
969.5424249319202
 20
832.439505681342
 30
0.0
 10
969.7994282393342
 20
832.4029985968979
 30
0.0
 10
970.04476056669
 20
832.3455359348858
 30
0.0
 10
970.2779088413788
 20
832.2652604566305
 30
0.0
 10
970.4993043856925
 20
832.1626096379007
 30
0.0
 10
970.7069102405052
 20
832.034381202797
 30
0.0
 10
970.9038426130465
 20
831.8845907315979
 30
0.0
 10
971.0865685420846
 20
831.7123735614044
 30
0.0
 10
971.2523383893198
 20
831.5228384373995
 30
0.0
 10
971.3980892228443
 20
831.3190490178715
 30
0.0
 10
971.5218894292541
 20
831.1029857901354
 30
0.0
 10
971.6214568689717
 20
830.8725843987337
 30
0.0
 10
971.7009639187453
 20
830.6303920480814
 30
0.0
 10
971.7538827641026
 20
830.3738604308191
 30
0.0
 10
971.7891209560141
 20
830.1054075850743
 30
0.0
 10
971.7930578390302
 20
829.9218542820408
 30
0.0
 10
971.7950653952488
 20
829.8282539455734
 30
0.0
  0
SPLINE
  5
BA
330
1F
100
AcDbEntity
  8
0
  6
Continuous
 62
     7
370
    25
100
AcDbSpline
210
0.0
220
0.0
230
1.0
 70
     8
 71
     3
 72
    11
 73
     7
 74
     0
 42
0.00000001
 43
0.00000001
 40
0.0
 40
0.0
 40
0.0
 40
0.0
 40
0.2750683690187453
 40
0.5329014600899381
 40
0.773973459592442
 40
1.0
 40
1.0
 40
1.0
 40
1.0
 10
968.335129497813
 20
832.2897924071119
 30
0.0
 10
968.4198286392385
 20
832.3131758855353
 30
0.0
 10
968.5839198297125
 20
832.3584776766437
 30
0.0
 10
968.8261137976297
 20
832.4087765804826
 30
0.0
 10
969.0560388341347
 20
832.4390975954711
 30
0.0
 10
969.2052396807873
 20
832.4432377337847
 30
0.0
 10
969.2774371901206
 20
832.4452411250605
 30
0.0
  0
LINE
  5
BB
330
1F
100
AcDbEntity
  8
0
  6
Continuous
 62
     7
370
    25
100
AcDbLine
 10
968.7662192414
 20
834.3939590738
 30
0.0
 11
968.3351294978
 21
832.2897924071
 31
0.0
  0
LINE
  5
BC
330
1F
100
AcDbEntity
  8
0
  6
Continuous
 62
     7
370
    25
100
AcDbLine
 10
971.4873730876
 20
834.3939590738
 30
0.0
 11
968.7662192414
 21
834.3939590738
 31
0.0
  0
LINE
  5
BD
330
1F
100
AcDbEntity
  8
0
  6
Continuous
 62
     7
370
    25
100
AcDbLine
 10
971.4873730876
 20
835.2144718943
 30
0.0
 11
971.4873730876
 21
834.3939590738
 31
0.0
  0
LINE
  5
BE
330
1F
100
AcDbEntity
  8
0
  6
Continuous
 62
     7
370
    25
100
AcDbLine
 10
968.2053218055
 20
835.2144718943
 30
0.0
 11
971.4873730876
 21
835.2144718943
 31
0.0
  0
LINE
  5
BF
330
1F
100
AcDbEntity
  8
0
  6
Continuous
 62
     7
370
    25
100
AcDbLine
 10
967.384808985
 20
831.2144718943
 30
0.0
 11
968.2053218055
 21
835.2144718943
 31
0.0
  0
SPLINE
  5
C0
330
1F
100
AcDbEntity
  8
0
  6
Continuous
 62
     7
370
    25
100
AcDbSpline
210
0.0
220
0.0
230
1.0
 70
     8
 71
     3
 72
    19
 73
    15
 74
     0
 42
0.00000001
 43
0.00000001
 40
0.0
 40
0.0
 40
0.0
 40
0.0
 40
0.096972310381516
 40
0.1877734389628679
 40
0.2723961390136942
 40
0.3513209973752884
 40
0.4243347744514678
 40
0.4919087840005278
 40
0.5542332197968018
 40
0.6112676582441553
 40
0.7163478449915546
 40
0.8145400858216157
 40
0.9084954561491857
 40
0.9999999999999999
 40
0.9999999999999999
 40
0.9999999999999999
 40
0.9999999999999999
 10
963.6540397542233
 20
831.756138560958
 30
0.0
 10
963.7408646989259
 20
831.6929583105587
 30
0.0
 10
963.9089891706482
 20
831.5706185122663
 30
0.0
 10
964.1482064961601
 20
831.3868112436321
 30
0.0
 10
964.3651066289484
 20
831.2070449154622
 30
0.0
 10
964.5604510942517
 20
831.0324675278141
 30
0.0
 10
964.7361697421139
 20
830.8644033152343
 30
0.0
 10
964.8903131036564
 20
830.7008303316225
 30
0.0
 10
965.0244518015928
 20
830.542920451206
 30
0.0
 10
965.1688614437875
 20
830.3404688496261
 30
0.0
 10
965.3164221741199
 20
830.0918263712848
 30
0.0
 10
965.4431456196654
 20
829.7871903974669
 30
0.0
 10
965.5230504138473
 20
829.481370236331
 30
0.0
 10
965.5334995919774
 20
829.2758231815309
 30
0.0
 10
965.5386551388386
 20
829.1744077917273
 30
0.0
  0
SPLINE
  5
C1
330
1F
100
AcDbEntity
  8
0
  6
Continuous
 62
     7
370
    25
100
AcDbSpline
210
0.0
220
0.0
230
1.0
 70
     8
 71
     3
 72
    15
 73
    11
 74
     0
 42
0.00000001
 43
0.00000001
 40
0.0
 40
0.0
 40
0.0
 40
0.0
 40
0.0525942815291374
 40
0.1249519739750381
 40
0.2180938989285935
 40
0.3335024107325237
 40
0.4687891785044504
 40
0.6249375859645985
 40
0.8016830479282283
 40
1.0
 40
1.0
 40
1.0
 40
1.0
 10
962.5787192414027
 20
832.5526129199324
 30
0.0
 10
962.5962309497631
 20
832.5369854323533
 30
0.0
 10
962.6378347603618
 20
832.4998580990292
 30
0.0
 10
962.7138940191953
 20
832.4390757432723
 30
0.0
 10
962.8143347008637
 20
832.3640979780258
 30
0.0
 10
962.9365340178394
 20
832.2713269689406
 30
0.0
 10
963.0827451303584
 20
832.1637121983869
 30
0.0
 10
963.2529841158319
 20
832.0426296562981
 30
0.0
 10
963.4453533337402
 20
831.9041486071395
 30
0.0
 10
963.5818605700821
 20
831.8073313714597
 30
0.0
 10
963.6540397542233
 20
831.756138560958
 30
0.0
  0
SPLINE
  5
C2
330
1F
100
AcDbEntity
  8
0
  6
Continuous
 62
     7
370
    25
100
AcDbSpline
210
0.0
220
0.0
230
1.0
 70
     8
 71
     3
 72
    15
 73
    11
 74
     0
 42
0.00000001
 43
0.00000001
 40
0.0
 40
0.0
 40
0.0
 40
0.0
 40
0.1072852142689548
 40
0.2147458609696411
 40
0.3229385595552872
 40
0.4341161625174656
 40
0.5534123109627955
 40
0.6860729848107301
 40
0.8342559920595846
 40
1.0
 40
1.0
 40
1.0
 40
1.0
 10
962.0514756516592
 20
833.5862667660862
 30
0.0
 10
962.0523742268247
 20
833.5434062437081
 30
0.0
 10
962.0541728465029
 20
833.4576151135656
 30
0.0
 10
962.0792580983574
 20
833.3308690062422
 30
0.0
 10
962.1114851359754
 20
833.204443087571
 30
0.0
 10
962.1625540085546
 20
833.0789057553786
 30
0.0
 10
962.2330575596764
 20
832.9520615061164
 30
0.0
 10
962.325640818891
 20
832.8217261059825
 30
0.0
 10
962.4422426750051
 20
832.6867507718748
 30
0.0
 10
962.5315615603798
 20
832.5989624889608
 30
0.0
 10
962.5787192414027
 20
832.5526129199324
 30
0.0
  0
SPLINE
  5
C3
330
1F
100
AcDbEntity
  8
0
  6
Continuous
 62
     7
370
    25
100
AcDbSpline
210
0.0
220
0.0
230
1.0
 70
     8
 71
     3
 72
    15
 73
    11
 74
     0
 42
0.00000001
 43
0.00000001
 40
0.0
 40
0.0
 40
0.0
 40
0.0
 40
0.1430730837303609
 40
0.2759029640930077
 40
0.4023708562739962
 40
0.5284136450935927
 40
0.6503563791869512
 40
0.765895086124692
 40
0.880774130844021
 40
1.0
 40
1.0
 40
1.0
 40
1.0
 10
963.2245525747361
 20
834.5990872789067
 30
0.0
 10
963.1419090949521
 20
834.5963176790167
 30
0.0
 10
962.9825389294336
 20
834.5909767665327
 30
0.0
 10
962.7562755326163
 20
834.5326453715803
 30
0.0
 10
962.5526322753288
 20
834.4408011194528
 30
0.0
 10
962.3776549837718
 20
834.3120811695198
 30
0.0
 10
962.2319704648163
 20
834.1595760433825
 30
0.0
 10
962.1265865590681
 20
833.984081517497
 30
0.0
 10
962.0631576115205
 20
833.7902931686865
 30
0.0
 10
962.0554175437467
 20
833.6551122399283
 30
0.0
 10
962.0514756516592
 20
833.5862667660862
 30
0.0
  0
SPLINE
  5
C4
330
1F
100
AcDbEntity
  8
0
  6
Continuous
 62
     7
370
    25
100
AcDbSpline
210
0.0
220
0.0
230
1.0
 70
     8
 71
     3
 72
    19
 73
    15
 74
     0
 42
0.00000001
 43
0.00000001
 40
0.0
 40
0.0
 40
0.0
 40
0.0
 40
0.0984694310255561
 40
0.1896291011376303
 40
0.274184089437969
 40
0.3521831609671557
 40
0.4231988731834683
 40
0.4885509460005319
 40
0.5484733460279381
 40
0.6014401636178699
 40
0.7011980824257655
 40
0.7995918021381826
 40
0.8985450984822272
 40
1.0
 40
1.0
 40
1.0
 40
1.0
 10
964.7870525747361
 20
833.5734462532657
 30
0.0
 10
964.7478618719422
 20
833.6239346885174
 30
0.0
 10
964.6723897414917
 20
833.7211636101727
 30
0.0
 10
964.557808057239
 20
833.8573266172727
 30
0.0
 10
964.4498111477069
 20
833.9817071419172
 30
0.0
 10
964.3434102339145
 20
834.0897417202715
 30
0.0
 10
964.2442247905639
 20
834.1873465964725
 30
0.0
 10
964.1479572654279
 20
834.2709117549283
 30
0.0
 10
964.0559930340281
 20
834.3412559730542
 30
0.0
 10
963.9400686668371
 20
834.4163269672465
 30
0.0
 10
963.7944281678127
 20
834.4907418325146
 30
0.0
 10
963.6116063706942
 20
834.5537111538351
 30
0.0
 10
963.4205520277573
 20
834.5915512953637
 30
0.0
 10
963.2904271557785
 20
834.5965544669474
 30
0.0
 10
963.2245525747361
 20
834.5990872789067
 30
0.0
  0
LINE
  5
C5
330
1F
100
AcDbEntity
  8
0
  6
Continuous
 62
     7
370
    25
100
AcDbLine
 10
965.4360910363
 20
834.0654334328
 30
0.0
 11
964.7870525747
 21
833.5734462533
 31
0.0
  0
SPLINE
  5
C6
330
1F
100
AcDbEntity
  8
0
  6
Continuous
 62
     7
370
    25
100
AcDbSpline
210
0.0
220
0.0
230
1.0
 70
     8
 71
     3
 72
    19
 73
    15
 74
     0
 42
0.00000001
 43
0.00000001
 40
0.0
 40
0.0
 40
0.0
 40
0.0
 40
0.1072327993600893
 40
0.2132518127818506
 40
0.3188304473075881
 40
0.4267935306342767
 40
0.4836459507827184
 40
0.5436038220211432
 40
0.6083076495640841
 40
0.6771267602600423
 40
0.7506856360204962
 40
0.8287134184432878
 40
0.9121903482234537
 40
1.0
 40
1.0
 40
1.0
 40
1.0
 10
963.3046807798642
 20
835.4196000994195
 30
0.0
 10
963.3989530091168
 20
835.4163485529072
 30
0.0
 10
963.5864303845381
 20
835.4098822646795
 30
0.0
 10
963.8622000201256
 20
835.3536593359486
 30
0.0
 10
964.1277102290413
 20
835.2606292290047
 30
0.0
 10
964.341294834343
 20
835.1550551536275
 30
0.0
 10
964.5084554319701
 20
835.0496119177113
 30
0.0
 10
964.6359359638304
 20
834.953566605074
 30
0.0
 10
964.7651187084855
 20
834.8429949282644
 30
0.0
 10
964.8970456909511
 20
834.7176023657939
 30
0.0
 10
965.029481483955
 20
834.5762383633034
 30
0.0
 10
965.1643922319416
 20
834.4198710743681
 30
0.0
 10
965.3020934177946
 20
834.2494560895351
 30
0.0
 10
965.3906782409349
 20
834.1278000878107
 30
0.0
 10
965.4360910362744
 20
834.0654334327529
 30
0.0
  0
SPLINE
  5
C7
330
1F
100
AcDbEntity
  8
0
  6
Continuous
 62
     7
370
    25
100
AcDbSpline
210
0.0
220
0.0
230
1.0
 70
     8
 71
     3
 72
    19
 73
    15
 74
     0
 42
0.00000001
 43
0.00000001
 40
0.0
 40
0.0
 40
0.0
 40
0.0
 40
0.0837853706537097
 40
0.1657798879221406
 40
0.2462800078932607
 40
0.3274609277363894
 40
0.4087969540320676
 40
0.4897152412309874
 40
0.5713760321300532
 40
0.655523321111277
 40
0.7410194827999741
 40
0.826546760503761
 40
0.9119888516548338
 40
1.0
 40
1.0
 40
1.0
 40
1.0
 10
961.3335269337105
 20
833.5526129199324
 30
0.0
 10
961.3365102685524
 20
833.6372524046517
 30
0.0
 10
961.3424131715518
 20
833.8047222646175
 30
0.0
 10
961.3923343538842
 20
834.0493641627708
 30
0.0
 10
961.4711295393802
 20
834.282933116411
 30
0.0
 10
961.5815178544923
 20
834.5031167363531
 30
0.0
 10
961.7238203754482
 20
834.7041818355262
 30
0.0
 10
961.888496888283
 20
834.8884412343423
 30
0.0
 10
962.0846374282545
 20
835.0433408508472
 30
0.0
 10
962.2998434242851
 20
835.178682698594
 30
0.0
 10
962.5354008461884
 20
835.2846162419244
 30
0.0
 10
962.7822371968115
 20
835.3645270537198
 30
0.0
 10
963.0407447900119
 20
835.4098053570134
 30
0.0
 10
963.2158376691511
 20
835.4163031053852
 30
0.0
 10
963.3046807798642
 20
835.4196000994195
 30
0.0
  0
SPLINE
  5
C8
330
1F
100
AcDbEntity
  8
0
  6
Continuous
 62
     7
370
    25
100
AcDbSpline
210
0.0
220
0.0
230
1.0
 70
     8
 71
     3
 72
    15
 73
    11
 74
     0
 42
0.00000001
 43
0.00000001
 40
0.0
 40
0.0
 40
0.0
 40
0.0
 40
0.1335067689985227
 40
0.2625589787303693
 40
0.3882644471488781
 40
0.5126673546814273
 40
0.6337222699657599
 40
0.7553938601370948
 40
0.877552945091277
 40
1.0
 40
1.0
 40
1.0
 40
1.0
 10
961.7806423183257
 20
832.3346642019836
 30
0.0
 10
961.7452765006545
 20
832.3817522862219
 30
0.0
 10
961.6757248738767
 20
832.4743573234097
 30
0.0
 10
961.583916861385
 20
832.6190998554501
 30
0.0
 10
961.5058844892744
 20
832.7672673192427
 30
0.0
 10
961.4447134443915
 20
832.9192578668188
 30
0.0
 10
961.393202087044
 20
833.0729377042602
 30
0.0
 10
961.3585553882606
 20
833.2303119801451
 30
0.0
 10
961.3368607667387
 20
833.3906745366353
 30
0.0
 10
961.3346390832345
 20
833.4985911094867
 30
0.0
 10
961.3335269337105
 20
833.5526129199324
 30
0.0
  0
SPLINE
  5
C9
330
1F
100
AcDbEntity
  8
0
  6
Continuous
 62
     7
370
    25
100
AcDbSpline
210
0.0
220
0.0
230
1.0
 70
     8
 71
     3
 72
    15
 73
    11
 74
     0
 42
0.00000001
 43
0.00000001
 40
0.0
 40
0.0
 40
0.0
 40
0.0
 40
0.1815353013762847
 40
0.3470816724816309
 40
0.4955678164315556
 40
0.6283573018772142
 40
0.745519669992157
 40
0.8458307507576536
 40
0.93078180738476
 40
1.0
 40
1.0
 40
1.0
 40
1.0
 10
963.0915397542233
 20
831.2465231763426
 30
0.0
 10
963.0073706200997
 20
831.3064742337583
 30
0.0
 10
962.8464456450592
 20
831.4210960903177
 30
0.0
 10
962.621397456839
 20
831.5912087394918
 30
0.0
 10
962.4201529699592
 20
831.746737584159
 30
0.0
 10
962.2436066464774
 20
831.889146754679
 30
0.0
 10
962.0918361394006
 20
832.0184555654902
 30
0.0
 10
961.963645485654
 20
832.1334222835295
 30
0.0
 10
961.8623002122927
 20
832.2371561369429
 30
0.0
 10
961.805944599359
 20
832.3044506323604
 30
0.0
 10
961.7806423183257
 20
832.3346642019836
 30
0.0
  0
SPLINE
  5
CA
330
1F
100
AcDbEntity
  8
0
  6
Continuous
 62
     7
370
    25
100
AcDbSpline
210
0.0
220
0.0
230
1.0
 70
     8
 71
     3
 72
    15
 73
    11
 74
     0
 42
0.00000001
 43
0.00000001
 40
0.0
 40
0.0
 40
0.0
 40
0.0
 40
0.0902792146500176
 40
0.1895299184469602
 40
0.2991978724002875
 40
0.4189258867738195
 40
0.5483762854012477
 40
0.688136369538681
 40
0.8390835016589189
 40
1.0
 40
1.0
 40
1.0
 40
1.0
 10
964.5338474465309
 20
829.9708821507015
 30
0.0
 10
964.4980288998324
 20
830.0167034617949
 30
0.0
 10
964.4228323414554
 20
830.1128995728081
 30
0.0
 10
964.2935580269572
 20
830.2560886824663
 30
0.0
 10
964.1418640514019
 20
830.4037879257853
 30
0.0
 10
963.9729416401752
 20
830.5616371988123
 30
0.0
 10
963.780637437111
 20
830.7222950198135
 30
0.0
 10
963.5709745470466
 20
830.8934225122454
 30
0.0
 10
963.3386000122669
 20
831.0685118312092
 30
0.0
 10
963.1756297342829
 20
831.1859348381728
 30
0.0
 10
963.0915397542233
 20
831.2465231763426
 30
0.0
  0
SPLINE
  5
CB
330
1F
100
AcDbEntity
  8
0
  6
Continuous
 62
     7
370
    25
100
AcDbSpline
210
0.0
220
0.0
230
1.0
 70
     8
 71
     3
 72
    11
 73
     7
 74
     0
 42
0.00000001
 43
0.00000001
 40
0.0
 40
0.0
 40
0.0
 40
0.0
 40
0.2347233736739058
 40
0.4771583189289882
 40
0.7285562842030583
 40
1.0
 40
1.0
 40
1.0
 40
1.0
 10
964.8207064208899
 20
829.1856257404452
 30
0.0
 10
964.817336567863
 20
829.2522333969193
 30
0.0
 10
964.8104861490903
 20
829.3876370292614
 30
0.0
 10
964.7525856232104
 20
829.5874076645847
 30
0.0
 10
964.6615016304254
 20
829.7851049674973
 30
0.0
 10
964.5774727305283
 20
829.9073935745322
 30
0.0
 10
964.5338474465309
 20
829.9708821507015
 30
0.0
  0
SPLINE
  5
CC
330
1F
100
AcDbEntity
  8
0
  6
Continuous
 62
     7
370
    25
100
AcDbSpline
210
0.0
220
0.0
230
1.0
 70
     8
 71
     3
 72
    19
 73
    15
 74
     0
 42
0.00000001
 43
0.00000001
 40
0.0
 40
0.0
 40
0.0
 40
0.0
 40
0.0912636048966267
 40
0.1809303110850812
 40
0.2700882198317226
 40
0.3601561333877252
 40
0.4483425324981544
 40
0.5326658421383292
 40
0.6138337041070474
 40
0.6939815272835598
 40
0.7727159770890039
 40
0.8493351720622464
 40
0.9239673265752318
 40
1.0
 40
1.0
 40
1.0
 40
1.0
 10
963.2533987285822
 20
827.8298565096759
 30
0.0
 10
963.323540124037
 20
827.8318100468467
 30
0.0
 10
963.4625956052879
 20
827.8356829388766
 30
0.0
 10
963.6673093034847
 20
827.8728962007038
 30
0.0
 10
963.8661248515214
 20
827.9300667810775
 30
0.0
 10
964.0549445949055
 20
828.0119431959539
 30
0.0
 10
964.2311631424061
 20
828.1110025918969
 30
0.0
 10
964.385692731747
 20
828.2306509976278
 30
0.0
 10
964.5192838475858
 20
828.364608039259
 30
0.0
 10
964.6285618237392
 20
828.514054107012
 30
0.0
 10
964.7124019043983
 20
828.6747790181145
 30
0.0
 10
964.7768409179142
 20
828.8397526211734
 30
0.0
 10
964.8126010862718
 20
829.0115664915254
 30
0.0
 10
964.8179879513156
 20
829.1272475494632
 30
0.0
 10
964.8207064208899
 20
829.1856257404452
 30
0.0
  0
SPLINE
  5
CD
330
1F
100
AcDbEntity
  8
0
  6
Continuous
 62
     7
370
    25
100
AcDbSpline
210
0.0
220
0.0
230
1.0
 70
     8
 71
     3
 72
    15
 73
    11
 74
     0
 42
0.00000001
 43
0.00000001
 40
0.0
 40
0.0
 40
0.0
 40
0.0
 40
0.1590042985173768
 40
0.3046460998968128
 40
0.4385469045795927
 40
0.5623222987759272
 40
0.67743254252573
 40
0.786897392938753
 40
0.8936108891042672
 40
1.0
 40
1.0
 40
1.0
 40
1.0
 10
961.4969884721719
 20
829.1631898430093
 30
0.0
 10
961.5598873001732
 20
829.057899820273
 30
0.0
 10
961.6803990273235
 20
828.8561681999097
 30
0.0
 10
961.8814307053864
 20
828.5835783932154
 30
0.0
 10
962.0897345023369
 20
828.3518934634805
 30
0.0
 10
962.3068529790214
 20
828.1624612176752
 30
0.0
 10
962.531460860444
 20
828.0133209051093
 30
0.0
 10
962.7650244118421
 20
827.9077158040382
 30
0.0
 10
963.0067565506112
 20
827.8418507174752
 30
0.0
 10
963.1712681425641
 20
827.833850519636
 30
0.0
 10
963.2533987285822
 20
827.8298565096759
 30
0.0
  0
LINE
  5
CE
330
1F
100
AcDbEntity
  8
0
  6
Continuous
 62
     7
370
    25
100
AcDbLine
 10
960.8207064209
 20
828.7577411251
 30
0.0
 11
961.4969884722
 21
829.163189843
 31
0.0
  0
SPLINE
  5
CF
330
1F
100
AcDbEntity
  8
0
  6
Continuous
 62
     7
370
    25
100
AcDbSpline
210
0.0
220
0.0
230
1.0
 70
     8
 71
     3
 72
    23
 73
    19
 74
     0
 42
0.00000001
 43
0.00000001
 40
0.0
 40
0.0
 40
0.0
 40
0.0
 40
0.0572082694335084
 40
0.1136960596574914
 40
0.1691779164171953
 40
0.2241592165805425
 40
0.278719878381043
 40
0.3337942174469896
 40
0.3892414593400035
 40
0.4458220733936226
 40
0.5037042811090208
 40
0.5642938918193634
 40
0.6279754158952235
 40
0.6950382596840512
 40
0.7653727258510127
 40
0.8396114430907354
 40
0.9175377500777894
 40
0.9999999999999999
 40
0.9999999999999999
 40
0.9999999999999999
 40
0.9999999999999999
 10
963.2533987285822
 20
827.0093436891631
 30
0.0
 10
963.1929750874828
 20
827.0105121042429
 30
0.0
 10
963.0728887787868
 20
827.0128342194184
 30
0.0
 10
962.8952671059338
 20
827.0333628603835
 30
0.0
 10
962.7212337591953
 20
827.0624076685918
 30
0.0
 10
962.5529725431173
 20
827.1085198285391
 30
0.0
 10
962.388315602222
 20
827.1644672046353
 30
0.0
 10
962.2279790661627
 20
827.2333548220025
 30
0.0
 10
962.0718852287778
 20
827.3159084253109
 30
0.0
 10
961.9191593250787
 20
827.4102970530334
 30
0.0
 10
961.7701897831676
 20
827.5201433263218
 30
0.0
 10
961.626373856473
 20
827.6480827467519
 30
0.0
 10
961.482992861014
 20
827.7905867581605
 30
0.0
 10
961.3442788122791
 20
827.9515251887017
 30
0.0
 10
961.2074259110086
 20
828.1282979495194
 30
0.0
 10
961.0751324034966
 20
828.322558940142
 30
0.0
 10
960.9446599059446
 20
828.5332500344482
 30
0.0
 10
960.8627959794821
 20
828.6815130875221
 30
0.0
 10
960.8207064208899
 20
828.7577411250605
 30
0.0
  0
SPLINE
  5
D0
330
1F
100
AcDbEntity
  8
0
  6
Continuous
 62
     7
370
    25
100
AcDbSpline
210
0.0
220
0.0
230
1.0
 70
     8
 71
     3
 72
    23
 73
    19
 74
     0
 42
0.00000001
 43
0.00000001
 40
0.0
 40
0.0
 40
0.0
 40
0.0
 40
0.0614842551968908
 40
0.1217745277022101
 40
0.1809195598139331
 40
0.2402561150782717
 40
0.300114444402352
 40
0.3611459476126123
 40
0.4235005824125856
 40
0.4886693612807194
 40
0.5539541046535625
 40
0.617581261015262
 40
0.68023842681674
 40
0.7421873887724545
 40
0.8046632117692927
 40
0.8682589893126634
 40
0.933020257180375
 40
1.0
 40
1.0
 40
1.0
 40
1.0
 10
965.5386551388386
 20
829.1744077917273
 30
0.0
 10
965.537153108841
 20
829.1026858143658
 30
0.0
 10
965.5341782172534
 20
828.9606346519816
 30
0.0
 10
965.4999818429022
 20
828.7520516191082
 30
0.0
 10
965.4498797511021
 20
828.5494667741164
 30
0.0
 10
965.3743660735008
 20
828.3553842313848
 30
0.0
 10
965.2821988546211
 20
828.1662533452513
 30
0.0
 10
965.1652474309274
 20
827.9870352871692
 30
0.0
 10
965.0296870086697
 20
827.8137635189704
 30
0.0
 10
964.8741812603168
 20
827.651058395873
 30
0.0
 10
964.7040191978792
 20
827.501695662192
 30
0.0
 10
964.5241707529356
 20
827.3688292359692
 30
0.0
 10
964.3343415576576
 20
827.25804449678
 30
0.0
 10
964.1355614052388
 20
827.1676425720945
 30
0.0
 10
963.9277846356225
 20
827.0969373891772
 30
0.0
 10
963.7110811297151
 20
827.045707974021
 30
0.0
 10
963.4850936754991
 20
827.0142663490758
 30
0.0
 10
963.3314925747619
 20
827.0110028942996
 30
0.0
 10
963.2533987285822
 20
827.0093436891631
 30
0.0
  0
LINE
  5
D1
330
1F
100
AcDbEntity
  8
0
  6
Continuous
 62
     7
370
    25
100
AcDbLine
 10
959.5899371901
 20
835.2144718943
 30
0.0
 11
959.5899371901
 21
827.2144718943
 31
0.0
  0
LINE
  5
D2
330
1F
100
AcDbEntity
  8
0
  6
Continuous
 62
     7
370
    25
100
AcDbLine
 10
958.8719884722
 20
835.2144718943
 30
0.0
 11
959.5899371901
 21
835.2144718943
 31
0.0
  0
LINE
  5
D3
330
1F
100
AcDbEntity
  8
0
  6
Continuous
 62
     7
370
    25
100
AcDbLine
 10
958.8719884722
 20
827.2144718943
 30
0.0
 11
958.8719884722
 21
835.2144718943
 31
0.0
  0
LINE
  5
D4
330
1F
100
AcDbEntity
  8
0
  6
Continuous
 62
     7
370
    25
100
AcDbLine
 10
959.5899371901
 20
827.2144718943
 30
0.0
 11
958.8719884722
 21
827.2144718943
 31
0.0
  0
SPLINE
  5
D5
330
1F
100
AcDbEntity
  8
0
  6
Continuous
 62
     7
370
    25
100
AcDbSpline
210
0.0
220
0.0
230
1.0
 70
     8
 71
     3
 72
    11
 73
     7
 74
     0
 42
0.00000001
 43
0.00000001
 40
0.0
 40
0.0
 40
0.0
 40
0.0
 40
0.2629516255674852
 40
0.5157066923583608
 40
0.7621092269531
 40
1.0
 40
1.0
 40
1.0
 40
1.0
 10
954.4713474465309
 20
827.9452411250605
 30
0.0
 10
954.5154258729518
 20
827.9279623654268
 30
0.0
 10
954.6018734826397
 20
827.8940748701144
 30
0.0
 10
954.7340450933083
 20
827.8562556739749
 30
0.0
 10
954.8654623206482
 20
827.8355873084431
 30
0.0
 10
954.9525884780579
 20
827.8317442612691
 30
0.0
 10
954.9953859080694
 20
827.829856509676
 30
0.0
  0
SPLINE
  5
D6
330
1F
100
AcDbEntity
  8
0
  6
Continuous
 62
     7
370
    25
100
AcDbSpline
210
0.0
220
0.0
230
1.0
 70
     8
 71
     3
 72
    11
 73
     7
 74
     0
 42
0.00000001
 43
0.00000001
 40
0.0
 40
0.0
 40
0.0
 40
0.0
 40
0.2991842876765359
 40
0.5648989463568093
 40
0.7985478688426224
 40
1.0
 40
1.0
 40
1.0
 40
1.0
 10
953.448911549095
 20
828.5478052276246
 30
0.0
 10
953.5465176725751
 20
828.4804968934743
 30
0.0
 10
953.7308107607583
 20
828.3534099821335
 30
0.0
 10
954.0016780542123
 20
828.1899206096967
 30
0.0
 10
954.2416715467974
 20
828.0497488027085
 30
0.0
 10
954.3986611406863
 20
827.9783150219275
 30
0.0
 10
954.4713474465309
 20
827.9452411250605
 30
0.0
  0
LINE
  5
D7
330
1F
100
AcDbEntity
  8
0
  6
Continuous
 62
     7
370
    25
100
AcDbLine
 10
953.025834626
 20
827.9324206122
 30
0.0
 11
953.4489115491
 21
828.5478052276
 31
0.0
  0
SPLINE
  5
D8
330
1F
100
AcDbEntity
  8
0
  6
Continuous
 62
     7
370
    25
100
AcDbSpline
210
0.0
220
0.0
230
1.0
 70
     8
 71
     3
 72
    15
 73
    11
 74
     0
 42
0.00000001
 43
0.00000001
 40
0.0
 40
0.0
 40
0.0
 40
0.0
 40
0.1060709021051295
 40
0.213421680412451
 40
0.321685488130326
 40
0.4338579390981569
 40
0.5540812827743558
 40
0.6875870439665619
 40
0.8364658500651129
 40
1.0
 40
1.0
 40
1.0
 40
1.0
 10
954.9553218055053
 20
827.0093436891631
 30
0.0
 10
954.877702700903
 20
827.0118136528868
 30
0.0
 10
954.7215279215095
 20
827.0167833834914
 30
0.0
 10
954.4890920157674
 20
827.0572901561765
 30
0.0
 10
954.2573160709517
 20
827.1197268266825
 30
0.0
 10
954.0249699021739
 20
827.2111613304509
 30
0.0
 10
953.7874630648071
 20
827.33551698413
 30
0.0
 10
953.5415788437931
 20
827.4982251363107
 30
0.0
 10
953.2841544073158
 20
827.6989829109331
 30
0.0
 10
953.1145926105003
 20
827.8522120437515
 30
0.0
 10
953.0258346260181
 20
827.9324206122401
 30
0.0
  0
SPLINE
  5
D9
330
1F
100
AcDbEntity
  8
0
  6
Continuous
 62
     7
370
    25
100
AcDbSpline
210
0.0
220
0.0
230
1.0
 70
     8
 71
     3
 72
    23
 73
    19
 74
     0
 42
0.00000001
 43
0.00000001
 40
0.0
 40
0.0
 40
0.0
 40
0.0
 40
0.0773606839426997
 40
0.148541953025043
 40
0.2140077372521351
 40
0.2729945033606869
 40
0.326409195767469
 40
0.3738804007298087
 40
0.4160199382657589
 40
0.4521255195126335
 40
0.5180017107054568
 40
0.5823669297335152
 40
0.6470437823418074
 40
0.7133304210644739
 40
0.7809119703509695
 40
0.8503949591306453
 40
0.9229229735922772
 40
1.0
 40
1.0
 40
1.0
 40
1.0
 10
956.8207064208899
 20
829.8122283045477
 30
0.0
 10
956.8199888925885
 20
829.7123307710716
 30
0.0
 10
956.8186111506944
 20
829.5205153169076
 30
0.0
 10
956.8110353551849
 20
829.244232126298
 30
0.0
 10
956.7970159771129
 20
828.9919562721187
 30
0.0
 10
956.7765930914226
 20
828.7631141075639
 30
0.0
 10
956.7493468449686
 20
828.5584225526203
 30
0.0
 10
956.7181673521229
 20
828.3762999976151
 30
0.0
 10
956.6804238120637
 20
828.2182664380085
 30
0.0
 10
956.6235861747356
 20
828.0408141963219
 30
0.0
 10
956.5303885780587
 20
827.8461997855028
 30
0.0
 10
956.3901210622988
 20
827.6360165841181
 30
0.0
 10
956.2158746704482
 20
827.452168788346
 30
0.0
 10
956.0140437374789
 20
827.2925054171101
 30
0.0
 10
955.782864253868
 20
827.1652888887071
 30
0.0
 10
955.5270968958698
 20
827.0739627666275
 30
0.0
 10
955.2483161245601
 20
827.0182579514864
 30
0.0
 10
955.054946496326
 20
827.0123747398356
 30
0.0
 10
954.9553218055053
 20
827.0093436891631
 30
0.0
  0
LINE
  5
DA
330
1F
100
AcDbEntity
  8
0
  6
Continuous
 62
     7
370
    25
100
AcDbLine
 10
956.8207064209
 20
835.2144718943
 30
0.0
 11
956.8207064209
 21
829.8122283045
 31
0.0
  0
LINE
  5
DB
330
1F
100
AcDbEntity
  8
0
  6
Continuous
 62
     7
370
    25
100
AcDbLine
 10
956.1027577029
 20
835.2144718943
 30
0.0
 11
956.8207064209
 21
835.2144718943
 31
0.0
  0
LINE
  5
DC
330
1F
100
AcDbEntity
  8
0
  6
Continuous
 62
     7
370
    25
100
AcDbLine
 10
956.1027577029
 20
829.8923565097
 30
0.0
 11
956.1027577029
 21
835.2144718943
 31
0.0
  0
SPLINE
  5
DD
330
1F
100
AcDbEntity
  8
0
  6
Continuous
 62
     7
370
    25
100
AcDbSpline
210
0.0
220
0.0
230
1.0
 70
     8
 71
     3
 72
    23
 73
    19
 74
     0
 42
0.00000001
 43
0.00000001
 40
0.0
 40
0.0
 40
0.0
 40
0.0
 40
0.06232636599144
 40
0.1231962451944475
 40
0.1840362202545509
 40
0.2469640854288918
 40
0.3106993957895712
 40
0.3732676370734423
 40
0.4365875799673892
 40
0.5021247910366468
 40
0.539004722034162
 40
0.5832553755259839
 40
0.6344465152828107
 40
0.6926760461021161
 40
0.7585704862865288
 40
0.8316586747921138
 40
0.9119171022748332
 40
1.0
 40
1.0
 40
1.0
 40
1.0
 10
954.9953859080694
 20
827.8298565096759
 30
0.0
 10
955.0506608530463
 20
827.832194189525
 30
0.0
 10
955.1599190388265
 20
827.8368149206601
 30
0.0
 10
955.3186938822737
 20
827.8776132641375
 30
0.0
 10
955.4705979536103
 20
827.9398861853118
 30
0.0
 10
955.6101857425955
 20
828.0310662853494
 30
0.0
 10
955.7388380559255
 20
828.1394809612341
 30
0.0
 10
955.8449930858394
 20
828.2705804096144
 30
0.0
 10
955.9334896446621
 20
828.4158740873432
 30
0.0
 10
955.9867460866062
 20
828.5534088389824
 30
0.0
 10
956.0206769940601
 20
828.6788411367495
 30
0.0
 10
956.042212141162
 20
828.7941168758972
 30
0.0
 10
956.0610433649135
 20
828.9288859696138
 30
0.0
 10
956.0774583406883
 20
829.0833092846082
 30
0.0
 10
956.0870685591096
 20
829.2576959866238
 30
0.0
 10
956.097850896995
 20
829.4515340276054
 30
0.0
 10
956.1017486361715
 20
829.6653121126251
 30
0.0
 10
956.1024110838734
 20
829.8143657170131
 30
0.0
 10
956.1027577029412
 20
829.892356509676
 30
0.0
  0
LINE
  5
DE
330
1F
100
AcDbEntity
  8
0
  6
Continuous
 62
     7
370
    25
100
AcDbLine
 10
952.2053218055
 20
830.7016513815
 30
0.0
 11
952.2053218055
 21
829.881138561
 31
0.0
  0
LINE
  5
DF
330
1F
100
AcDbEntity
  8
0
  6
Continuous
 62
     7
370
    25
100
AcDbLine
 10
949.1283987286
 20
830.7016513815
 30
0.0
 11
952.2053218055
 21
830.7016513815
 31
0.0
  0
LINE
  5
E0
330
1F
100
AcDbEntity
  8
0
  6
Continuous
 62
     7
370
    25
100
AcDbLine
 10
949.1283987286
 20
829.881138561
 30
0.0
 11
949.1283987286
 21
830.7016513815
 31
0.0
  0
LINE
  5
E1
330
1F
100
AcDbEntity
  8
0
  6
Continuous
 62
     7
370
    25
100
AcDbLine
 10
952.2053218055
 20
829.881138561
 30
0.0
 11
949.1283987286
 21
829.881138561
 31
0.0
  0
SPLINE
  5
E2
330
1F
100
AcDbEntity
  8
0
  6
Continuous
 62
     7
370
    25
100
AcDbSpline
210
0.0
220
0.0
230
1.0
 70
     8
 71
     3
 72
    31
 73
    27
 74
     0
 42
0.00000001
 43
0.00000001
 40
0.0
 40
0.0
 40
0.0
 40
0.0
 40
0.0337881161627107
 40
0.0671939323738804
 40
0.099862410856825
 40
0.132566612126258
 40
0.1651511732547864
 40
0.197913187355792
 40
0.2313190035669619
 40
0.2650832782673728
 40
0.2992553087581148
 40
0.3343985665049785
 40
0.3699428235093082
 40
0.4062835607000611
 40
0.4440638196985078
 40
0.4829977068727755
 40
0.523354446613304
 40
0.5655365896041485
 40
0.6096129240658194
 40
0.6563908113764166
 40
0.7058854949364569
 40
0.7583245002617313
 40
0.8138317829411498
 40
0.87279455903939
 40
0.9347222295400733
 40
1.0
 40
1.0
 40
1.0
 40
1.0
 10
931.085129497813
 20
835.4196000994195
 30
0.0
 10
931.1487534486344
 20
835.4184850933037
 30
0.0
 10
931.2752814689674
 20
835.4162676969511
 30
0.0
 10
931.462345183815
 20
835.3949558283006
 30
0.0
 10
931.6450873134486
 20
835.3595932612219
 30
0.0
 10
931.8227287733422
 20
835.3094881764614
 30
0.0
 10
931.9967287424114
 20
835.2473266298114
 30
0.0
 10
932.1657262456015
 20
835.1694132192762
 30
0.0
 10
932.3307710036404
 20
835.0787186653458
 30
0.0
 10
932.4892402322573
 20
834.9721498029307
 30
0.0
 10
932.6428736387627
 20
834.853333171624
 30
0.0
 10
932.7878975541274
 20
834.7190185000734
 30
0.0
 10
932.9243251790359
 20
834.5705619988879
 30
0.0
 10
933.0538687342043
 20
834.40955202429
 30
0.0
 10
933.1728529563741
 20
834.2329004018131
 30
0.0
 10
933.2861636586265
 20
834.0436795793809
 30
0.0
 10
933.3875854549731
 20
833.8385804598521
 30
0.0
 10
933.4852647125242
 20
833.6210251047869
 30
0.0
 10
933.5695778250711
 20
833.3849938846573
 30
0.0
 10
933.645614957122
 20
833.1318172891874
 30
0.0
 10
933.7070525995791
 20
832.8585048620942
 30
0.0
 10
933.7582280792092
 20
832.5664905871338
 30
0.0
 10
933.7978735556562
 20
832.2547020540134
 30
0.0
 10
933.8267481661215
 20
831.923807618558
 30
0.0
 10
933.8420009319302
 20
831.5735895828077
 30
0.0
 10
933.8448733918312
 20
831.3341430704028
 30
0.0
 10
933.8463474465309
 20
831.2112667660862
 30
0.0
  0
SPLINE
  5
E3
330
1F
100
AcDbEntity
  8
0
  6
Continuous
 62
     7
370
    25
100
AcDbSpline
210
0.0
220
0.0
230
1.0
 70
     8
 71
     3
 72
    31
 73
    27
 74
     0
 42
0.00000001
 43
0.00000001
 40
0.0
 40
0.0
 40
0.0
 40
0.0
 40
0.0685946222587427
 40
0.1332460424433013
 40
0.1943125864682559
 40
0.2512792231169661
 40
0.3045134392563467
 40
0.3542349066533249
 40
0.4004805887739889
 40
0.4434107549384919
 40
0.4840148686163452
 40
0.5232523007732034
 40
0.5610423727283604
 40
0.5979002393644005
 40
0.6335184888561954
 40
0.6683143511696517
 40
0.702495671286382
 40
0.7366853535134581
 40
0.7702931693607892
 40
0.8034372550192495
 40
0.8359129516660286
 40
0.8684602457892906
 40
0.9008465382431826
 40
0.933466524630708
 40
0.9662575752981233
 40
1.0
 40
1.0
 40
1.0
 40
1.0
 10
928.4104500106334
 20
831.2112667660862
 30
0.0
 10
928.411199766422
 20
831.3394893666216
 30
0.0
 10
928.4126561778478
 20
831.5885636163301
 30
0.0
 10
928.4288582828588
 20
831.9514999410542
 30
0.0
 10
928.4557733510031
 20
832.2919806016147
 30
0.0
 10
928.4926587746609
 20
832.6100218954168
 30
0.0
 10
928.5375455866005
 20
832.9057059286001
 30
0.0
 10
928.5974666988321
 20
833.1782425163402
 30
0.0
 10
928.6656102476663
 20
833.4288930457416
 30
0.0
 10
928.7445872666617
 20
833.6584748708295
 30
0.0
 10
928.8337022129895
 20
833.870081049166
 30
0.0
 10
928.9306948089255
 20
834.0676243664088
 30
0.0
 10
929.0394143390366
 20
834.2508059260426
 30
0.0
 10
929.15364728287
 20
834.4225494470024
 30
0.0
 10
929.278017732305
 20
834.5800436065279
 30
0.0
 10
929.40898639623
 20
834.7255125494273
 30
0.0
 10
929.551664970555
 20
834.8555942647731
 30
0.0
 10
929.70120327518
 20
834.9741000987962
 30
0.0
 10
929.8589551937896
 20
835.0779846054749
 30
0.0
 10
930.0204241449741
 20
835.1694880080252
 30
0.0
 10
930.1867215297876
 20
835.2476591331855
 30
0.0
 10
930.3583013764115
 20
835.3091229865787
 30
0.0
 10
930.5336215087308
 20
835.3598906363446
 30
0.0
 10
930.7132948040252
 20
835.3946082309653
 30
0.0
 10
930.8976179215939
 20
835.4164525932268
 30
0.0
 10
931.022032629704
 20
835.418540976633
 30
0.0
 10
931.085129497813
 20
835.4196000994195
 30
0.0
  0
SPLINE
  5
E4
330
1F
100
AcDbEntity
  8
0
  6
Continuous
 62
     7
370
    25
100
AcDbSpline
210
0.0
220
0.0
230
1.0
 70
     8
 71
     3
 72
    31
 73
    27
 74
     0
 42
0.00000001
 43
0.00000001
 40
0.0
 40
0.0
 40
0.0
 40
0.0
 40
0.033787146346991
 40
0.0666216577242937
 40
0.0992848780959723
 40
0.1313611650426503
 40
0.1635851875953433
 40
0.1961039269870677
 40
0.2289022543238165
 40
0.2621580559050075
 40
0.2959912222583164
 40
0.3302178457248002
 40
0.3650598258919545
 40
0.4009507373401076
 40
0.437620382076738
 40
0.4757075294370926
 40
0.5153806916250484
 40
0.5564135414931648
 40
0.5997648298727308
 40
0.6464241555840874
 40
0.6964314445175662
 40
0.7497815178015572
 40
0.806573306975533
 40
0.8674355315654003
 40
0.9318867532508747
 40
1.0
 40
1.0
 40
1.0
 40
1.0
 10
931.085129497813
 20
827.0093436891631
 30
0.0
 10
931.0220343801324
 20
827.0104096444976
 30
0.0
 10
930.8976231235255
 20
827.0125115003544
 30
0.0
 10
930.7132747225211
 20
827.0342571723274
 30
0.0
 10
930.5343434232298
 20
827.0692183225271
 30
0.0
 10
930.3599462711437
 20
827.1181705604497
 30
0.0
 10
930.1891885223811
 20
827.1780901863135
 30
0.0
 10
930.0243970100249
 20
827.2561557488345
 30
0.0
 10
929.8637394473034
 20
827.3460621921625
 30
0.0
 10
929.7076444621192
 20
827.4484517268785
 30
0.0
 10
929.5590452368854
 20
827.5657584311721
 30
0.0
 10
929.4171055675966
 20
827.6955053767412
 30
0.0
 10
929.285391238232
 20
827.8409303168496
 30
0.0
 10
929.1627990196781
 20
827.9997369982386
 30
0.0
 10
929.0462868180879
 20
828.1704644092849
 30
0.0
 10
928.939111107644
 20
828.3554435476744
 30
0.0
 10
928.8399777269169
 20
828.5539409430793
 30
0.0
 10
928.7493640339602
 20
828.7672390246223
 30
0.0
 10
928.6690242316405
 20
828.9984502883019
 30
0.0
 10
928.598058041667
 20
829.2502198391647
 30
0.0
 10
928.5420256817354
 20
829.5247698645683
 30
0.0
 10
928.4940646409746
 20
829.8198952750948
 30
0.0
 10
928.455380336875
 20
830.1368642588338
 30
0.0
 10
928.4289704504331
 20
830.4758488946896
 30
0.0
 10
928.4126474446371
 20
830.8366379436637
 30
0.0
 10
928.4111958551053
 20
831.0841117135302
 30
0.0
 10
928.4104500106334
 20
831.2112667660862
 30
0.0
  0
SPLINE
  5
E5
330
1F
100
AcDbEntity
  8
0
  6
Continuous
 62
     7
370
    25
100
AcDbSpline
210
0.0
220
0.0
230
1.0
 70
     8
 71
     3
 72
    31
 73
    27
 74
     0
 42
0.00000001
 43
0.00000001
 40
0.0
 40
0.0
 40
0.0
 40
0.0
 40
0.0650632896172795
 40
0.1267731664665232
 40
0.1855157632260794
 40
0.2407646791677144
 40
0.2929797960235976
 40
0.3422503727797679
 40
0.3889192861856606
 40
0.4327756640583105
 40
0.4746284326311174
 40
0.5147746906379533
 40
0.5536058934984429
 40
0.591426406431173
 40
0.6280281199460673
 40
0.6638036341103205
 40
0.6989843361316641
 40
0.7335914893067057
 40
0.7676284691511398
 40
0.801208347786592
 40
0.8342638397266234
 40
0.8669806947287765
 40
0.8997197415181604
 40
0.932701912498538
 40
0.9661758834327493
 40
0.9999999999999999
 40
0.9999999999999999
 40
0.9999999999999999
 40
0.9999999999999999
 10
933.8463474465309
 20
831.2112667660862
 30
0.0
 10
933.8448581104306
 20
831.0889264050784
 30
0.0
 10
933.8419561997756
 20
830.8505512008296
 30
0.0
 10
933.8269191557351
 20
830.5019089715273
 30
0.0
 10
933.7972994273266
 20
830.1727705868449
 30
0.0
 10
933.760248025478
 20
829.8623466726534
 30
0.0
 10
933.7089315386817
 20
829.5719292581782
 30
0.0
 10
933.6458340158216
 20
829.3005133759658
 30
0.0
 10
933.575776135086
 20
829.0469269264449
 30
0.0
 10
933.4892966056923
 20
828.8132473570506
 30
0.0
 10
933.39464355347
 20
828.5962148476455
 30
0.0
 10
933.2916602479263
 20
828.3935470800346
 30
0.0
 10
933.1813292168732
 20
828.2034526967669
 30
0.0
 10
933.0611263711521
 20
828.02745327521
 30
0.0
 10
932.933004283846
 20
827.8643020590434
 30
0.0
 10
932.7942207666049
 20
827.7168789215542
 30
0.0
 10
932.6486880006574
 20
827.5816316713527
 30
0.0
 10
932.4946024787513
 20
827.4612850942964
 30
0.0
 10
932.3336617902207
 20
827.3559483979847
 30
0.0
 10
932.1691839001066
 20
827.261745311384
 30
0.0
 10
931.9982504524556
 20
827.1857848655557
 30
0.0
 10
931.8247351319311
 20
827.1205619147495
 30
0.0
 10
931.6461560093826
 20
827.0707323104383
 30
0.0
 10
931.4627356878068
 20
827.036277783534
 30
0.0
 10
931.2754071485411
 20
827.0121135584945
 30
0.0
 10
931.148774999784
 20
827.0102701759224
 30
0.0
 10
931.085129497813
 20
827.0093436891631
 30
0.0
  0
SPLINE
  5
E6
330
1F
100
AcDbEntity
  8
0
  6
Continuous
 62
     7
370
    25
100
AcDbSpline
210
0.0
220
0.0
230
1.0
 70
     8
 71
     3
 72
    15
 73
    11
 74
     0
 42
0.00000001
 43
0.00000001
 40
0.0
 40
0.0
 40
0.0
 40
0.0
 40
0.1105883385953369
 40
0.2245417540535975
 40
0.3425034940501051
 40
0.4643240984173589
 40
0.590756032701769
 40
0.7222274753555171
 40
0.8588428362087253
 40
1.0
 40
1.0
 40
1.0
 40
1.0
 10
932.8255141131976
 20
829.2032539455734
 30
0.0
 10
932.8496324395833
 20
829.2746362072107
 30
0.0
 10
932.8986029854861
 20
829.4195728111957
 30
0.0
 10
932.9617156123907
 20
829.6444040159512
 30
0.0
 10
933.0114193819991
 20
829.8802960478093
 30
0.0
 10
933.0561356465691
 20
830.1258391717372
 30
0.0
 10
933.0866569171917
 20
830.3828442026195
 30
0.0
 10
933.1112233475535
 20
830.650515937284
 30
0.0
 10
933.1256934891289
 20
830.9290561938221
 30
0.0
 10
933.1274872058633
 20
831.1183018879827
 30
0.0
 10
933.1283987285822
 20
831.2144718942914
 30
0.0
  0
SPLINE
  5
E7
330
1F
100
AcDbEntity
  8
0
  6
Continuous
 62
     7
370
    25
100
AcDbSpline
210
0.0
220
0.0
230
1.0
 70
     8
 71
     3
 72
    19
 73
    15
 74
     0
 42
0.00000001
 43
0.00000001
 40
0.0
 40
0.0
 40
0.0
 40
0.0
 40
0.1128134007444591
 40
0.2253938839207292
 40
0.3395948145627014
 40
0.459675410224864
 40
0.5217351900879341
 40
0.583925838738916
 40
0.648174144765371
 40
0.713881038113067
 40
0.7810044549073896
 40
0.8514509275565548
 40
0.9240506926641802
 40
1.0
 40
1.0
 40
1.0
 40
1.0
 10
931.1091679593513
 20
827.8298565096759
 30
0.0
 10
931.197756923136
 20
827.8335085801023
 30
0.0
 10
931.3747519475581
 20
827.8408051807927
 30
0.0
 10
931.6333434793167
 20
827.911202294791
 30
0.0
 10
931.8843840966475
 20
828.0174183849937
 30
0.0
 10
932.0811199601421
 20
828.1430126830949
 30
0.0
 10
932.2307943452882
 20
828.2626202932692
 30
0.0
 10
932.3380331798161
 20
828.3645966322701
 30
0.0
 10
932.436460719092
 20
828.4787814718276
 30
0.0
 10
932.5298140330455
 20
828.6019798624903
 30
0.0
 10
932.6154347774452
 20
828.7365455406018
 30
0.0
 10
932.6932933778915
 20
828.881831426924
 30
0.0
 10
932.7643410294232
 20
829.0382409764377
 30
0.0
 10
932.8048188487381
 20
829.1474289515596
 30
0.0
 10
932.8255141131976
 20
829.2032539455734
 30
0.0
  0
SPLINE
  5
E8
330
1F
100
AcDbEntity
  8
0
  6
Continuous
 62
     7
370
    25
100
AcDbSpline
210
0.0
220
0.0
230
1.0
 70
     8
 71
     3
 72
    27
 73
    23
 74
     0
 42
0.00000001
 43
0.00000001
 40
0.0
 40
0.0
 40
0.0
 40
0.0
 40
0.0729510658758664
 40
0.1415836941865442
 40
0.2059264601708665
 40
0.2653013571846052
 40
0.320597232713928
 40
0.3718165030988094
 40
0.4187897697094511
 40
0.4616987286157639
 40
0.5021335821035647
 40
0.540804315292648
 40
0.5781805253279654
 40
0.6142968652075147
 40
0.6496782432647873
 40
0.6842994600896366
 40
0.7183589527723603
 40
0.7520808646475969
 40
0.8176524386023855
 40
0.8797220764054374
 40
0.9399655597309877
 40
1.0
 40
1.0
 40
1.0
 40
1.0
 10
929.1283987285822
 20
831.2144718942914
 30
0.0
 10
929.1286717504507
 20
831.1076177255968
 30
0.0
 10
929.1292016322872
 20
830.9002347660559
 30
0.0
 10
929.1430443764636
 20
830.5988787409681
 30
0.0
 10
929.1619020496054
 20
830.3178037036716
 30
0.0
 10
929.1862250145999
 20
830.0566527631798
 30
0.0
 10
929.2223460398022
 20
829.8163098774432
 30
0.0
 10
929.2628186976713
 20
829.5951220304372
 30
0.0
 10
929.3120714739438
 20
829.394259774177
 30
0.0
 10
929.3703458004969
 20
829.212344778281
 30
0.0
 10
929.4367208791106
 20
829.0462897645774
 30
0.0
 10
929.509191424642
 20
828.8917727014291
 30
0.0
 10
929.5870445055676
 20
828.7469682752901
 30
0.0
 10
929.6741739925458
 20
828.613177170435
 30
0.0
 10
929.7690655656407
 20
828.4899630811257
 30
0.0
 10
929.8695758722407
 20
828.3751451786748
 30
0.0
 10
929.9794560647941
 20
828.272752078479
 30
0.0
 10
930.1314646191786
 20
828.1499478384117
 30
0.0
 10
930.3321422750118
 20
828.0230469613155
 30
0.0
 10
930.5849890298258
 20
827.9125416131288
 30
0.0
 10
930.8448026320692
 20
827.8430959984264
 30
0.0
 10
931.0211483465537
 20
827.8342645562433
 30
0.0
 10
931.1091679593513
 20
827.829856509676
 30
0.0
  0
SPLINE
  5
E9
330
1F
100
AcDbEntity
  8
0
  6
Continuous
 62
     7
370
    25
100
AcDbSpline
210
0.0
220
0.0
230
1.0
 70
     8
 71
     3
 72
    27
 73
    23
 74
     0
 42
0.00000001
 43
0.00000001
 40
0.0
 40
0.0
 40
0.0
 40
0.0
 40
0.0603866193110626
 40
0.1208832485859963
 40
0.1827546186251393
 40
0.2478110297583511
 40
0.2812991000432482
 40
0.3150876241506563
 40
0.3497023955502753
 40
0.384856581118555
 40
0.4209661972261014
 40
0.4585111882611385
 40
0.497174722127311
 40
0.5376020478662683
 40
0.5805030184200107
 40
0.6274675400267035
 40
0.6783882095592426
 40
0.73398322059256
 40
0.7937467045508337
 40
0.857713672160732
 40
0.9266978643613858
 40
1.0
 40
1.0
 40
1.0
 40
1.0
 10
931.1091679593513
 20
834.5990872789067
 30
0.0
 10
931.0206866060101
 20
834.5944439722845
 30
0.0
 10
930.8435627074841
 20
834.5851489000468
 30
0.0
 10
930.5819673823944
 20
834.5195643204089
 30
0.0
 10
930.3312145786407
 20
834.4052489696943
 30
0.0
 10
930.1318020650889
 20
834.2796435469173
 30
0.0
 10
929.9789705530716
 20
834.160013120765
 30
0.0
 10
929.8713529682104
 20
834.0562726543457
 30
0.0
 10
929.7704474317129
 20
833.9427955015111
 30
0.0
 10
929.6774926885411
 20
833.8184482675673
 30
0.0
 10
929.5904314698159
 20
833.6848131422665
 30
0.0
 10
929.5104748696428
 20
833.5408388228946
 30
0.0
 10
929.4384352589548
 20
833.3857957046649
 30
0.0
 10
929.3719563191144
 20
833.21981528085
 30
0.0
 10
929.3135042321973
 20
833.037915979283
 30
0.0
 10
929.2652894591001
 20
832.8373011367838
 30
0.0
 10
929.2207476233975
 20
832.6168168126942
 30
0.0
 10
929.1892155801963
 20
832.3751722231051
 30
0.0
 10
929.1611841384553
 20
832.1139558725469
 30
0.0
 10
929.1431696288502
 20
831.8321791451656
 30
0.0
 10
929.1291553260633
 20
831.5303177042459
 30
0.0
 10
929.1286559789485
 20
831.3218624848112
 30
0.0
 10
929.1283987285822
 20
831.2144718942914
 30
0.0
  0
SPLINE
  5
EA
330
1F
100
AcDbEntity
  8
0
  6
Continuous
 62
     7
370
    25
100
AcDbSpline
210
0.0
220
0.0
230
1.0
 70
     8
 71
     3
 72
    27
 73
    23
 74
     0
 42
0.00000001
 43
0.00000001
 40
0.0
 40
0.0
 40
0.0
 40
0.0
 40
0.0656811979906398
 40
0.1284864641740654
 40
0.1881751303280091
 40
0.2451061306699871
 40
0.2994484245294758
 40
0.350822936009382
 40
0.3999416805337783
 40
0.4466717436323723
 40
0.4912545333734982
 40
0.5333763442704363
 40
0.573852754968224
 40
0.6125263117194529
 40
0.6495971364453292
 40
0.6855320415538507
 40
0.7201057860682007
 40
0.7538376629736496
 40
0.8189254160467139
 40
0.8804934616501635
 40
0.940311333846057
 40
1.0
 40
1.0
 40
1.0
 40
1.0
 10
933.1283987285822
 20
831.2144718942914
 30
0.0
 10
933.1271411531926
 20
831.3106263457612
 30
0.0
 10
933.1246810668943
 20
831.4987250081167
 30
0.0
 10
933.1152776664345
 20
831.7741951353445
 30
0.0
 10
933.0909952104528
 20
832.0358357317083
 30
0.0
 10
933.0640257959053
 20
832.284773954941
 30
0.0
 10
933.0242607191235
 20
832.5196317896941
 30
0.0
 10
932.9813857319684
 20
832.7423753445656
 30
0.0
 10
932.9237829610194
 20
832.9502451155812
 30
0.0
 10
932.8622520467931
 20
833.146495588065
 30
0.0
 10
932.7918282855784
 20
833.3288970840667
 30
0.0
 10
932.7143066072754
 20
833.4983000243227
 30
0.0
 10
932.6315140158033
 20
833.6555222523383
 30
0.0
 10
932.5415888947535
 20
833.8001324045131
 30
0.0
 10
932.445598762033
 20
833.9327782168815
 30
0.0
 10
932.3410100781529
 20
834.0508001472977
 30
0.0
 10
932.2319715117281
 20
834.1578560744028
 30
0.0
 10
932.0792465155597
 20
834.280056232395
 30
0.0
 10
931.8793052817302
 20
834.4046543934994
 30
0.0
 10
931.6305152306618
 20
834.519318987466
 30
0.0
 10
931.3716109009449
 20
834.5851665134566
 30
0.0
 10
931.1965858630202
 20
834.5944503695437
 30
0.0
 10
931.1091679593513
 20
834.5990872789067
 30
0.0
  0
LINE
  5
EB
330
1F
100
AcDbEntity
  8
0
  6
Continuous
 62
     7
370
    25
100
AcDbLine
 10
944.2053218055
 20
834.3939590738
 30
0.0
 11
944.2053218055
 21
831.8298565097
 31
0.0
  0
LINE
  5
EC
330
1F
100
AcDbEntity
  8
0
  6
Continuous
 62
     7
370
    25
100
AcDbLine
 10
944.2053218055
 20
831.8298565097
 30
0.0
 11
944.6876936004
 21
831.8298565097
 31
0.0
  0
SPLINE
  5
ED
330
1F
100
AcDbEntity
  8
0
  6
Continuous
 62
     7
370
    25
100
AcDbSpline
210
0.0
220
0.0
230
1.0
 70
     8
 71
     3
 72
    23
 73
    19
 74
     0
 42
0.00000001
 43
0.00000001
 40
0.0
 40
0.0
 40
0.0
 40
0.0
 40
0.0723010339955049
 40
0.139700331739386
 40
0.2022885114847729
 40
0.2605995332222009
 40
0.3131903291553316
 40
0.3617389329854278
 40
0.4057064756322227
 40
0.4455399848948708
 40
0.5188319558616069
 40
0.5897782395835757
 40
0.6588674786561447
 40
0.7284304780610623
 40
0.7972827036080989
 40
0.8648153774014443
 40
0.9313637528792688
 40
1.0
 40
1.0
 40
1.0
 40
1.0
 10
944.6876936003771
 20
831.8298565096759
 30
0.0
 10
944.7582051326432
 20
831.830770619405
 30
0.0
 10
944.894447782363
 20
831.832536865686
 30
0.0
 10
945.0917504030689
 20
831.8375963332562
 30
0.0
 10
945.2748933018029
 20
831.8517632896379
 30
0.0
 10
945.4435603488292
 20
831.8659261743342
 30
0.0
 10
945.5974859350387
 20
831.8889538032801
 30
0.0
 10
945.7363290470436
 20
831.9163643699369
 30
0.0
 10
945.8622686971887
 20
831.9453538673001
 30
0.0
 10
946.0075019441291
 20
831.994655551644
 30
0.0
 10
946.1722401120334
 20
832.0675188092072
 30
0.0
 10
946.3478586358149
 20
832.1805972917671
 30
0.0
 10
946.5026802805894
 20
832.3152815276508
 30
0.0
 10
946.633416709662
 20
832.4706894402336
 30
0.0
 10
946.7404143565846
 20
832.6418121507664
 30
0.0
 10
946.8147314197944
 20
832.8259193060459
 30
0.0
 10
946.8651252122115
 20
833.0184224649844
 30
0.0
 10
946.8696772838852
 20
833.150578471361
 30
0.0
 10
946.8719884721719
 20
833.2176770224964
 30
0.0
  0
SPLINE
  5
EE
330
1F
100
AcDbEntity
  8
0
  6
Continuous
 62
     7
370
    25
100
AcDbSpline
210
0.0
220
0.0
230
1.0
 70
     8
 71
     3
 72
    23
 73
    19
 74
     0
 42
0.00000001
 43
0.00000001
 40
0.0
 40
0.0
 40
0.0
 40
0.0
 40
0.0570031325129236
 40
0.1118178691207219
 40
0.1644023722182104
 40
0.2158698048987952
 40
0.2668411100818656
 40
0.3174789632053571
 40
0.3699021362727596
 40
0.4234004494436344
 40
0.4797183982994505
 40
0.539241496644296
 40
0.6024306889434227
 40
0.6710295461473347
 40
0.7444847975608467
 40
0.8234539713786831
 40
0.908740312730665
 40
1.0
 40
1.0
 40
1.0
 40
1.0
 10
946.8719884721719
 20
833.2176770224964
 30
0.0
 10
946.870785774609
 20
833.2620787859561
 30
0.0
 10
946.8684265520056
 20
833.349177693619
 30
0.0
 10
946.8491047174799
 20
833.4761476459765
 30
0.0
 10
946.8162645473416
 20
833.595561937433
 30
0.0
 10
946.7740833056498
 20
833.7090570467456
 30
0.0
 10
946.715137731441
 20
833.8130841329634
 30
0.0
 10
946.6457355296078
 20
833.9112400088374
 30
0.0
 10
946.5618825232314
 20
834.0001819939731
 30
0.0
 10
946.4664372371606
 20
834.0833122758366
 30
0.0
 10
946.3567032420558
 20
834.1570140536608
 30
0.0
 10
946.2327460036115
 20
834.221564369486
 30
0.0
 10
946.0928884560303
 20
834.2735432876115
 30
0.0
 10
945.9394876446443
 20
834.319065921846
 30
0.0
 10
945.7701823017902
 20
834.3510391648591
 30
0.0
 10
945.5869261797134
 20
834.3776754795039
 30
0.0
 10
945.388218250509
 20
834.3912360326572
 30
0.0
 10
945.2507437304502
 20
834.3930311477993
 30
0.0
 10
945.1796807798643
 20
834.3939590737785
 30
0.0
  0
LINE
  5
EF
330
1F
100
AcDbEntity
  8
0
  6
Continuous
 62
     7
370
    25
100
AcDbLine
 10
945.1796807799
 20
834.3939590738
 30
0.0
 11
944.2053218055
 21
834.3939590738
 31
0.0
  0
SPLINE
  5
F0
330
1F
100
AcDbEntity
  8
0
  6
Continuous
 62
     7
370
    25
100
AcDbSpline
210
0.0
220
0.0
230
1.0
 70
     8
 71
     3
 72
    19
 73
    15
 74
     0
 42
0.00000001
 43
0.00000001
 40
0.0
 40
0.0
 40
0.0
 40
0.0
 40
0.0748982079275957
 40
0.1485962943439415
 40
0.2244712347857283
 40
0.3023227423595716
 40
0.3819186179896831
 40
0.4611486955215904
 40
0.5424171227241528
 40
0.6267160830665721
 40
0.7145968311855379
 40
0.804902920355321
 40
0.9001272540718603
 40
1.0
 40
1.0
 40
1.0
 40
1.0
 10
922.9745525747361
 20
829.454856509676
 30
0.0
 10
922.9776685948069
 20
829.3830144384884
 30
0.0
 10
922.9838507058138
 20
829.2404814480224
 30
0.0
 10
923.0328944516182
 20
829.0298229993733
 30
0.0
 10
923.1116042470616
 20
828.8258891597617
 30
0.0
 10
923.2213761692608
 20
828.630341839206
 30
0.0
 10
923.357302049353
 20
828.4475987390489
 30
0.0
 10
923.5244482618758
 20
828.2883101091105
 30
0.0
 10
923.7124273195902
 20
828.1467753009658
 30
0.0
 10
923.927599557368
 20
828.0323055102825
 30
0.0
 10
924.162636051213
 20
827.9408886986664
 30
0.0
 10
924.417474288738
 20
827.8779036411053
 30
0.0
 10
924.6884569600479
 20
827.836208898489
 30
0.0
 10
924.8755645994985
 20
827.8320073415881
 30
0.0
 10
924.9713474465309
 20
827.8298565096759
 30
0.0
  0
SPLINE
  5
F1
330
1F
100
AcDbEntity
  8
0
  6
Continuous
 62
     7
370
    25
100
AcDbSpline
210
0.0
220
0.0
230
1.0
 70
     8
 71
     3
 72
    23
 73
    19
 74
     0
 42
0.00000001
 43
0.00000001
 40
0.0
 40
0.0
 40
0.0
 40
0.0
 40
0.0712686925865606
 40
0.1398117850281263
 40
0.2064974320993706
 40
0.2715352442755387
 40
0.3360818306156433
 40
0.4005283877476352
 40
0.4649838426509145
 40
0.5300503053616139
 40
0.5944234089533965
 40
0.6555827099825219
 40
0.714849105636531
 40
0.7721150638706
 40
0.8289992113006468
 40
0.8851221627752373
 40
0.9420793532637981
 40
0.9999999999999999
 40
0.9999999999999999
 40
0.9999999999999999
 40
0.9999999999999999
 10
925.0178218055053
 20
831.2144718942914
 30
0.0
 10
924.9466771527997
 20
831.213206428309
 30
0.0
 10
924.8071087037516
 20
831.2107238928301
 30
0.0
 10
924.602635725132
 20
831.1830907489693
 30
0.0
 10
924.4063999183043
 20
831.1446235648476
 30
0.0
 10
924.2190629206118
 20
831.086267362619
 30
0.0
 10
924.0407038423126
 20
831.0103896705687
 30
0.0
 10
923.8703571392679
 20
830.9191107221153
 30
0.0
 10
923.7093259859747
 20
830.811212566242
 30
0.0
 10
923.5598340400131
 20
830.6880660165393
 30
0.0
 10
923.42332357259
 20
830.5553586931995
 30
0.0
 10
923.3035560298575
 20
830.4148738128905
 30
0.0
 10
923.2018474116052
 20
830.2692223092978
 30
0.0
 10
923.119942838151
 20
830.1165543566598
 30
0.0
 10
923.0527160220167
 20
829.960102674713
 30
0.0
 10
923.0085700168637
 20
829.7959710284421
 30
0.0
 10
922.9802689618367
 20
829.6273147697144
 30
0.0
 10
922.9764686612101
 20
829.5126631161198
 30
0.0
 10
922.9745525747361
 20
829.454856509676
 30
0.0
  0
SPLINE
  5
F2
330
1F
100
AcDbEntity
  8
0
  6
Continuous
 62
     7
370
    25
100
AcDbSpline
210
0.0
220
0.0
230
1.0
 70
     8
 71
     3
 72
    23
 73
    19
 74
     0
 42
0.00000001
 43
0.00000001
 40
0.0
 40
0.0
 40
0.0
 40
0.0
 40
0.0573394259201579
 40
0.1130633316232404
 40
0.1691814487493794
 40
0.2257745596549401
 40
0.283826303892084
 40
0.3434542790864923
 40
0.4059069615102781
 40
0.4713922597696834
 40
0.5380028337126946
 40
0.6030635561963482
 40
0.6676018307634215
 40
0.7322254428169054
 40
0.7970048098289857
 40
0.8630479900344339
 40
0.9303569870570443
 40
1.0
 40
1.0
 40
1.0
 40
1.0
 10
926.9745525747361
 20
829.5301770224964
 30
0.0
 10
926.972482063802
 20
829.5847538009839
 30
0.0
 10
926.9683993779256
 20
829.6923696744606
 30
0.0
 10
926.9424869404986
 20
829.8518360212321
 30
0.0
 10
926.8969649356321
 20
830.0058995965275
 30
0.0
 10
926.8345023142352
 20
830.1564138957788
 30
0.0
 10
926.751345828115
 20
830.3003292117379
 30
0.0
 10
926.6534146966883
 20
830.4413947461677
 30
0.0
 10
926.5352567112186
 20
830.57569519096
 30
0.0
 10
926.4017422057315
 20
830.7042736961283
 30
0.0
 10
926.2562360098214
 20
830.8231668086156
 30
0.0
 10
926.1015682501544
 20
830.9283426682922
 30
0.0
 10
925.9389294797292
 20
831.0169189340331
 30
0.0
 10
925.7686638548505
 20
831.0889566376953
 30
0.0
 10
925.5911494412841
 20
831.1456137111969
 30
0.0
 10
925.4065168045374
 20
831.1851931287682
 30
0.0
 10
925.2145497765408
 20
831.2101065066933
 30
0.0
 10
925.0841386433467
 20
831.2130003257089
 30
0.0
 10
925.0178218055053
 20
831.2144718942914
 30
0.0
  0
SPLINE
  5
F3
330
1F
100
AcDbEntity
  8
0
  6
Continuous
 62
     7
370
    25
100
AcDbSpline
210
0.0
220
0.0
230
1.0
 70
     8
 71
     3
 72
    23
 73
    19
 74
     0
 42
0.00000001
 43
0.00000001
 40
0.0
 40
0.0
 40
0.0
 40
0.0
 40
0.0765589329940486
 40
0.149161351979115
 40
0.218826846126995
 40
0.2855671390889788
 40
0.350313105719212
 40
0.4141251538580798
 40
0.4771791613162273
 40
0.5403680185081843
 40
0.6022023899907502
 40
0.6620336537315632
 40
0.71993440704958
 40
0.775907432682327
 40
0.8311148643832971
 40
0.886667447011963
 40
0.9425523618334888
 40
0.9999999999999999
 40
0.9999999999999999
 40
0.9999999999999999
 40
0.9999999999999999
 10
924.9713474465309
 20
827.8298565096759
 30
0.0
 10
925.0462054303524
 20
827.8312937860597
 30
0.0
 10
925.1920527878923
 20
827.8340940613537
 30
0.0
 10
925.4048206711974
 20
827.8588124483425
 30
0.0
 10
925.6056082108862
 20
827.8980115904413
 30
0.0
 10
925.7940260358209
 20
827.9550254094871
 30
0.0
 10
925.9721833838937
 20
828.0246253559014
 30
0.0
 10
926.1370596217026
 20
828.1141615422133
 30
0.0
 10
926.2928962550882
 20
828.2159954234687
 30
0.0
 10
926.4320142499298
 20
828.3368140670044
 30
0.0
 10
926.5587187270556
 20
828.4659100549266
 30
0.0
 10
926.6691948241967
 20
828.6025730106833
 30
0.0
 10
926.7650977983262
 20
828.7430887415964
 30
0.0
 10
926.8403685543376
 20
828.8906327065976
 30
0.0
 10
926.9005428486727
 20
829.0423742256786
 30
0.0
 10
926.9437966879641
 20
829.1997125371528
 30
0.0
 10
926.9704851799794
 20
829.3631302124752
 30
0.0
 10
926.9731843702582
 20
829.4739852321366
 30
0.0
 10
926.9745525747361
 20
829.5301770224964
 30
0.0
  0
SPLINE
  5
F4
330
1F
100
AcDbEntity
  8
0
  6
Continuous
 62
     7
370
    25
100
AcDbSpline
210
0.0
220
0.0
230
1.0
 70
     8
 71
     3
 72
    23
 73
    19
 74
     0
 42
0.00000001
 43
0.00000001
 40
0.0
 40
0.0
 40
0.0
 40
0.0
 40
0.0752433085911282
 40
0.147208811720253
 40
0.2164470898547683
 40
0.2840250416193514
 40
0.3506554491966468
 40
0.4150313178410257
 40
0.479629830964513
 40
0.5446516341371356
 40
0.6080442396977416
 40
0.667827565028817
 40
0.7251142466493385
 40
0.78099170791064
 40
0.8355270040618592
 40
0.889438154541583
 40
0.9440720891799446
 40
1.0
 40
1.0
 40
1.0
 40
1.0
 10
924.9713474465309
 20
834.5990872789067
 30
0.0
 10
924.9152313188021
 20
834.5975982719232
 30
0.0
 10
924.8054436362028
 20
834.5946851231953
 30
0.0
 10
924.6444638165037
 20
834.5794653814855
 30
0.0
 10
924.4913841197988
 20
834.5498580288438
 30
0.0
 10
924.3446051468718
 20
834.5104552595658
 30
0.0
 10
924.2061392903678
 20
834.4572255724015
 30
0.0
 10
924.0741060227751
 20
834.3946084083767
 30
0.0
 10
923.9507524460756
 20
834.3184802586755
 30
0.0
 10
923.834589467857
 20
834.2330832348894
 30
0.0
 10
923.7300162689608
 20
834.139156592419
 30
0.0
 10
923.6372058651833
 20
834.0412966637774
 30
0.0
 10
923.5601130327279
 20
833.9375814819308
 30
0.0
 10
923.494647639635
 20
833.8305909454206
 30
0.0
 10
923.4471470282601
 20
833.7171496282555
 30
0.0
 10
923.4115714765219
 20
833.6007355107636
 30
0.0
 10
923.3875225816804
 20
833.4798774900397
 30
0.0
 10
923.3857205473429
 20
833.3972797516589
 30
0.0
 10
923.3848089849924
 20
833.355497535317
 30
0.0
  0
SPLINE
  5
F5
330
1F
100
AcDbEntity
  8
0
  6
Continuous
 62
     7
370
    25
100
AcDbSpline
210
0.0
220
0.0
230
1.0
 70
     8
 71
     3
 72
    19
 73
    15
 74
     0
 42
0.00000001
 43
0.00000001
 40
0.0
 40
0.0
 40
0.0
 40
0.0
 40
0.0896899362473938
 40
0.1784940104960777
 40
0.2668377532994883
 40
0.3565581760610179
 40
0.4453342496549794
 40
0.5308058350374903
 40
0.6140762174402841
 40
0.6977070858228034
 40
0.7791419498114628
 40
0.8553535905869766
 40
0.9285568200856545
 40
1.0
 40
1.0
 40
1.0
 40
1.0
 10
925.000193600377
 20
832.0349847148042
 30
0.0
 10
925.0681938376231
 20
832.0369798397171
 30
0.0
 10
925.2035226779432
 20
832.0409503838168
 30
0.0
 10
925.4030182929911
 20
832.0778673524111
 30
0.0
 10
925.5969900516521
 20
832.1359380213389
 30
0.0
 10
925.7833646903739
 20
832.2153893729269
 30
0.0
 10
925.9573180280196
 20
832.3151101954385
 30
0.0
 10
926.1123810411069
 20
832.4344999510714
 30
0.0
 10
926.2472310818911
 20
832.5708018875364
 30
0.0
 10
926.3604667624023
 20
832.7218940835808
 30
0.0
 10
926.4482606970988
 20
832.8826977138848
 30
0.0
 10
926.5166076863359
 20
833.0440698117594
 30
0.0
 10
926.5565190357348
 20
833.2077320540178
 30
0.0
 10
926.5617249031344
 20
833.3173708284343
 30
0.0
 10
926.5642961644796
 20
833.3715231763425
 30
0.0
  0
SPLINE
  5
F6
330
1F
100
AcDbEntity
  8
0
  6
Continuous
 62
     7
370
    25
100
AcDbSpline
210
0.0
220
0.0
230
1.0
 70
     8
 71
     3
 72
    23
 73
    19
 74
     0
 42
0.00000001
 43
0.00000001
 40
0.0
 40
0.0
 40
0.0
 40
0.0
 40
0.0545639495070587
 40
0.1078262027811417
 40
0.1619237085214027
 40
0.2175097010530404
 40
0.2744983327961402
 40
0.334814764624017
 40
0.3975549470643517
 40
0.4647545773562005
 40
0.5329012097695254
 40
0.6000972138233291
 40
0.6653541614565461
 40
0.7310836277242081
 40
0.7968834939590075
 40
0.8632915901470207
 40
0.9308312175092466
 40
1.0
 40
1.0
 40
1.0
 40
1.0
 10
923.3848089849924
 20
833.355497535317
 30
0.0
 10
923.3863801093637
 20
833.3137135135456
 30
0.0
 10
923.3894848768261
 20
833.2311422839109
 30
0.0
 10
923.4134965980231
 20
833.1092088759486
 30
0.0
 10
923.4492836946916
 20
832.9893879919852
 30
0.0
 10
923.5056280636655
 20
832.8745287667135
 30
0.0
 10
923.5732083112788
 20
832.7606468028547
 30
0.0
 10
923.6566173994148
 20
832.6505883205365
 30
0.0
 10
923.7560208917552
 20
832.5439702979927
 30
0.0
 10
923.8680836123929
 20
832.4416995752288
 30
0.0
 10
923.9901671274303
 20
832.3459309738806
 30
0.0
 10
924.1195020833887
 20
832.2627922733122
 30
0.0
 10
924.2544652636641
 20
832.1932285922124
 30
0.0
 10
924.3936699932779
 20
832.1353328098708
 30
0.0
 10
924.5385350159053
 20
832.090327238801
 30
0.0
 10
924.6881726695096
 20
832.0583989040845
 30
0.0
 10
924.8426081034158
 20
832.038554339912
 30
0.0
 10
924.9472494308995
 20
832.036184005604
 30
0.0
 10
925.0001936003771
 20
832.0349847148042
 30
0.0
  0
SPLINE
  5
F7
330
1F
100
AcDbEntity
  8
0
  6
Continuous
 62
     7
370
    25
100
AcDbSpline
210
0.0
220
0.0
230
1.0
 70
     8
 71
     3
 72
    23
 73
    19
 74
     0
 42
0.00000001
 43
0.00000001
 40
0.0
 40
0.0
 40
0.0
 40
0.0
 40
0.0509024376836567
 40
0.101034042782616
 40
0.151083817008661
 40
0.2030619875551403
 40
0.2562484343627547
 40
0.3108467145046027
 40
0.3687690999693257
 40
0.4300150403860059
 40
0.4925196472738484
 40
0.556048721525678
 40
0.6219956829149513
 40
0.6901923690829557
 40
0.7613848549884993
 40
0.836356219950721
 40
0.9154870053271097
 40
1.0
 40
1.0
 40
1.0
 40
1.0
 10
926.5642961644796
 20
833.3715231763425
 30
0.0
 10
926.5630803985821
 20
833.409530115585
 30
0.0
 10
926.5606672775351
 20
833.4849684423172
 30
0.0
 10
926.5407814353454
 20
833.5963704202305
 30
0.0
 10
926.5079223884752
 20
833.7052380397108
 30
0.0
 10
926.4634353483133
 20
833.8124706584715
 30
0.0
 10
926.40489867455
 20
833.9165637603826
 30
0.0
 10
926.3354948174772
 20
834.0191536758327
 30
0.0
 10
926.2511873856934
 20
834.1179325645152
 30
0.0
 10
926.1565669665157
 20
834.21520238969
 30
0.0
 10
926.0492631753431
 20
834.3052230152249
 30
0.0
 10
925.9294828043953
 20
834.384388067176
 30
0.0
 10
925.7978399463831
 20
834.4516163107254
 30
0.0
 10
925.6543314892934
 20
834.5062191787894
 30
0.0
 10
925.4994859484931
 20
834.5472302636792
 30
0.0
 10
925.3340165211865
 20
834.577941915748
 30
0.0
 10
925.1565434995601
 20
834.595251884774
 30
0.0
 10
925.0344183542691
 20
834.5977810858992
 30
0.0
 10
924.9713474465309
 20
834.5990872789067
 30
0.0
  0
LINE
  5
F8
330
1F
100
AcDbEntity
  8
0
  6
Continuous
 62
     7
370
    25
100
AcDbLine
 10
944.2053218055
 20
831.0093436892
 30
0.0
 11
944.2053218055
 21
828.0349847148
 31
0.0
  0
LINE
  5
F9
330
1F
100
AcDbEntity
  8
0
  6
Continuous
 62
     7
370
    25
100
AcDbLine
 10
944.2053218055
 20
828.0349847148
 30
0.0
 11
945.2277577029
 21
828.0349847148
 31
0.0
  0
SPLINE
  5
FA
330
1F
100
AcDbEntity
  8
0
  6
Continuous
 62
     7
370
    25
100
AcDbSpline
210
0.0
220
0.0
230
1.0
 70
     8
 71
     3
 72
    23
 73
    19
 74
     0
 42
0.00000001
 43
0.00000001
 40
0.0
 40
0.0
 40
0.0
 40
0.0
 40
0.0725024889330334
 40
0.1397389892678939
 40
0.2017951348259221
 40
0.2598219344148626
 40
0.3122059893845967
 40
0.3607734341243379
 40
0.4045403426007487
 40
0.4436980985527627
 40
0.5168407942439694
 40
0.5878743359442808
 40
0.6579654175616315
 40
0.7289693886473123
 40
0.7993077199548829
 40
0.8666357778344711
 40
0.9331163290572735
 40
1.0
 40
1.0
 40
1.0
 40
1.0
 10
945.2277577029412
 20
828.0349847148042
 30
0.0
 10
945.3009438193137
 20
828.0358618517109
 30
0.0
 10
945.4420004103474
 20
828.0375524174642
 30
0.0
 10
945.6456603649095
 20
828.0430713993176
 30
0.0
 10
945.8344217450264
 20
828.055625172344
 30
0.0
 10
946.0074231981223
 20
828.0753871144325
 30
0.0
 10
946.1665328041352
 20
828.0968235696831
 30
0.0
 10
946.3098418396298
 20
828.125649354647
 30
0.0
 10
946.4385119961132
 20
828.1586755501337
 30
0.0
 10
946.5877104138032
 20
828.2097250866709
 30
0.0
 10
946.7557184327311
 20
828.2890313059104
 30
0.0
 10
946.9367718187553
 20
828.4086066805805
 30
0.0
 10
947.0977460316559
 20
828.5510599554899
 30
0.0
 10
947.2344437669854
 20
828.7159306164582
 30
0.0
 10
947.3464734550904
 20
828.8952022208657
 30
0.0
 10
947.4279716381385
 20
829.0852487350433
 30
0.0
 10
947.4782364534966
 20
829.2829299405711
 30
0.0
 10
947.4843214118735
 20
829.4177109978122
 30
0.0
 10
947.4873730875566
 20
829.4853052276246
 30
0.0
  0
SPLINE
  5
FB
330
1F
100
AcDbEntity
  8
0
  6
Continuous
 62
     7
370
    25
100
AcDbSpline
210
0.0
220
0.0
230
1.0
 70
     8
 71
     3
 72
    19
 73
    15
 74
     0
 42
0.00000001
 43
0.00000001
 40
0.0
 40
0.0
 40
0.0
 40
0.0
 40
0.0602873979279726
 40
0.119602354707522
 40
0.1775033710185401
 40
0.2351426637323318
 40
0.2921325932269338
 40
0.3508712086415664
 40
0.410097862566594
 40
0.4707315215304504
 40
0.594828704080415
 40
0.7225788240942911
 40
0.8566913895440171
 40
1.0
 40
1.0
 40
1.0
 40
1.0
 10
947.4873730875566
 20
829.4853052276246
 30
0.0
 10
947.4867419919282
 20
829.5275757202305
 30
0.0
 10
947.4854899803006
 20
829.6114348785965
 30
0.0
 10
947.4666085747608
 20
829.7346710367402
 30
0.0
 10
947.4391483009465
 20
829.8540444614472
 30
0.0
 10
947.4036478806436
 20
829.9698792968409
 30
0.0
 10
947.3519462415783
 20
830.0800812999216
 30
0.0
 10
947.2915884243963
 20
830.1868300074342
 30
0.0
 10
947.2208195063515
 20
830.2902665318313
 30
0.0
 10
947.1105471272255
 20
830.4210373968584
 30
0.0
 10
946.9501540197512
 20
830.5717048549235
 30
0.0
 10
946.7222528187389
 20
830.7192191458186
 30
0.0
 10
946.4631161376662
 20
830.8381855620186
 30
0.0
 10
946.2751675824752
 20
830.8886986507922
 30
0.0
 10
946.1780782157617
 20
830.9147924071118
 30
0.0
  0
SPLINE
  5
FC
330
1F
100
AcDbEntity
  8
0
  6
Continuous
 62
     7
370
    25
100
AcDbSpline
210
0.0
220
0.0
230
1.0
 70
     8
 71
     3
 72
    15
 73
    11
 74
     0
 42
0.00000001
 43
0.00000001
 40
0.0
 40
0.0
 40
0.0
 40
0.0
 40
0.0793064855230003
 40
0.171952818927932
 40
0.2770565073915913
 40
0.3947305758644772
 40
0.5261773212767583
 40
0.6713447665976138
 40
0.8292852571892514
 40
1.0
 40
1.0
 40
1.0
 40
1.0
 10
946.1780782157617
 20
830.9147924071118
 30
0.0
 10
946.1391545680992
 20
830.9226897418671
 30
0.0
 10
946.0547600713018
 20
830.9398127925764
 30
0.0
 10
945.9171427446073
 20
830.9578875431806
 30
0.0
 10
945.7600321871164
 20
830.9739905372197
 30
0.0
 10
945.5830656105996
 20
830.9859017547368
 30
0.0
 10
945.3860191166254
 20
830.9982138542751
 30
0.0
 10
945.1684718739155
 20
831.0030020168404
 30
0.0
 10
944.9313122975517
 20
831.0087146113397
 30
0.0
 10
944.7667583034951
 20
831.0091286324638
 30
0.0
 10
944.6812833439668
 20
831.0093436891631
 30
0.0
  0
LINE
  5
FD
330
1F
100
AcDbEntity
  8
0
  6
Continuous
 62
     7
370
    25
100
AcDbLine
 10
944.681283344
 20
831.0093436892
 30
0.0
 11
944.2053218055
 21
831.0093436892
 31
0.0
  0
ENDSEC
  0
SECTION
  2
OBJECTS
  0
DICTIONARY
  5
C
330
0
100
AcDbDictionary
281
     1
  3
ACAD_DETAILVIEWSTYLE
350
105
  3
ACAD_GROUP
350
D
  3
ACAD_LAYOUT
350
1A
  3
ACAD_MATERIAL
350
43
  3
ACAD_MLEADERSTYLE
350
5B
  3
ACAD_MLINESTYLE
350
17
  3
ACAD_PLOTSETTINGS
350
19
  3
ACAD_PLOTSTYLENAME
350
E
  3
ACAD_SCALELIST
350
47
  3
ACAD_SECTIONVIEWSTYLE
350
106
  3
ACAD_TABLESTYLE
350
59
  3
ACAD_VISUALSTYLE
350
2A
  3
ACDB_RECOMPOSE_DATA
350
102
  3
AcDbVariableDictionary
350
FE
  0
SUN
  5
5D
330
29
100
AcDbSun
 90
        1
290
     0
 63
     7
421
 16777215
 40
1.0
291
     1
 91
  2455826
 92
 54000000
292
     0
 70
     2
 71
   256
280
     1
  0
DICTIONARY
  5
105
102
{ACAD_REACTORS
330
C
102
}
330
C
100
AcDbDictionary
281
     1
  0
DICTIONARY
  5
D
102
{ACAD_REACTORS
330
C
102
}
330
C
100
AcDbDictionary
281
     1
  0
DICTIONARY
  5
1A
102
{ACAD_REACTORS
330
C
102
}
330
C
100
AcDbDictionary
281
     1
  3
Layout1
350
1E
  3
Layout2
350
26
  3
Model
350
22
  0
DICTIONARY
  5
43
102
{ACAD_REACTORS
330
C
102
}
330
C
100
AcDbDictionary
281
     1
  3
ByBlock
350
45
  3
ByLayer
350
44
  3
Global
350
46
  0
DICTIONARY
  5
5B
102
{ACAD_REACTORS
330
C
102
}
330
C
100
AcDbDictionary
281
     1
  3
Standard
350
5C
  0
DICTIONARY
  5
17
102
{ACAD_REACTORS
330
C
102
}
330
C
100
AcDbDictionary
281
     1
  3
Standard
350
18
  0
DICTIONARY
  5
19
102
{ACAD_REACTORS
330
C
102
}
330
C
100
AcDbDictionary
281
     1
  0
ACDBDICTIONARYWDFLT
  5
E
102
{ACAD_REACTORS
330
C
102
}
330
C
100
AcDbDictionary
281
     1
  3
Normal
350
F
100
AcDbDictionaryWithDefault
340
F
  0
DICTIONARY
  5
47
102
{ACAD_REACTORS
330
C
102
}
330
C
100
AcDbDictionary
281
     1
  3
A0
350
48
  3
A1
350
49
  3
A2
350
4A
  3
A3
350
4B
  3
A4
350
4C
  3
A5
350
4D
  3
A6
350
4E
  3
A7
350
4F
  3
A8
350
50
  3
A9
350
51
  3
B0
350
52
  3
B1
350
53
  3
B2
350
54
  3
B3
350
55
  3
B4
350
56
  3
B5
350
57
  3
B6
350
58
  0
DICTIONARY
  5
106
102
{ACAD_REACTORS
330
C
102
}
330
C
100
AcDbDictionary
281
     1
  0
DICTIONARY
  5
59
102
{ACAD_REACTORS
330
C
102
}
330
C
100
AcDbDictionary
281
     1
  3
Standard
350
5A
  0
DICTIONARY
  5
2A
102
{ACAD_REACTORS
330
C
102
}
330
C
100
AcDbDictionary
281
     1
  3
2dWireframe
350
2F
  3
Basic
350
32
  3
Brighten
350
36
  3
ColorChange
350
3A
  3
Conceptual
350
34
  3
Dim
350
35
  3
EdgeColorOff
350
3D
  3
Facepattern
350
39
  3
Flat
350
2B
  3
FlatWithEdges
350
2C
  3
Gouraud
350
2D
  3
GouraudWithEdges
350
2E
  3
Hidden
350
31
  3
JitterOff
350
3B
  3
Linepattern
350
38
  3
OverhangOff
350
3C
  3
Realistic
350
33
  3
Shaded
350
42
  3
Shaded with edges
350
41
  3
Shades of Gray
350
3E
  3
Sketchy
350
3F
  3
Thicken
350
37
  3
Wireframe
350
30
  3
X-Ray
350
40
  0
XRECORD
  5
102
102
{ACAD_REACTORS
330
C
102
}
330
C
100
AcDbXrecord
280
     1
 90
        1
330
5A
  0
DICTIONARY
  5
FE
102
{ACAD_REACTORS
330
C
102
}
330
C
100
AcDbDictionary
281
     1
  3
CANNOSCALE
350
FF
  3
CENTEREXE
350
107
  3
CENTERLTYPEFILE
350
108
  3
CMLEADERSTYLE
350
104
  3
CTABLESTYLE
350
103
  0
LAYOUT
  5
1E
102
{ACAD_REACTORS
330
1A
102
}
330
1A
100
AcDbPlotSettings
  1

  2
none_device
  4

  6

 40
0.0
 41
0.0
 42
0.0
 43
0.0
 44
0.0
 45
0.0
 46
0.0
 47
0.0
 48
0.0
 49
0.0
140
0.0
141
0.0
142
1.0
143
1.0
 70
   688
 72
     1
 73
     0
 74
     5
  7

 75
    16
 76
     0
 77
     2
 78
   300
147
1.0
148
0.0
149
0.0
100
AcDbLayout
  1
Layout1
 70
     1
 71
     1
 10
0.0
 20
0.0
 11
420.0
 21
297.0
 12
0.0
 22
0.0
 32
0.0
 14
1.0000000000E+20
 24
1.0000000000E+20
 34
1.0000000000E+20
 15
-1.0000000000E+20
 25
-1.0000000000E+20
 35
-1.0000000000E+20
146
0.0
 13
0.0
 23
0.0
 33
0.0
 16
1.0
 26
0.0
 36
0.0
 17
0.0
 27
1.0
 37
0.0
 76
     0
330
1B
  0
LAYOUT
  5
26
102
{ACAD_REACTORS
330
1A
102
}
330
1A
100
AcDbPlotSettings
  1

  2
none_device
  4

  6

 40
0.0
 41
0.0
 42
0.0
 43
0.0
 44
0.0
 45
0.0
 46
0.0
 47
0.0
 48
0.0
 49
0.0
140
0.0
141
0.0
142
1.0
143
1.0
 70
   688
 72
     1
 73
     0
 74
     5
  7

 75
    16
 76
     0
 77
     2
 78
   300
147
1.0
148
0.0
149
0.0
100
AcDbLayout
  1
Layout2
 70
     1
 71
     2
 10
0.0
 20
0.0
 11
0.0
 21
0.0
 12
0.0
 22
0.0
 32
0.0
 14
0.0
 24
0.0
 34
0.0
 15
0.0
 25
0.0
 35
0.0
146
0.0
 13
0.0
 23
0.0
 33
0.0
 16
1.0
 26
0.0
 36
0.0
 17
0.0
 27
1.0
 37
0.0
 76
     0
330
23
  0
LAYOUT
  5
22
102
{ACAD_REACTORS
330
1A
102
}
330
1A
100
AcDbPlotSettings
  1

  2
none_device
  4
Letter_(8.50_x_11.00_Inches)
  6

 40
6.35
 41
6.35
 42
6.35000508
 43
6.35000508
 44
215.9
 45
279.4
 46
0.0
 47
0.0
 48
0.0
 49
0.0
140
0.0
141
0.0
142
1.0
143
1.0
 70
  1712
 72
     1
 73
     0
 74
     0
  7

 75
     0
 76
     0
 77
     2
 78
   300
147
1.0
148
0.0
149
0.0
100
AcDbLayout
  1
Model
 70
     1
 71
     0
 10
0.0
 20
0.0
 11
420.0
 21
297.0
 12
0.0
 22
0.0
 32
0.0
 14
0.0
 24
0.0
 34
0.0
 15
420.0
 25
297.0
 35
0.0
146
0.0
 13
0.0
 23
0.0
 33
0.0
 16
1.0
 26
0.0
 36
0.0
 17
0.0
 27
1.0
 37
0.0
 76
     0
330
1F
331
29
  0
MATERIAL
  5
45
102
{ACAD_REACTORS
330
43
102
}
330
43
100
AcDbMaterial
  1
ByBlock
 72
     1
 94
      127
  0
MATERIAL
  5
44
102
{ACAD_REACTORS
330
43
102
}
330
43
100
AcDbMaterial
  1
ByLayer
 72
     1
 94
      127
  0
MATERIAL
  5
46
102
{ACAD_REACTORS
330
43
102
}
330
43
100
AcDbMaterial
  1
Global
 72
     1
 94
      127
  0
MLEADERSTYLE
  5
5C
102
{ACAD_REACTORS
330
5B
102
}
330
5B
100
AcDbMLeaderStyle
179
     2
170
     2
171
     1
172
     0
 90
        2
 40
0.0
 41
0.0
173
     1
 91
-1056964608
340
14
 92
       -2
290
     1
 42
2.0
291
     1
 43
8.0
  3
Standard
341
0
 44
4.0
300

342
11
174
     1
178
     6
175
     1
176
     0
 93
-1056964608
 45
4.0
292
     0
297
     0
 46
4.0
343
0
 94
-1056964608
 47
1.0
 49
1.0
140
1.0
293
     1
141
0.0
294
     1
177
     0
142
1.0
295
     0
296
     0
143
3.75
271
     0
272
     9
273
     9
298
     0
  0
MLINESTYLE
  5
18
102
{ACAD_REACTORS
330
17
102
}
330
17
100
AcDbMlineStyle
  2
Standard
 70
     0
  3

 62
   256
 51
90.0
 52
90.0
 71
     2
 49
0.5
 62
   256
  6
BYLAYER
 49
-0.5
 62
   256
  6
BYLAYER
  0
ACDBPLACEHOLDER
  5
F
102
{ACAD_REACTORS
330
E
102
}
330
E
  0
SCALE
  5
48
102
{ACAD_REACTORS
330
47
102
}
330
47
100
AcDbScale
 70
     0
300
1:1
140
1.0
141
1.0
290
     1
  0
SCALE
  5
49
102
{ACAD_REACTORS
330
47
102
}
330
47
100
AcDbScale
 70
     0
300
1:2
140
1.0
141
2.0
290
     0
  0
SCALE
  5
4A
102
{ACAD_REACTORS
330
47
102
}
330
47
100
AcDbScale
 70
     0
300
1:4
140
1.0
141
4.0
290
     0
  0
SCALE
  5
4B
102
{ACAD_REACTORS
330
47
102
}
330
47
100
AcDbScale
 70
     0
300
1:5
140
1.0
141
5.0
290
     0
  0
SCALE
  5
4C
102
{ACAD_REACTORS
330
47
102
}
330
47
100
AcDbScale
 70
     0
300
1:8
140
1.0
141
8.0
290
     0
  0
SCALE
  5
4D
102
{ACAD_REACTORS
330
47
102
}
330
47
100
AcDbScale
 70
     0
300
1:10
140
1.0
141
10.0
290
     0
  0
SCALE
  5
4E
102
{ACAD_REACTORS
330
47
102
}
330
47
100
AcDbScale
 70
     0
300
1:16
140
1.0
141
16.0
290
     0
  0
SCALE
  5
4F
102
{ACAD_REACTORS
330
47
102
}
330
47
100
AcDbScale
 70
     0
300
1:20
140
1.0
141
20.0
290
     0
  0
SCALE
  5
50
102
{ACAD_REACTORS
330
47
102
}
330
47
100
AcDbScale
 70
     0
300
1:30
140
1.0
141
30.0
290
     0
  0
SCALE
  5
51
102
{ACAD_REACTORS
330
47
102
}
330
47
100
AcDbScale
 70
     0
300
1:40
140
1.0
141
40.0
290
     0
  0
SCALE
  5
52
102
{ACAD_REACTORS
330
47
102
}
330
47
100
AcDbScale
 70
     0
300
1:50
140
1.0
141
50.0
290
     0
  0
SCALE
  5
53
102
{ACAD_REACTORS
330
47
102
}
330
47
100
AcDbScale
 70
     0
300
1:100
140
1.0
141
100.0
290
     0
  0
SCALE
  5
54
102
{ACAD_REACTORS
330
47
102
}
330
47
100
AcDbScale
 70
     0
300
2:1
140
2.0
141
1.0
290
     0
  0
SCALE
  5
55
102
{ACAD_REACTORS
330
47
102
}
330
47
100
AcDbScale
 70
     0
300
4:1
140
4.0
141
1.0
290
     0
  0
SCALE
  5
56
102
{ACAD_REACTORS
330
47
102
}
330
47
100
AcDbScale
 70
     0
300
8:1
140
8.0
141
1.0
290
     0
  0
SCALE
  5
57
102
{ACAD_REACTORS
330
47
102
}
330
47
100
AcDbScale
 70
     0
300
10:1
140
10.0
141
1.0
290
     0
  0
SCALE
  5
58
102
{ACAD_REACTORS
330
47
102
}
330
47
100
AcDbScale
 70
     0
300
100:1
140
100.0
141
1.0
290
     0
  0
TABLESTYLE
  5
5A
102
{ACAD_REACTORS
330
59
102
}
102
{ACAD_XDICTIONARY
360
100
102
}
330
59
100
AcDbTableStyle
  3
Standard
 70
     0
 71
     0
 40
0.06
 41
0.06
280
     0
281
     0
  7
Standard
140
4.5
170
     2
 62
     0
 63
   257
283
     0
 90
        4
 91
        0
  1

274
    -2
284
     1
 64
     0
275
    -2
285
     1
 65
     0
276
    -2
286
     1
 66
     0
277
    -2
287
     1
 67
     0
278
    -2
288
     1
 68
     0
279
    -2
289
     1
 69
     0
  7
Standard
140
6.0
170
     5
 62
     0
 63
   257
283
     0
 90
        4
 91
        0
  1

274
    -2
284
     1
 64
     0
275
    -2
285
     1
 65
     0
276
    -2
286
     1
 66
     0
277
    -2
287
     1
 67
     0
278
    -2
288
     1
 68
     0
279
    -2
289
     1
 69
     0
  7
Standard
140
4.5
170
     5
 62
     0
 63
   257
283
     0
 90
        4
 91
        0
  1

274
    -2
284
     1
 64
     0
275
    -2
285
     1
 65
     0
276
    -2
286
     1
 66
     0
277
    -2
287
     1
 67
     0
278
    -2
288
     1
 68
     0
279
    -2
289
     1
 69
     0
  0
VISUALSTYLE
  5
2F
102
{ACAD_REACTORS
330
2A
102
}
330
2A
100
AcDbVisualStyle
  2
2dWireframe
 70
     4
177
     3
291
     0
 70
    58
 90
        0
176
     1
 90
        2
176
     1
 90
        0
176
     1
 90
        0
176
     1
 40
0.6
176
     1
 40
30.0
176
     1
 62
     7
420
 16777215
176
     1
 90
        1
176
     1
 90
        4
176
     1
 62
     7
176
     1
 62
   257
176
     1
 90
        1
176
     1
 90
        1
176
     1
 40
1.0
176
     1
 90
        0
176
     1
 62
   257
176
     1
 40
1.0
176
     1
 90
        1
176
     1
 90
        6
176
     1
 90
        2
176
     1
 62
     7
176
     1
 90
        5
176
     1
 90
        0
176
     1
 90
        0
176
     1
290
     0
176
     1
 90
        1
176
     1
 40
0.0
176
     1
 90
        0
176
     1
290
     1
176
     1
290
     1
176
     1
290
     0
176
     1
290
     0
176
     1
290
     0
176
     1
290
     0
176
     1
290
     0
176
     1
290
     0
176
     1
290
     0
176
     1
 90
       50
176
     1
 40
0.0
176
     1
 40
1.0
176
     1
 90
        0
176
     1
 62
    18
420
        0
176
     1
 90
       50
176
     1
 90
        3
176
     1
 62
     5
420
      255
176
     1
290
     0
176
     1
 90
       50
176
     1
 90
       50
176
     1
 90
       50
176
     1
290
     0
176
     1
 90
       50
176
     1
 62
   256
176
     0
 40
1.0
176
     0
 90
        2
176
     1
  1
strokes_ogs.tif
176
     1
290
     0
176
     1
 40
1.0
176
     1
 40
1.0
176
     1
  0
VISUALSTYLE
  5
32
102
{ACAD_REACTORS
330
2A
102
}
330
2A
100
AcDbVisualStyle
  2
Basic
 70
     7
177
     3
291
     1
 70
    58
 90
        1
176
     1
 90
        0
176
     1
 90
        1
176
     1
 90
        0
176
     1
 40
0.6
176
     1
 40
30.0
176
     1
 62
     7
420
 16777215
176
     1
 90
        0
176
     1
 90
        4
176
     1
 62
     7
176
     1
 62
   257
176
     1
 90
        1
176
     1
 90
        1
176
     1
 40
1.0
176
     1
 90
        8
176
     1
 62
     7
176
     1
 40
1.0
176
     1
 90
        1
176
     1
 90
        6
176
     1
 90
        2
176
     1
 62
     7
176
     1
 90
        5
176
     1
 90
        0
176
     1
 90
        0
176
     1
290
     0
176
     1
 90
        1
176
     1
 40
0.0
176
     1
 90
        0
176
     1
290
     0
176
     1
290
     1
176
     1
290
     1
176
     1
290
     0
176
     1
290
     0
176
     1
290
     0
176
     1
290
     0
176
     1
290
     0
176
     1
290
     0
176
     1
 90
       50
176
     1
 40
0.0
176
     1
 40
1.0
176
     1
 90
        0
176
     1
 62
    18
420
        0
176
     1
 90
       50
176
     1
 90
        3
176
     1
 62
     5
420
      255
176
     1
290
     0
176
     1
 90
       50
176
     1
 90
       50
176
     1
 90
       50
176
     1
290
     0
176
     1
 90
       50
176
     1
 62
   256
176
     0
 40
1.0
176
     0
 90
        2
176
     1
  1
strokes_ogs.tif
176
     1
290
     0
176
     1
 40
1.0
176
     1
 40
1.0
176
     1
  0
VISUALSTYLE
  5
36
102
{ACAD_REACTORS
330
2A
102
}
330
2A
100
AcDbVisualStyle
  2
Brighten
 70
    12
177
     3
291
     1
 70
    58
 90
        2
176
     1
 90
        2
176
     1
 90
        0
176
     1
 90
        0
176
     1
 40
0.6
176
     1
 40
30.0
176
     1
 62
     7
420
 16777215
176
     1
 90
        1
176
     1
 90
        4
176
     1
 62
     7
176
     1
 62
   257
176
     1
 90
        1
176
     1
 90
        1
176
     1
 40
1.0
176
     1
 90
        8
176
     1
 62
     7
176
     1
 40
1.0
176
     1
 90
        1
176
     1
 90
        6
176
     1
 90
        2
176
     1
 62
     7
176
     1
 90
        5
176
     1
 90
        0
176
     1
 90
        0
176
     1
290
     0
176
     1
 90
        1
176
     1
 40
50.0
176
     1
 90
        0
176
     1
290
     0
176
     1
290
     1
176
     1
290
     1
176
     1
290
     0
176
     1
290
     0
176
     1
290
     0
176
     1
290
     0
176
     1
290
     0
176
     1
290
     0
176
     1
 90
       50
176
     1
 40
0.0
176
     1
 40
1.0
176
     1
 90
        0
176
     1
 62
    18
420
        0
176
     1
 90
       50
176
     1
 90
        3
176
     1
 62
     5
420
      255
176
     1
290
     0
176
     1
 90
       50
176
     1
 90
       50
176
     1
 90
       50
176
     1
290
     0
176
     1
 90
       50
176
     1
 62
   256
176
     0
 40
1.0
176
     0
 90
        2
176
     1
  1
strokes_ogs.tif
176
     1
290
     0
176
     1
 40
1.0
176
     1
 40
1.0
176
     1
  0
VISUALSTYLE
  5
3A
102
{ACAD_REACTORS
330
2A
102
}
330
2A
100
AcDbVisualStyle
  2
ColorChange
 70
    16
177
     3
291
     1
 70
    58
 90
        2
176
     1
 90
        2
176
     1
 90
        3
176
     1
 90
        0
176
     1
 40
0.6
176
     1
 40
30.0
176
     1
 62
     8
420
  8421504
176
     1
 90
        1
176
     1
 90
        4
176
     1
 62
     7
176
     1
 62
   257
176
     1
 90
        1
176
     1
 90
        1
176
     1
 40
1.0
176
     1
 90
        8
176
     1
 62
     8
420
  8421504
176
     1
 40
1.0
176
     1
 90
        1
176
     1
 90
        6
176
     1
 90
        2
176
     1
 62
     7
176
     1
 90
        5
176
     1
 90
        0
176
     1
 90
        0
176
     1
290
     0
176
     1
 90
        1
176
     1
 40
0.0
176
     1
 90
        0
176
     1
290
     0
176
     1
290
     1
176
     1
290
     1
176
     1
290
     0
176
     1
290
     0
176
     1
290
     0
176
     1
290
     0
176
     1
290
     0
176
     1
290
     0
176
     1
 90
       50
176
     1
 40
0.0
176
     1
 40
1.0
176
     1
 90
        0
176
     1
 62
    18
420
        0
176
     1
 90
       50
176
     1
 90
        3
176
     1
 62
     5
420
      255
176
     1
290
     0
176
     1
 90
       50
176
     1
 90
       50
176
     1
 90
       50
176
     1
290
     0
176
     1
 90
       50
176
     1
 62
   256
176
     0
 40
1.0
176
     0
 90
        2
176
     1
  1
strokes_ogs.tif
176
     1
290
     0
176
     1
 40
1.0
176
     1
 40
1.0
176
     1
  0
VISUALSTYLE
  5
34
102
{ACAD_REACTORS
330
2A
102
}
330
2A
100
AcDbVisualStyle
  2
Conceptual
 70
     9
177
     3
291
     0
 70
    58
 90
        3
176
     1
 90
        2
176
     1
 90
        0
176
     1
 90
        0
176
     1
 40
0.6
176
     1
 40
30.0
176
     1
 62
     7
420
 16777215
176
     1
 90
        2
176
     1
 90
        2
176
     1
 62
     7
176
     1
 62
   257
176
     1
 90
        1
176
     1
 90
        1
176
     1
 40
179.0
176
     1
 90
        8
176
     1
 62
     7
176
     1
 40
1.0
176
     1
 90
        1
176
     1
 90
        6
176
     1
 90
        2
176
     1
 62
     7
176
     1
 90
        3
176
     1
 90
        0
176
     1
 90
        0
176
     1
290
     0
176
     1
 90
        1
176
     1
 40
0.0
176
     1
 90
        0
176
     1
290
     0
176
     1
290
     1
176
     1
290
     1
176
     1
290
     0
176
     1
290
     0
176
     1
290
     0
176
     1
290
     0
176
     1
290
     0
176
     1
290
     0
176
     1
 90
       50
176
     1
 40
0.0
176
     1
 40
1.0
176
     1
 90
        0
176
     1
 62
    18
420
        0
176
     1
 90
       50
176
     1
 90
        3
176
     1
 62
     5
420
      255
176
     1
290
     0
176
     1
 90
       50
176
     1
 90
       50
176
     1
 90
       50
176
     1
290
     0
176
     1
 90
       50
176
     1
 62
   256
176
     0
 40
1.0
176
     0
 90
        2
176
     1
  1
strokes_ogs.tif
176
     1
290
     0
176
     1
 40
1.0
176
     1
 40
1.0
176
     1
  0
VISUALSTYLE
  5
35
102
{ACAD_REACTORS
330
2A
102
}
330
2A
100
AcDbVisualStyle
  2
Dim
 70
    11
177
     3
291
     1
 70
    58
 90
        2
176
     1
 90
        2
176
     1
 90
        0
176
     1
 90
        0
176
     1
 40
0.6
176
     1
 40
30.0
176
     1
 62
     7
420
 16777215
176
     1
 90
        1
176
     1
 90
        4
176
     1
 62
     7
176
     1
 62
   257
176
     1
 90
        1
176
     1
 90
        1
176
     1
 40
1.0
176
     1
 90
        8
176
     1
 62
     7
176
     1
 40
1.0
176
     1
 90
        1
176
     1
 90
        6
176
     1
 90
        2
176
     1
 62
     7
176
     1
 90
        5
176
     1
 90
        0
176
     1
 90
        0
176
     1
290
     0
176
     1
 90
        1
176
     1
 40
-50.0
176
     1
 90
        0
176
     1
290
     0
176
     1
290
     1
176
     1
290
     1
176
     1
290
     0
176
     1
290
     0
176
     1
290
     0
176
     1
290
     0
176
     1
290
     0
176
     1
290
     0
176
     1
 90
       50
176
     1
 40
0.0
176
     1
 40
1.0
176
     1
 90
        0
176
     1
 62
    18
420
        0
176
     1
 90
       50
176
     1
 90
        3
176
     1
 62
     5
420
      255
176
     1
290
     0
176
     1
 90
       50
176
     1
 90
       50
176
     1
 90
       50
176
     1
290
     0
176
     1
 90
       50
176
     1
 62
   256
176
     0
 40
1.0
176
     0
 90
        2
176
     1
  1
strokes_ogs.tif
176
     1
290
     0
176
     1
 40
1.0
176
     1
 40
1.0
176
     1
  0
VISUALSTYLE
  5
3D
102
{ACAD_REACTORS
330
2A
102
}
330
2A
100
AcDbVisualStyle
  2
EdgeColorOff
 70
    22
177
     3
291
     1
 70
    58
 90
        2
176
     0
 90
        2
176
     0
 90
        0
176
     0
 90
        0
176
     0
 40
0.6
176
     0
 40
30.0
176
     0
 62
     7
420
 16777215
176
     0
 90
        1
176
     0
 90
        4
176
     0
 62
     7
176
     0
 62
   257
176
     0
 90
        1
176
     0
 90
        1
176
     0
 40
1.0
176
     0
 90
        8
176
     2
 62
     7
176
     0
 40
1.0
176
     0
 90
        1
176
     0
 90
        6
176
     0
 90
        2
176
     0
 62
     7
176
     0
 90
        5
176
     0
 90
        0
176
     0
 90
        0
176
     0
290
     0
176
     0
 90
        1
176
     0
 40
0.0
176
     0
 90
        0
176
     0
290
     0
176
     0
290
     1
176
     0
290
     1
176
     0
290
     0
176
     0
290
     0
176
     0
290
     0
176
     0
290
     0
176
     0
290
     0
176
     0
290
     0
176
     0
 90
       50
176
     0
 40
0.0
176
     0
 40
1.0
176
     0
 90
        0
176
     0
 62
    18
420
        0
176
     0
 90
       50
176
     0
 90
        3
176
     0
 62
     5
420
      255
176
     0
290
     0
176
     0
 90
       50
176
     0
 90
       50
176
     0
 90
       50
176
     0
290
     0
176
     0
 90
       50
176
     0
 62
   256
176
     0
 40
1.0
176
     0
 90
        2
176
     0
  1
strokes_ogs.tif
176
     0
290
     0
176
     0
 40
1.0
176
     0
 40
1.0
176
     0
  0
VISUALSTYLE
  5
39
102
{ACAD_REACTORS
330
2A
102
}
330
2A
100
AcDbVisualStyle
  2
Facepattern
 70
    15
177
     3
291
     1
 70
    58
 90
        2
176
     1
 90
        2
176
     1
 90
        0
176
     1
 90
        0
176
     1
 40
0.6
176
     1
 40
30.0
176
     1
 62
     7
420
 16777215
176
     1
 90
        1
176
     1
 90
        4
176
     1
 62
     7
176
     1
 62
   257
176
     1
 90
        1
176
     1
 90
        1
176
     1
 40
1.0
176
     1
 90
        8
176
     1
 62
     7
176
     1
 40
1.0
176
     1
 90
        1
176
     1
 90
        6
176
     1
 90
        2
176
     1
 62
     7
176
     1
 90
        5
176
     1
 90
        0
176
     1
 90
        0
176
     1
290
     0
176
     1
 90
        1
176
     1
 40
0.0
176
     1
 90
        0
176
     1
290
     0
176
     1
290
     1
176
     1
290
     1
176
     1
290
     0
176
     1
290
     0
176
     1
290
     0
176
     1
290
     0
176
     1
290
     0
176
     1
290
     0
176
     1
 90
       50
176
     1
 40
0.0
176
     1
 40
1.0
176
     1
 90
        0
176
     1
 62
    18
420
        0
176
     1
 90
       50
176
     1
 90
        3
176
     1
 62
     5
420
      255
176
     1
290
     0
176
     1
 90
       50
176
     1
 90
       50
176
     1
 90
       50
176
     1
290
     0
176
     1
 90
       50
176
     1
 62
   256
176
     0
 40
1.0
176
     0
 90
        2
176
     1
  1
strokes_ogs.tif
176
     1
290
     0
176
     1
 40
1.0
176
     1
 40
1.0
176
     1
  0
VISUALSTYLE
  5
2B
102
{ACAD_REACTORS
330
2A
102
}
330
2A
100
AcDbVisualStyle
  2
Flat
 70
     0
177
     3
291
     1
 70
    58
 90
        2
176
     1
 90
        1
176
     1
 90
        1
176
     1
 90
        2
176
     1
 40
0.6
176
     1
 40
30.0
176
     1
 62
     7
420
 16777215
176
     1
 90
        0
176
     1
 90
        0
176
     1
 62
     7
176
     1
 62
   257
176
     1
 90
        1
176
     1
 90
        1
176
     1
 40
1.0
176
     1
 90
        8
176
     1
 62
     7
176
     1
 40
1.0
176
     1
 90
        1
176
     1
 90
        6
176
     1
 90
        2
176
     1
 62
     7
176
     1
 90
        5
176
     1
 90
        0
176
     1
 90
        0
176
     1
290
     0
176
     1
 90
       13
176
     1
 40
0.0
176
     1
 90
        0
176
     1
290
     0
176
     1
290
     1
176
     1
290
     1
176
     1
290
     0
176
     1
290
     0
176
     1
290
     0
176
     1
290
     0
176
     1
290
     0
176
     1
290
     0
176
     1
 90
       50
176
     1
 40
0.0
176
     1
 40
1.0
176
     1
 90
        0
176
     1
 62
    18
420
        0
176
     1
 90
       50
176
     1
 90
        3
176
     1
 62
     5
420
      255
176
     1
290
     0
176
     1
 90
       50
176
     1
 90
       50
176
     1
 90
       50
176
     1
290
     0
176
     1
 90
       50
176
     1
 62
   256
176
     0
 40
1.0
176
     0
 90
        2
176
     1
  1
strokes_ogs.tif
176
     1
290
     0
176
     1
 40
1.0
176
     1
 40
1.0
176
     1
  0
VISUALSTYLE
  5
2C
102
{ACAD_REACTORS
330
2A
102
}
330
2A
100
AcDbVisualStyle
  2
FlatWithEdges
 70
     1
177
     3
291
     1
 70
    58
 90
        2
176
     1
 90
        1
176
     1
 90
        1
176
     1
 90
        2
176
     1
 40
0.6
176
     1
 40
30.0
176
     1
 62
     7
420
 16777215
176
     1
 90
        1
176
     1
 90
        0
176
     1
 62
     7
176
     1
 62
   257
176
     1
 90
        1
176
     1
 90
        1
176
     1
 40
1.0
176
     1
 90
        0
176
     1
 62
   257
176
     1
 40
1.0
176
     1
 90
        1
176
     1
 90
        6
176
     1
 90
        2
176
     1
 62
     7
176
     1
 90
        5
176
     1
 90
        0
176
     1
 90
        0
176
     1
290
     0
176
     1
 90
       13
176
     1
 40
0.0
176
     1
 90
        0
176
     1
290
     0
176
     1
290
     1
176
     1
290
     1
176
     1
290
     0
176
     1
290
     0
176
     1
290
     0
176
     1
290
     0
176
     1
290
     0
176
     1
290
     0
176
     1
 90
       50
176
     1
 40
0.0
176
     1
 40
1.0
176
     1
 90
        0
176
     1
 62
    18
420
        0
176
     1
 90
       50
176
     1
 90
        3
176
     1
 62
     5
420
      255
176
     1
290
     0
176
     1
 90
       50
176
     1
 90
       50
176
     1
 90
       50
176
     1
290
     0
176
     1
 90
       50
176
     1
 62
   256
176
     0
 40
1.0
176
     0
 90
        2
176
     1
  1
strokes_ogs.tif
176
     1
290
     0
176
     1
 40
1.0
176
     1
 40
1.0
176
     1
  0
VISUALSTYLE
  5
2D
102
{ACAD_REACTORS
330
2A
102
}
330
2A
100
AcDbVisualStyle
  2
Gouraud
 70
     2
177
     3
291
     1
 70
    58
 90
        2
176
     1
 90
        2
176
     1
 90
        1
176
     1
 90
        2
176
     1
 40
0.6
176
     1
 40
30.0
176
     1
 62
     7
420
 16777215
176
     1
 90
        0
176
     1
 90
        0
176
     1
 62
     7
176
     1
 62
   257
176
     1
 90
        1
176
     1
 90
        1
176
     1
 40
1.0
176
     1
 90
        0
176
     1
 62
     7
176
     1
 40
1.0
176
     1
 90
        1
176
     1
 90
        6
176
     1
 90
        2
176
     1
 62
     7
176
     1
 90
        5
176
     1
 90
        0
176
     1
 90
        0
176
     1
290
     0
176
     1
 90
       13
176
     1
 40
0.0
176
     1
 90
        0
176
     1
290
     0
176
     1
290
     1
176
     1
290
     1
176
     1
290
     0
176
     1
290
     0
176
     1
290
     0
176
     1
290
     0
176
     1
290
     0
176
     1
290
     0
176
     1
 90
       50
176
     1
 40
0.0
176
     1
 40
1.0
176
     1
 90
        0
176
     1
 62
    18
420
        0
176
     1
 90
       50
176
     1
 90
        3
176
     1
 62
     5
420
      255
176
     1
290
     0
176
     1
 90
       50
176
     1
 90
       50
176
     1
 90
       50
176
     1
290
     0
176
     1
 90
       50
176
     1
 62
   256
176
     0
 40
1.0
176
     0
 90
        2
176
     1
  1
strokes_ogs.tif
176
     1
290
     0
176
     1
 40
1.0
176
     1
 40
1.0
176
     1
  0
VISUALSTYLE
  5
2E
102
{ACAD_REACTORS
330
2A
102
}
330
2A
100
AcDbVisualStyle
  2
GouraudWithEdges
 70
     3
177
     3
291
     1
 70
    58
 90
        2
176
     1
 90
        2
176
     1
 90
        1
176
     1
 90
        2
176
     1
 40
0.6
176
     1
 40
30.0
176
     1
 62
     7
420
 16777215
176
     1
 90
        1
176
     1
 90
        0
176
     1
 62
     7
176
     1
 62
   257
176
     1
 90
        1
176
     1
 90
        1
176
     1
 40
1.0
176
     1
 90
        0
176
     1
 62
   257
176
     1
 40
1.0
176
     1
 90
        1
176
     1
 90
        6
176
     1
 90
        2
176
     1
 62
     7
176
     1
 90
        5
176
     1
 90
        0
176
     1
 90
        0
176
     1
290
     0
176
     1
 90
       13
176
     1
 40
0.0
176
     1
 90
        0
176
     1
290
     0
176
     1
290
     1
176
     1
290
     1
176
     1
290
     0
176
     1
290
     0
176
     1
290
     0
176
     1
290
     0
176
     1
290
     0
176
     1
290
     0
176
     1
 90
       50
176
     1
 40
0.0
176
     1
 40
1.0
176
     1
 90
        0
176
     1
 62
    18
420
        0
176
     1
 90
       50
176
     1
 90
        3
176
     1
 62
     5
420
      255
176
     1
290
     0
176
     1
 90
       50
176
     1
 90
       50
176
     1
 90
       50
176
     1
290
     0
176
     1
 90
       50
176
     1
 62
   256
176
     0
 40
1.0
176
     0
 90
        2
176
     1
  1
strokes_ogs.tif
176
     1
290
     0
176
     1
 40
1.0
176
     1
 40
1.0
176
     1
  0
VISUALSTYLE
  5
31
102
{ACAD_REACTORS
330
2A
102
}
330
2A
100
AcDbVisualStyle
  2
Hidden
 70
     6
177
     3
291
     0
 70
    58
 90
        1
176
     1
 90
        2
176
     1
 90
        2
176
     1
 90
        0
176
     1
 40
0.6
176
     1
 40
30.0
176
     1
 62
     7
420
 16777215
176
     1
 90
        2
176
     1
 90
        2
176
     1
 62
     7
176
     1
 62
   257
176
     1
 90
        2
176
     1
 90
        1
176
     1
 40
40.0
176
     1
 90
        0
176
     1
 62
   257
176
     1
 40
1.0
176
     1
 90
        1
176
     1
 90
        6
176
     1
 90
        2
176
     1
 62
     7
176
     1
 90
        3
176
     1
 90
        0
176
     1
 90
        0
176
     1
290
     0
176
     1
 90
        1
176
     1
 40
0.0
176
     1
 90
        0
176
     1
290
     0
176
     1
290
     1
176
     1
290
     1
176
     1
290
     0
176
     1
290
     0
176
     1
290
     0
176
     1
290
     0
176
     1
290
     0
176
     1
290
     0
176
     1
 90
       50
176
     1
 40
0.0
176
     1
 40
1.0
176
     1
 90
        0
176
     1
 62
    18
420
        0
176
     1
 90
       50
176
     1
 90
        3
176
     1
 62
     5
420
      255
176
     1
290
     0
176
     1
 90
       50
176
     1
 90
       50
176
     1
 90
       50
176
     1
290
     0
176
     1
 90
       50
176
     1
 62
   256
176
     0
 40
1.0
176
     0
 90
        2
176
     1
  1
strokes_ogs.tif
176
     1
290
     0
176
     1
 40
1.0
176
     1
 40
1.0
176
     1
  0
VISUALSTYLE
  5
3B
102
{ACAD_REACTORS
330
2A
102
}
330
2A
100
AcDbVisualStyle
  2
JitterOff
 70
    20
177
     3
291
     1
 70
    58
 90
        2
176
     0
 90
        2
176
     0
 90
        0
176
     0
 90
        0
176
     0
 40
0.6
176
     0
 40
30.0
176
     0
 62
     7
420
 16777215
176
     0
 90
        1
176
     0
 90
        4
176
     0
 62
     7
176
     0
 62
   257
176
     0
 90
        1
176
     0
 90
        1
176
     0
 40
1.0
176
     0
 90
       10
176
     2
 62
     7
176
     0
 40
1.0
176
     0
 90
        1
176
     0
 90
        6
176
     0
 90
        2
176
     0
 62
     7
176
     0
 90
        5
176
     0
 90
        0
176
     0
 90
        0
176
     0
290
     0
176
     0
 90
        1
176
     0
 40
0.0
176
     0
 90
        0
176
     0
290
     0
176
     0
290
     1
176
     0
290
     1
176
     0
290
     0
176
     0
290
     0
176
     0
290
     0
176
     0
290
     0
176
     0
290
     0
176
     0
290
     0
176
     0
 90
       50
176
     0
 40
0.0
176
     0
 40
1.0
176
     0
 90
        0
176
     0
 62
    18
420
        0
176
     0
 90
       50
176
     0
 90
        3
176
     0
 62
     5
420
      255
176
     0
290
     0
176
     0
 90
       50
176
     0
 90
       50
176
     0
 90
       50
176
     0
290
     0
176
     0
 90
       50
176
     0
 62
   256
176
     0
 40
1.0
176
     0
 90
        2
176
     0
  1
strokes_ogs.tif
176
     0
290
     0
176
     0
 40
1.0
176
     0
 40
1.0
176
     0
  0
VISUALSTYLE
  5
38
102
{ACAD_REACTORS
330
2A
102
}
330
2A
100
AcDbVisualStyle
  2
Linepattern
 70
    14
177
     3
291
     1
 70
    58
 90
        2
176
     1
 90
        2
176
     1
 90
        0
176
     1
 90
        0
176
     1
 40
0.6
176
     1
 40
30.0
176
     1
 62
     7
420
 16777215
176
     1
 90
        1
176
     1
 90
        4
176
     1
 62
     7
176
     1
 62
   257
176
     1
 90
        7
176
     1
 90
        7
176
     1
 40
1.0
176
     1
 90
        8
176
     1
 62
     7
176
     1
 40
1.0
176
     1
 90
        1
176
     1
 90
        6
176
     1
 90
        2
176
     1
 62
     7
176
     1
 90
        5
176
     1
 90
        0
176
     1
 90
        0
176
     1
290
     0
176
     1
 90
        1
176
     1
 40
0.0
176
     1
 90
        0
176
     1
290
     0
176
     1
290
     1
176
     1
290
     1
176
     1
290
     0
176
     1
290
     0
176
     1
290
     0
176
     1
290
     0
176
     1
290
     0
176
     1
290
     0
176
     1
 90
       50
176
     1
 40
0.0
176
     1
 40
1.0
176
     1
 90
        0
176
     1
 62
    18
420
        0
176
     1
 90
       50
176
     1
 90
        3
176
     1
 62
     5
420
      255
176
     1
290
     0
176
     1
 90
       50
176
     1
 90
       50
176
     1
 90
       50
176
     1
290
     0
176
     1
 90
       50
176
     1
 62
   256
176
     0
 40
1.0
176
     0
 90
        2
176
     1
  1
strokes_ogs.tif
176
     1
290
     0
176
     1
 40
1.0
176
     1
 40
1.0
176
     1
  0
VISUALSTYLE
  5
3C
102
{ACAD_REACTORS
330
2A
102
}
330
2A
100
AcDbVisualStyle
  2
OverhangOff
 70
    21
177
     3
291
     1
 70
    58
 90
        2
176
     0
 90
        2
176
     0
 90
        0
176
     0
 90
        0
176
     0
 40
0.6
176
     0
 40
30.0
176
     0
 62
     7
420
 16777215
176
     0
 90
        1
176
     0
 90
        4
176
     0
 62
     7
176
     0
 62
   257
176
     0
 90
        1
176
     0
 90
        1
176
     0
 40
1.0
176
     0
 90
        9
176
     2
 62
     7
176
     0
 40
1.0
176
     0
 90
        1
176
     0
 90
        6
176
     0
 90
        2
176
     0
 62
     7
176
     0
 90
        5
176
     0
 90
        0
176
     0
 90
        0
176
     0
290
     0
176
     0
 90
        1
176
     0
 40
0.0
176
     0
 90
        0
176
     0
290
     0
176
     0
290
     1
176
     0
290
     1
176
     0
290
     0
176
     0
290
     0
176
     0
290
     0
176
     0
290
     0
176
     0
290
     0
176
     0
290
     0
176
     0
 90
       50
176
     0
 40
0.0
176
     0
 40
1.0
176
     0
 90
        0
176
     0
 62
    18
420
        0
176
     0
 90
       50
176
     0
 90
        3
176
     0
 62
     5
420
      255
176
     0
290
     0
176
     0
 90
       50
176
     0
 90
       50
176
     0
 90
       50
176
     0
290
     0
176
     0
 90
       50
176
     0
 62
   256
176
     0
 40
1.0
176
     0
 90
        2
176
     0
  1
strokes_ogs.tif
176
     0
290
     0
176
     0
 40
1.0
176
     0
 40
1.0
176
     0
  0
VISUALSTYLE
  5
33
102
{ACAD_REACTORS
330
2A
102
}
330
2A
100
AcDbVisualStyle
  2
Realistic
 70
     8
177
     3
291
     0
 70
    58
 90
        2
176
     1
 90
        3
176
     1
 90
        0
176
     1
 90
        2
176
     1
 40
0.6
176
     1
 40
30.0
176
     1
 62
     7
420
 16777215
176
     1
 90
        0
176
     1
 90
        0
176
     1
 62
     7
176
     1
 62
   257
176
     1
 90
        1
176
     1
 90
        1
176
     1
 40
1.0
176
     1
 90
        8
176
     1
 62
   257
176
     1
 40
1.0
176
     1
 90
        1
176
     1
 90
        6
176
     1
 90
        2
176
     1
 62
     7
176
     1
 90
        3
176
     1
 90
        0
176
     1
 90
        0
176
     1
290
     0
176
     1
 90
       13
176
     1
 40
0.0
176
     1
 90
        0
176
     1
290
     0
176
     1
290
     1
176
     1
290
     1
176
     1
290
     0
176
     1
290
     0
176
     1
290
     0
176
     1
290
     0
176
     1
290
     0
176
     1
290
     0
176
     1
 90
       50
176
     1
 40
0.0
176
     1
 40
1.0
176
     1
 90
        0
176
     1
 62
    18
420
        0
176
     1
 90
       50
176
     1
 90
        3
176
     1
 62
     5
420
      255
176
     1
290
     0
176
     1
 90
       50
176
     1
 90
       50
176
     1
 90
       50
176
     1
290
     0
176
     1
 90
       50
176
     1
 62
   256
176
     0
 40
1.0
176
     0
 90
        2
176
     1
  1
strokes_ogs.tif
176
     1
290
     0
176
     1
 40
1.0
176
     1
 40
1.0
176
     1
  0
VISUALSTYLE
  5
42
102
{ACAD_REACTORS
330
2A
102
}
330
2A
100
AcDbVisualStyle
  2
Shaded
 70
    27
177
     3
291
     0
 70
    58
 90
        2
176
     1
 90
        2
176
     1
 90
        1
176
     1
 90
        2
176
     1
 40
0.6
176
     1
 40
30.0
176
     1
 62
     7
420
 16777215
176
     1
 90
        0
176
     1
 90
        4
176
     1
 62
     7
176
     1
 62
   257
176
     1
 90
        1
176
     1
 90
        1
176
     1
 40
1.0
176
     1
 90
        8
176
     1
 62
   257
176
     1
 40
1.0
176
     1
 90
        1
176
     1
 90
        6
176
     1
 90
        2
176
     1
 62
     8
420
  7895160
176
     1
 90
        3
176
     1
 90
        0
176
     1
 90
        0
176
     1
290
     0
176
     1
 90
        5
176
     1
 40
0.0
176
     1
 90
        0
176
     1
290
     0
176
     1
290
     1
176
     1
290
     1
176
     1
290
     0
176
     1
290
     0
176
     1
290
     0
176
     1
290
     0
176
     1
290
     0
176
     1
290
     0
176
     1
 90
       50
176
     1
 40
0.0
176
     1
 40
1.0
176
     1
 90
        0
176
     1
 62
    18
420
        0
176
     1
 90
       50
176
     1
 90
        3
176
     1
 62
     5
420
      255
176
     1
290
     0
176
     1
 90
       50
176
     1
 90
       50
176
     1
 90
       50
176
     1
290
     0
176
     1
 90
       50
176
     1
 62
   256
176
     0
 40
1.0
176
     0
 90
        2
176
     1
  1
strokes_ogs.tif
176
     1
290
     0
176
     1
 40
1.0
176
     1
 40
1.0
176
     1
  0
VISUALSTYLE
  5
41
102
{ACAD_REACTORS
330
2A
102
}
330
2A
100
AcDbVisualStyle
  2
Shaded with edges
 70
    26
177
     3
291
     0
 70
    58
 90
        2
176
     1
 90
        2
176
     1
 90
        1
176
     1
 90
        2
176
     1
 40
0.6
176
     1
 40
30.0
176
     1
 62
     7
420
 16777215
176
     1
 90
        1
176
     1
 90
       10
176
     1
 62
     7
176
     1
 62
   257
176
     1
 90
        2
176
     1
 90
        1
176
     1
 40
1.0
176
     1
 90
        8
176
     1
 62
   257
176
     1
 40
1.0
176
     1
 90
        1
176
     1
 90
        6
176
     1
 90
        2
176
     1
 62
     7
176
     1
 90
        3
176
     1
 90
        0
176
     1
 90
        0
176
     1
290
     0
176
     1
 90
        5
176
     1
 40
0.0
176
     1
 90
        0
176
     1
290
     0
176
     1
290
     1
176
     1
290
     1
176
     1
290
     0
176
     1
290
     0
176
     1
290
     0
176
     1
290
     0
176
     1
290
     0
176
     1
290
     0
176
     1
 90
       50
176
     1
 40
0.0
176
     1
 40
1.0
176
     1
 90
        0
176
     1
 62
    18
420
        0
176
     1
 90
       50
176
     1
 90
        3
176
     1
 62
     5
420
      255
176
     1
290
     0
176
     1
 90
       50
176
     1
 90
       50
176
     1
 90
       50
176
     1
290
     0
176
     1
 90
       50
176
     1
 62
   256
176
     0
 40
1.0
176
     0
 90
        2
176
     1
  1
strokes_ogs.tif
176
     1
290
     0
176
     1
 40
1.0
176
     1
 40
1.0
176
     1
  0
VISUALSTYLE
  5
3E
102
{ACAD_REACTORS
330
2A
102
}
330
2A
100
AcDbVisualStyle
  2
Shades of Gray
 70
    23
177
     3
291
     0
 70
    58
 90
        2
176
     1
 90
        2
176
     1
 90
        3
176
     1
 90
        0
176
     1
 40
0.6
176
     1
 40
30.0
176
     1
 62
     7
420
 16777215
176
     1
 90
        2
176
     1
 90
        2
176
     1
 62
     7
176
     1
 62
     7
176
     1
 90
        1
176
     1
 90
        1
176
     1
 40
40.0
176
     1
 90
        8
176
     1
 62
     7
176
     1
 40
1.0
176
     1
 90
        1
176
     1
 90
        6
176
     1
 90
        2
176
     1
 62
     7
176
     1
 90
        3
176
     1
 90
        0
176
     1
 90
        0
176
     1
290
     0
176
     1
 90
        1
176
     1
 40
0.0
176
     1
 90
        0
176
     1
290
     0
176
     1
290
     1
176
     1
290
     1
176
     1
290
     0
176
     1
290
     0
176
     1
290
     0
176
     1
290
     0
176
     1
290
     0
176
     1
290
     0
176
     1
 90
       50
176
     1
 40
0.0
176
     1
 40
1.0
176
     1
 90
        0
176
     1
 62
    18
420
        0
176
     1
 90
       50
176
     1
 90
        3
176
     1
 62
     5
420
      255
176
     1
290
     0
176
     1
 90
       50
176
     1
 90
       50
176
     1
 90
       50
176
     1
290
     0
176
     1
 90
       50
176
     1
 62
   256
176
     0
 40
1.0
176
     0
 90
        2
176
     1
  1
strokes_ogs.tif
176
     1
290
     0
176
     1
 40
1.0
176
     1
 40
1.0
176
     1
  0
VISUALSTYLE
  5
3F
102
{ACAD_REACTORS
330
2A
102
}
330
2A
100
AcDbVisualStyle
  2
Sketchy
 70
    24
177
     3
291
     0
 70
    58
 90
        1
176
     1
 90
        2
176
     1
 90
        2
176
     1
 90
        0
176
     1
 40
0.6
176
     1
 40
30.0
176
     1
 62
     7
420
 16777215
176
     1
 90
        2
176
     1
 90
        2
176
     1
 62
     7
176
     1
 62
     7
176
     1
 90
        1
176
     1
 90
        1
176
     1
 40
40.0
176
     1
 90
       11
176
     1
 62
     7
176
     1
 40
1.0
176
     1
 90
        1
176
     1
 90
        6
176
     1
 90
        2
176
     1
 62
     7
176
     1
 90
        6
176
     1
 90
        0
176
     1
 90
        0
176
     1
290
     0
176
     1
 90
        1
176
     1
 40
0.0
176
     1
 90
        0
176
     1
290
     0
176
     1
290
     1
176
     1
290
     1
176
     1
290
     0
176
     1
290
     0
176
     1
290
     0
176
     1
290
     0
176
     1
290
     0
176
     1
290
     0
176
     1
 90
       50
176
     1
 40
0.0
176
     1
 40
1.0
176
     1
 90
        0
176
     1
 62
    18
420
        0
176
     1
 90
       50
176
     1
 90
        3
176
     1
 62
     5
420
      255
176
     1
290
     0
176
     1
 90
       50
176
     1
 90
       50
176
     1
 90
       50
176
     1
290
     0
176
     1
 90
       50
176
     1
 62
   256
176
     0
 40
1.0
176
     0
 90
        2
176
     1
  1
strokes_ogs.tif
176
     1
290
     0
176
     1
 40
1.0
176
     1
 40
1.0
176
     1
  0
VISUALSTYLE
  5
37
102
{ACAD_REACTORS
330
2A
102
}
330
2A
100
AcDbVisualStyle
  2
Thicken
 70
    13
177
     3
291
     1
 70
    58
 90
        2
176
     1
 90
        2
176
     1
 90
        0
176
     1
 90
        0
176
     1
 40
0.6
176
     1
 40
30.0
176
     1
 62
     7
420
 16777215
176
     1
 90
        1
176
     1
 90
        4
176
     1
 62
     7
176
     1
 62
   257
176
     1
 90
        1
176
     1
 90
        1
176
     1
 40
1.0
176
     1
 90
       12
176
     1
 62
     7
176
     1
 40
1.0
176
     1
 90
        1
176
     1
 90
        6
176
     1
 90
        2
176
     1
 62
     7
176
     1
 90
        5
176
     1
 90
        0
176
     1
 90
        0
176
     1
290
     0
176
     1
 90
        1
176
     1
 40
0.0
176
     1
 90
        0
176
     1
290
     0
176
     1
290
     1
176
     1
290
     1
176
     1
290
     0
176
     1
290
     0
176
     1
290
     0
176
     1
290
     0
176
     1
290
     0
176
     1
290
     0
176
     1
 90
       50
176
     1
 40
0.0
176
     1
 40
1.0
176
     1
 90
        0
176
     1
 62
    18
420
        0
176
     1
 90
       50
176
     1
 90
        3
176
     1
 62
     5
420
      255
176
     1
290
     0
176
     1
 90
       50
176
     1
 90
       50
176
     1
 90
       50
176
     1
290
     0
176
     1
 90
       50
176
     1
 62
   256
176
     0
 40
1.0
176
     0
 90
        2
176
     1
  1
strokes_ogs.tif
176
     1
290
     0
176
     1
 40
1.0
176
     1
 40
1.0
176
     1
  0
VISUALSTYLE
  5
30
102
{ACAD_REACTORS
330
2A
102
}
330
2A
100
AcDbVisualStyle
  2
Wireframe
 70
     5
177
     3
291
     0
 70
    58
 90
        0
176
     1
 90
        2
176
     1
 90
        0
176
     1
 90
        0
176
     1
 40
0.6
176
     1
 40
30.0
176
     1
 62
     7
420
 16777215
176
     1
 90
        1
176
     1
 90
        4
176
     1
 62
     7
176
     1
 62
   257
176
     1
 90
        1
176
     1
 90
        1
176
     1
 40
1.0
176
     1
 90
        0
176
     1
 62
   257
176
     1
 40
1.0
176
     1
 90
        1
176
     1
 90
        6
176
     1
 90
        2
176
     1
 62
     7
176
     1
 90
        3
176
     1
 90
        0
176
     1
 90
        0
176
     1
290
     0
176
     1
 90
        1
176
     1
 40
0.0
176
     1
 90
        0
176
     1
290
     0
176
     1
290
     1
176
     1
290
     1
176
     1
290
     0
176
     1
290
     0
176
     1
290
     0
176
     1
290
     0
176
     1
290
     0
176
     1
290
     0
176
     1
 90
       50
176
     1
 40
0.0
176
     1
 40
1.0
176
     1
 90
        0
176
     1
 62
    18
420
        0
176
     1
 90
       50
176
     1
 90
        3
176
     1
 62
     5
420
      255
176
     1
290
     0
176
     1
 90
       50
176
     1
 90
       50
176
     1
 90
       50
176
     1
290
     0
176
     1
 90
       50
176
     1
 62
   256
176
     0
 40
1.0
176
     0
 90
        2
176
     1
  1
strokes_ogs.tif
176
     1
290
     0
176
     1
 40
1.0
176
     1
 40
1.0
176
     1
  0
VISUALSTYLE
  5
40
102
{ACAD_REACTORS
330
2A
102
}
330
2A
100
AcDbVisualStyle
  2
X-Ray
 70
    25
177
     3
291
     0
 70
    58
 90
        2
176
     1
 90
        2
176
     1
 90
        1
176
     1
 90
        1
176
     1
 40
0.5
176
     1
 40
30.0
176
     1
 62
     7
420
 16777215
176
     1
 90
        1
176
     1
 90
        0
176
     1
 62
     7
176
     1
 62
   257
176
     1
 90
        1
176
     1
 90
        1
176
     1
 40
1.0
176
     1
 90
        8
176
     1
 62
     7
176
     1
 40
1.0
176
     1
 90
        1
176
     1
 90
        6
176
     1
 90
        2
176
     1
 62
     7
176
     1
 90
        3
176
     1
 90
        0
176
     1
 90
        0
176
     1
290
     0
176
     1
 90
       13
176
     1
 40
0.0
176
     1
 90
        0
176
     1
290
     0
176
     1
290
     1
176
     1
290
     1
176
     1
290
     0
176
     1
290
     0
176
     1
290
     0
176
     1
290
     0
176
     1
290
     0
176
     1
290
     0
176
     1
 90
       50
176
     1
 40
0.0
176
     1
 40
1.0
176
     1
 90
        0
176
     1
 62
    18
420
        0
176
     1
 90
       50
176
     1
 90
        3
176
     1
 62
     5
420
      255
176
     1
290
     0
176
     1
 90
       50
176
     1
 90
       50
176
     1
 90
       50
176
     1
290
     0
176
     1
 90
       50
176
     1
 62
   256
176
     0
 40
1.0
176
     0
 90
        2
176
     1
  1
strokes_ogs.tif
176
     1
290
     0
176
     1
 40
1.0
176
     1
 40
1.0
176
     1
  0
DICTIONARYVAR
  5
FF
102
{ACAD_REACTORS
330
FE
102
}
330
FE
100
DictionaryVariables
280
     0
  1
1:1
  0
DICTIONARYVAR
  5
107
102
{ACAD_REACTORS
330
FE
102
}
330
FE
100
DictionaryVariables
280
     0
  1
3.500000
  0
DICTIONARYVAR
  5
108
102
{ACAD_REACTORS
330
FE
102
}
330
FE
100
DictionaryVariables
280
     0
  1
acadiso.lin
  0
DICTIONARYVAR
  5
104
102
{ACAD_REACTORS
330
FE
102
}
330
FE
100
DictionaryVariables
280
     0
  1
Standard
  0
DICTIONARYVAR
  5
103
102
{ACAD_REACTORS
330
FE
102
}
330
FE
100
DictionaryVariables
280
     0
  1
Standard
  0
DICTIONARY
  5
100
330
5A
100
AcDbDictionary
280
     1
281
     1
  3
ACAD_ROUNDTRIP_2008_TABLESTYLE_CELLSTYLEMAP
360
101
  0
CELLSTYLEMAP
  5
101
102
{ACAD_REACTORS
330
100
102
}
330
100
100
AcDbCellStyleMap
 90
        3
300
CELLSTYLE
  1
TABLEFORMAT_BEGIN
 90
        5
170
     1
 91
        0
 92
    32768
 62
   257
 93
        1
300
CONTENTFORMAT
  1
CONTENTFORMAT_BEGIN
 90
        0
 91
        0
 92
        4
 93
        0
300

 40
0.0
140
1.0
 94
        5
 62
     0
340
11
144
6.0
309
CONTENTFORMAT_END
171
     1
301
MARGIN
  1
CELLMARGIN_BEGIN
 40
1.5
 40
1.5
 40
1.5
 40
1.5
 40
1.5
 40
1.5
309
CELLMARGIN_END
 94
        6
 95
        1
302
GRIDFORMAT
  1
GRIDFORMAT_BEGIN
 90
        0
 91
        1
 62
     0
 92
       -2
340
14
 93
        0
 40
0.045
309
GRIDFORMAT_END
 95
        2
302
GRIDFORMAT
  1
GRIDFORMAT_BEGIN
 90
        0
 91
        1
 62
     0
 92
       -2
340
14
 93
        0
 40
0.045
309
GRIDFORMAT_END
 95
        4
302
GRIDFORMAT
  1
GRIDFORMAT_BEGIN
 90
        0
 91
        1
 62
     0
 92
       -2
340
14
 93
        0
 40
0.045
309
GRIDFORMAT_END
 95
        8
302
GRIDFORMAT
  1
GRIDFORMAT_BEGIN
 90
        0
 91
        1
 62
     0
 92
       -2
340
14
 93
        0
 40
0.045
309
GRIDFORMAT_END
 95
       16
302
GRIDFORMAT
  1
GRIDFORMAT_BEGIN
 90
        0
 91
        1
 62
     0
 92
       -2
340
14
 93
        0
 40
0.045
309
GRIDFORMAT_END
 95
       32
302
GRIDFORMAT
  1
GRIDFORMAT_BEGIN
 90
        0
 91
        1
 62
     0
 92
       -2
340
14
 93
        0
 40
0.045
309
GRIDFORMAT_END
309
TABLEFORMAT_END
  1
CELLSTYLE_BEGIN
 90
        1
 91
        1
300
_TITLE
309
CELLSTYLE_END
300
CELLSTYLE
  1
TABLEFORMAT_BEGIN
 90
        5
170
     1
 91
        0
 92
        0
 62
   257
 93
        1
300
CONTENTFORMAT
  1
CONTENTFORMAT_BEGIN
 90
        0
 91
        0
 92
        4
 93
        0
300

 40
0.0
140
1.0
 94
        5
 62
     0
340
11
144
4.5
309
CONTENTFORMAT_END
171
     1
301
MARGIN
  1
CELLMARGIN_BEGIN
 40
1.5
 40
1.5
 40
1.5
 40
1.5
 40
1.5
 40
1.5
309
CELLMARGIN_END
 94
        6
 95
        1
302
GRIDFORMAT
  1
GRIDFORMAT_BEGIN
 90
        0
 91
        1
 62
     0
 92
       -2
340
14
 93
        0
 40
0.045
309
GRIDFORMAT_END
 95
        2
302
GRIDFORMAT
  1
GRIDFORMAT_BEGIN
 90
        0
 91
        1
 62
     0
 92
       -2
340
14
 93
        0
 40
0.045
309
GRIDFORMAT_END
 95
        4
302
GRIDFORMAT
  1
GRIDFORMAT_BEGIN
 90
        0
 91
        1
 62
     0
 92
       -2
340
14
 93
        0
 40
0.045
309
GRIDFORMAT_END
 95
        8
302
GRIDFORMAT
  1
GRIDFORMAT_BEGIN
 90
        0
 91
        1
 62
     0
 92
       -2
340
14
 93
        0
 40
0.045
309
GRIDFORMAT_END
 95
       16
302
GRIDFORMAT
  1
GRIDFORMAT_BEGIN
 90
        0
 91
        1
 62
     0
 92
       -2
340
14
 93
        0
 40
0.045
309
GRIDFORMAT_END
 95
       32
302
GRIDFORMAT
  1
GRIDFORMAT_BEGIN
 90
        0
 91
        1
 62
     0
 92
       -2
340
14
 93
        0
 40
0.045
309
GRIDFORMAT_END
309
TABLEFORMAT_END
  1
CELLSTYLE_BEGIN
 90
        2
 91
        1
300
_HEADER
309
CELLSTYLE_END
300
CELLSTYLE
  1
TABLEFORMAT_BEGIN
 90
        5
170
     1
 91
        0
 92
        0
 62
   257
 93
        1
300
CONTENTFORMAT
  1
CONTENTFORMAT_BEGIN
 90
        0
 91
        0
 92
        4
 93
        0
300

 40
0.0
140
1.0
 94
        2
 62
     0
340
11
144
4.5
309
CONTENTFORMAT_END
171
     1
301
MARGIN
  1
CELLMARGIN_BEGIN
 40
1.5
 40
1.5
 40
1.5
 40
1.5
 40
1.5
 40
1.5
309
CELLMARGIN_END
 94
        6
 95
        1
302
GRIDFORMAT
  1
GRIDFORMAT_BEGIN
 90
        0
 91
        1
 62
     0
 92
       -2
340
14
 93
        0
 40
0.045
309
GRIDFORMAT_END
 95
        2
302
GRIDFORMAT
  1
GRIDFORMAT_BEGIN
 90
        0
 91
        1
 62
     0
 92
       -2
340
14
 93
        0
 40
0.045
309
GRIDFORMAT_END
 95
        4
302
GRIDFORMAT
  1
GRIDFORMAT_BEGIN
 90
        0
 91
        1
 62
     0
 92
       -2
340
14
 93
        0
 40
0.045
309
GRIDFORMAT_END
 95
        8
302
GRIDFORMAT
  1
GRIDFORMAT_BEGIN
 90
        0
 91
        1
 62
     0
 92
       -2
340
14
 93
        0
 40
0.045
309
GRIDFORMAT_END
 95
       16
302
GRIDFORMAT
  1
GRIDFORMAT_BEGIN
 90
        0
 91
        1
 62
     0
 92
       -2
340
14
 93
        0
 40
0.045
309
GRIDFORMAT_END
 95
       32
302
GRIDFORMAT
  1
GRIDFORMAT_BEGIN
 90
        0
 91
        1
 62
     0
 92
       -2
340
14
 93
        0
 40
0.045
309
GRIDFORMAT_END
309
TABLEFORMAT_END
  1
CELLSTYLE_BEGIN
 90
        3
 91
        2
300
_DATA
309
CELLSTYLE_END
  0
ENDSEC
  0
EOF
