  0
SECTION
  2
HEADER
  9
$ACADVER
  1
AC1027
  9
$ACADMAINTVER
 70
   105
  9
$DWGCODEPAGE
  3
ANSI_1252
  9
$LASTSAVEDBY
  1
Nick
  9
$REQUIREDVERSIONS
160
                 0
  9
$INSBASE
 10
0.0
 20
0.0
 30
0.0
  9
$EXTMIN
 10
0.0
 20
0.0
 30
0.0
  9
$EXTMAX
 10
420.0
 20
297.0
 30
0.0
  9
$LIMMIN
 10
0.0
 20
0.0
  9
$LIMMAX
 10
420.0
 20
297.0
  9
$ORTHOMODE
 70
     0
  9
$REGENMODE
 70
     1
  9
$FILLMODE
 70
     1
  9
$QTEXTMODE
 70
     0
  9
$MIRRTEXT
 70
     1
  9
$LTSCALE
 40
1.0
  9
$ATTMODE
 70
     1
  9
$TEXTSIZE
 40
4.2333333333
  9
$TRACEWID
 40
1.0
  9
$TEXTSTYLE
  7
Standard
  9
$CLAYER
  8
0
  9
$CELTYPE
  6
ByLayer
  9
$CECOLOR
 62
   256
  9
$CELTSCALE
 40
1.0
  9
$DISPSILH
 70
     0
  9
$DIMSCALE
 40
1.0
  9
$DIMASZ
 40
3.302
  9
$DIMEXO
 40
1.0
  9
$DIMDLI
 40
3.75
  9
$DIMRND
 40
0.0
  9
$DIMDLE
 40
0.0
  9
$DIMEXE
 40
1.0
  9
$DIMTP
 40
0.0
  9
$DIMTM
 40
0.0
  9
$DIMTXT
 40
4.2333333333
  9
$DIMCEN
 40
2.5
  9
$DIMTSZ
 40
0.0
  9
$DIMTOL
 70
     0
  9
$DIMLIM
 70
     0
  9
$DIMTIH
 70
     1
  9
$DIMTOH
 70
     1
  9
$DIMSE1
 70
     0
  9
$DIMSE2
 70
     0
  9
$DIMTAD
 70
     1
  9
$DIMZIN
 70
     1
  9
$DIMBLK
  1

  9
$DIMASO
 70
     1
  9
$DIMSHO
 70
     1
  9
$DIMPOST
  1

  9
$DIMAPOST
  1

  9
$DIMALT
 70
     0
  9
$DIMALTD
 70
     3
  9
$DIMALTF
 40
0.0393700787
  9
$DIMLFAC
 40
1.0
  9
$DIMTOFL
 70
     1
  9
$DIMTVP
 40
0.0
  9
$DIMTIX
 70
     0
  9
$DIMSOXD
 70
     0
  9
$DIMSAH
 70
     0
  9
$DIMBLK1
  1

  9
$DIMBLK2
  1

  9
$DIMSTYLE
  2
ISO-25
  9
$DIMCLRD
 70
     0
  9
$DIMCLRE
 70
     0
  9
$DIMCLRT
 70
     0
  9
$DIMTFAC
 40
1.0
  9
$DIMGAP
 40
1.524
  9
$DIMJUST
 70
     0
  9
$DIMSD1
 70
     0
  9
$DIMSD2
 70
     0
  9
$DIMTOLJ
 70
     0
  9
$DIMTZIN
 70
     1
  9
$DIMALTZ
 70
     0
  9
$DIMALTTZ
 70
     0
  9
$DIMUPT
 70
     0
  9
$DIMDEC
 70
     0
  9
$DIMTDEC
 70
     0
  9
$DIMALTU
 70
     2
  9
$DIMALTTD
 70
     3
  9
$DIMTXSTY
  7
Standard
  9
$DIMAUNIT
 70
     0
  9
$DIMADEC
 70
     2
  9
$DIMALTRND
 40
0.0
  9
$DIMAZIN
 70
     0
  9
$DIMDSEP
 70
    44
  9
$DIMATFIT
 70
     3
  9
$DIMFRAC
 70
     0
  9
$DIMLDRBLK
  1

  9
$DIMLUNIT
 70
     2
  9
$DIMLWD
 70
    -2
  9
$DIMLWE
 70
    -2
  9
$DIMTMOVE
 70
     0
  9
$DIMFXL
 40
1.0
  9
$DIMFXLON
 70
     0
  9
$DIMJOGANG
 40
0.7853981634
  9
$DIMTFILL
 70
     0
  9
$DIMTFILLCLR
 70
     0
  9
$DIMARCSYM
 70
     0
  9
$DIMLTYPE
  6

  9
$DIMLTEX1
  6

  9
$DIMLTEX2
  6

  9
$DIMTXTDIRECTION
 70
     0
  9
$LUNITS
 70
     2
  9
$LUPREC
 70
     0
  9
$SKETCHINC
 40
1.0
  9
$FILLETRAD
 40
0.0
  9
$AUNITS
 70
     0
  9
$AUPREC
 70
     2
  9
$MENU
  1
.
  9
$ELEVATION
 40
0.0
  9
$PELEVATION
 40
0.0
  9
$THICKNESS
 40
0.0
  9
$LIMCHECK
 70
     0
  9
$CHAMFERA
 40
0.0
  9
$CHAMFERB
 40
0.0
  9
$CHAMFERC
 40
0.0
  9
$CHAMFERD
 40
0.0
  9
$SKPOLY
 70
     0
  9
$TDCREATE
 40
2460934.443141863
  9
$TDUCREATE
 40
2460934.026475197
  9
$TDUPDATE
 40
2460934.443142118
  9
$TDUUPDATE
 40
2460934.026475452
  9
$TDINDWG
 40
0.0000000116
  9
$TDUSRTIMER
 40
0.0000000116
  9
$USRTIMER
 70
     1
  9
$ANGBASE
 50
0.0
  9
$ANGDIR
 70
     0
  9
$PDMODE
 70
     0
  9
$PDSIZE
 40
-1.0
  9
$PLINEWID
 40
0.0
  9
$SPLFRAME
 70
     0
  9
$SPLINETYPE
 70
     6
  9
$SPLINESEGS
 70
     8
  9
$HANDSEED
  5
11C
  9
$SURFTAB1
 70
     6
  9
$SURFTAB2
 70
     6
  9
$SURFTYPE
 70
     6
  9
$SURFU
 70
     6
  9
$SURFV
 70
     6
  9
$UCSBASE
  2

  9
$UCSNAME
  2

  9
$UCSORG
 10
0.0
 20
0.0
 30
0.0
  9
$UCSXDIR
 10
1.0
 20
0.0
 30
0.0
  9
$UCSYDIR
 10
0.0
 20
1.0
 30
0.0
  9
$UCSORTHOREF
  2

  9
$UCSORTHOVIEW
 70
     0
  9
$UCSORGTOP
 10
0.0
 20
0.0
 30
0.0
  9
$UCSORGBOTTOM
 10
0.0
 20
0.0
 30
0.0
  9
$UCSORGLEFT
 10
0.0
 20
0.0
 30
0.0
  9
$UCSORGRIGHT
 10
0.0
 20
0.0
 30
0.0
  9
$UCSORGFRONT
 10
0.0
 20
0.0
 30
0.0
  9
$UCSORGBACK
 10
0.0
 20
0.0
 30
0.0
  9
$PUCSBASE
  2

  9
$PUCSNAME
  2

  9
$PUCSORG
 10
0.0
 20
0.0
 30
0.0
  9
$PUCSXDIR
 10
1.0
 20
0.0
 30
0.0
  9
$PUCSYDIR
 10
0.0
 20
1.0
 30
0.0
  9
$PUCSORTHOREF
  2

  9
$PUCSORTHOVIEW
 70
     0
  9
$PUCSORGTOP
 10
0.0
 20
0.0
 30
0.0
  9
$PUCSORGBOTTOM
 10
0.0
 20
0.0
 30
0.0
  9
$PUCSORGLEFT
 10
0.0
 20
0.0
 30
0.0
  9
$PUCSORGRIGHT
 10
0.0
 20
0.0
 30
0.0
  9
$PUCSORGFRONT
 10
0.0
 20
0.0
 30
0.0
  9
$PUCSORGBACK
 10
0.0
 20
0.0
 30
0.0
  9
$USERI1
 70
     0
  9
$USERI2
 70
     0
  9
$USERI3
 70
     0
  9
$USERI4
 70
     0
  9
$USERI5
 70
     0
  9
$USERR1
 40
0.0
  9
$USERR2
 40
0.0
  9
$USERR3
 40
0.0
  9
$USERR4
 40
0.0
  9
$USERR5
 40
0.0
  9
$WORLDVIEW
 70
     1
  9
$SHADEDGE
 70
     3
  9
$SHADEDIF
 70
    70
  9
$TILEMODE
 70
     1
  9
$MAXACTVP
 70
    64
  9
$PINSBASE
 10
0.0
 20
0.0
 30
0.0
  9
$PLIMCHECK
 70
     0
  9
$PEXTMIN
 10
1.0000000000E+20
 20
1.0000000000E+20
 30
1.0000000000E+20
  9
$PEXTMAX
 10
-1.0000000000E+20
 20
-1.0000000000E+20
 30
-1.0000000000E+20
  9
$PLIMMIN
 10
0.0
 20
0.0
  9
$PLIMMAX
 10
420.0
 20
297.0
  9
$UNITMODE
 70
     0
  9
$VISRETAIN
 70
     1
  9
$PLINEGEN
 70
     0
  9
$PSLTSCALE
 70
     1
  9
$TREEDEPTH
 70
  3020
  9
$CMLSTYLE
  2
Standard
  9
$CMLJUST
 70
     0
  9
$CMLSCALE
 40
20.0
  9
$PROXYGRAPHICS
 70
     1
  9
$MEASUREMENT
 70
     1
  9
$CELWEIGHT
370
    -1
  9
$ENDCAPS
280
     0
  9
$JOINSTYLE
280
     0
  9
$LWDISPLAY
290
     1
  9
$INSUNITS
 70
     4
  9
$HYPERLINKBASE
  1

  9
$STYLESHEET
  1

  9
$XEDIT
290
     1
  9
$CEPSNTYPE
380
     0
  9
$PSTYLEMODE
290
     1
  9
$FINGERPRINTGUID
  2
{d134cc50-2905-40d1-803b-08ca27f61a12}
  9
$VERSIONGUID
  2
{FAEB1C32-E019-11D5-929B-00C0DF256EC4}
  9
$EXTNAMES
290
     1
  9
$PSVPSCALE
 40
0.0
  9
$OLESTARTUP
290
     0
  9
$SORTENTS
280
   127
  9
$INDEXCTL
280
     0
  9
$HIDETEXT
280
     1
  9
$XCLIPFRAME
280
     2
  9
$HALOGAP
280
     0
  9
$OBSCOLOR
 70
   257
  9
$OBSLTYPE
280
     0
  9
$INTERSECTIONDISPLAY
280
     0
  9
$INTERSECTIONCOLOR
 70
   257
  9
$DIMASSOC
280
     2
  9
$PROJECTNAME
  1

  9
$CAMERADISPLAY
290
     0
  9
$LENSLENGTH
 40
50.0
  9
$CAMERAHEIGHT
 40
0.0
  9
$STEPSPERSEC
 40
2.0
  9
$STEPSIZE
 40
6.0
  9
$3DDWFPREC
 40
2.0
  9
$PSOLWIDTH
 40
5.0
  9
$PSOLHEIGHT
 40
80.0
  9
$LOFTANG1
 40
1.5707963268
  9
$LOFTANG2
 40
1.5707963268
  9
$LOFTMAG1
 40
0.0
  9
$LOFTMAG2
 40
0.0
  9
$LOFTPARAM
 70
     7
  9
$LOFTNORMALS
280
     1
  9
$LATITUDE
 40
37.795
  9
$LONGITUDE
 40
-122.394
  9
$NORTHDIRECTION
 40
0.0
  9
$TIMEZONE
 70
 -8000
  9
$LIGHTGLYPHDISPLAY
280
     1
  9
$TILEMODELIGHTSYNCH
280
     1
  9
$CMATERIAL
347
44
  9
$SOLIDHIST
280
     0
  9
$SHOWHIST
280
     1
  9
$DWFFRAME
280
     2
  9
$DGNFRAME
280
     2
  9
$REALWORLDSCALE
290
     1
  9
$INTERFERECOLOR
 62
   256
  9
$CSHADOW
280
     0
  9
$SHADOWPLANELOCATION
 40
0.0
  0
ENDSEC
  0
SECTION
  2
CLASSES
  0
CLASS
  1
ACDBDICTIONARYWDFLT
  2
AcDbDictionaryWithDefault
  3
ObjectDBX Classes
 90
        0
 91
        3
280
     0
281
     0
  0
CLASS
  1
VISUALSTYLE
  2
AcDbVisualStyle
  3
ObjectDBX Classes
 90
     4095
 91
        3
280
     0
281
     0
  0
CLASS
  1
MATERIAL
  2
AcDbMaterial
  3
ObjectDBX Classes
 90
     1153
 91
        3
280
     0
281
     0
  0
CLASS
  1
SCALE
  2
AcDbScale
  3
ObjectDBX Classes
 90
     1153
 91
        3
280
     0
281
     0
  0
CLASS
  1
TABLESTYLE
  2
AcDbTableStyle
  3
ObjectDBX Classes
 90
     4095
 91
        3
280
     0
281
     0
  0
CLASS
  1
MLEADERSTYLE
  2
AcDbMLeaderStyle
  3
ACDB_MLEADERSTYLE_CLASS
 90
     4095
 91
        3
280
     0
281
     0
  0
CLASS
  1
SUN
  2
AcDbSun
  3
SCENEOE
 90
     1153
 91
        3
280
     0
281
     0
  0
CLASS
  1
DICTIONARYVAR
  2
AcDbDictionaryVar
  3
ObjectDBX Classes
 90
        0
 91
        3
280
     0
281
     0
  0
CLASS
  1
CELLSTYLEMAP
  2
AcDbCellStyleMap
  3
ObjectDBX Classes
 90
     1152
 91
        3
280
     0
281
     0
  0
ENDSEC
  0
SECTION
  2
TABLES
  0
TABLE
  2
VPORT
  5
8
330
0
100
AcDbSymbolTable
 70
     1
  0
VPORT
  5
29
330
8
100
AcDbSymbolTableRecord
100
AcDbViewportTableRecord
  2
*Active
 70
     0
 10
0.0
 20
0.0
 11
1.0
 21
1.0
 12
210.0
 22
148.5
 13
0.0
 23
0.0
 14
10.0
 24
10.0
 15
10.0
 25
10.0
 16
0.0
 26
0.0
 36
1.0
 17
0.0
 27
0.0
 37
0.0
 40
297.0
 41
1.4141414141
 42
50.0
 43
0.0
 44
0.0
 50
0.0
 51
0.0
 71
     0
 72
  2000
 73
     1
 74
     3
 75
     0
 76
     0
 77
     0
 78
     0
281
     0
 65
     1
110
0.0
120
0.0
130
0.0
111
1.0
121
0.0
131
0.0
112
0.0
122
1.0
132
0.0
 79
     0
146
0.0
348
2F
 60
     3
 61
     5
292
     1
282
     1
141
0.0
142
0.0
 63
   250
361
5D
  0
ENDTAB
  0
TABLE
  2
LTYPE
  5
5
330
0
100
AcDbSymbolTable
 70
     6
  0
LTYPE
  5
14
330
5
100
AcDbSymbolTableRecord
100
AcDbLinetypeTableRecord
  2
ByBlock
 70
     0
  3

 72
    65
 73
     0
 40
0.0
  0
LTYPE
  5
15
330
5
100
AcDbSymbolTableRecord
100
AcDbLinetypeTableRecord
  2
ByLayer
 70
     0
  3

 72
    65
 73
     0
 40
0.0
  0
LTYPE
  5
16
330
5
100
AcDbSymbolTableRecord
100
AcDbLinetypeTableRecord
  2
Continuous
 70
     0
  3
Solid line
 72
    65
 73
     0
 40
0.0
  0
LTYPE
  5
5E
330
5
100
AcDbSymbolTableRecord
100
AcDbLinetypeTableRecord
  2
HIDDEN
 70
     0
  3
Hidden __ __ __ __ __ __ __ __ __ __ __ __ __ __
 72
    65
 73
     2
 40
1.905
 49
1.27
 74
     0
 49
-0.635
 74
     0
  0
LTYPE
  5
5F
330
5
100
AcDbSymbolTableRecord
100
AcDbLinetypeTableRecord
  2
PHANTOM
 70
     0
  3
Phantom ______  __  __  ______  __  __  ______
 72
    65
 73
     6
 40
12.7
 49
6.35
 74
     0
 49
-1.27
 74
     0
 49
1.27
 74
     0
 49
-1.27
 74
     0
 49
1.27
 74
     0
 49
-1.27
 74
     0
  0
LTYPE
  5
60
330
5
100
AcDbSymbolTableRecord
100
AcDbLinetypeTableRecord
  2
CENTER
 70
     0
  3
Center ____ _ ____ _ ____ _ ____ _ ____ _ ____
 72
    65
 73
     4
 40
10.16
 49
6.35
 74
     0
 49
-1.27
 74
     0
 49
1.27
 74
     0
 49
-1.27
 74
     0
  0
LTYPE
  5
61
330
5
100
AcDbSymbolTableRecord
100
AcDbLinetypeTableRecord
  2
CENTERX2
 70
     0
  3
Center (2x) ________  __  ________  __  _____
 72
    65
 73
     4
 40
20.32
 49
12.7
 74
     0
 49
-2.54
 74
     0
 49
2.54
 74
     0
 49
-2.54
 74
     0
  0
LTYPE
  5
62
330
5
100
AcDbSymbolTableRecord
100
AcDbLinetypeTableRecord
  2
DOT2
 70
     0
  3
Dot (.5x) ........................................
 72
    65
 73
     2
 40
0.635
 49
0.0
 74
     0
 49
-0.635
 74
     0
  0
ENDTAB
  0
TABLE
  2
LAYER
  5
2
330
0
100
AcDbSymbolTable
 70
    13
  0
LAYER
  5
10
330
2
100
AcDbSymbolTableRecord
100
AcDbLayerTableRecord
  2
0
 70
     0
 62
     7
  6
Continuous
370
    -3
390
F
347
46
348
0
  0
LAYER
  5
63
330
2
100
AcDbSymbolTableRecord
100
AcDbLayerTableRecord
  2
DRAWING-SHEET
 70
     0
 62
   179
  6
Continuous
370
    -3
390
F
347
46
348
0
  0
LAYER
  5
64
330
2
100
AcDbSymbolTableRecord
100
AcDbLayerTableRecord
  2
BORDER
 70
     0
 62
   179
  6
Continuous
370
    -3
390
F
347
46
348
0
  0
LAYER
  5
65
330
2
100
AcDbSymbolTableRecord
100
AcDbLayerTableRecord
  2
DIMENSIONS
 70
     0
 62
     7
  6
Continuous
370
    -3
390
F
347
46
348
0
  0
LAYER
  5
66
330
2
100
AcDbSymbolTableRecord
100
AcDbLayerTableRecord
  2
CENTRE_LINES
 70
     0
 62
     7
  6
Continuous
370
    -3
390
F
347
46
348
0
  0
LAYER
  5
67
330
2
100
AcDbSymbolTableRecord
100
AcDbLayerTableRecord
  2
FORMAT
 70
     0
 62
     7
  6
Continuous
370
    -3
390
F
347
46
348
0
  0
LAYER
  5
68
330
2
100
AcDbSymbolTableRecord
100
AcDbLayerTableRecord
  2
SLD-0
 70
     0
 62
   179
  6
Continuous
370
    -3
390
F
347
46
348
0
  0
LAYER
  5
69
330
2
100
AcDbSymbolTableRecord
100
AcDbLayerTableRecord
  2
OUTLINE
 70
     0
 62
     4
  6
Continuous
370
    -3
390
F
347
46
348
0
  0
LAYER
  5
6A
330
2
100
AcDbSymbolTableRecord
100
AcDbLayerTableRecord
  2
4
 70
     0
 62
     7
  6
Continuous
370
    70
390
F
347
46
348
0
  0
LAYER
  5
6B
330
2
100
AcDbSymbolTableRecord
100
AcDbLayerTableRecord
  2
TEXT25
 70
     0
 62
   179
  6
Continuous
370
    -3
390
F
347
46
348
0
  0
LAYER
  5
6C
330
2
100
AcDbSymbolTableRecord
100
AcDbLayerTableRecord
  2
TEXT35
 70
     0
 62
     7
  6
Continuous
370
    -3
390
F
347
46
348
0
  0
LAYER
  5
6D
330
2
100
AcDbSymbolTableRecord
100
AcDbLayerTableRecord
  2
TEXT5
 70
     0
 62
     7
  6
Continuous
370
    -3
390
F
347
46
348
0
  0
LAYER
  5
6E
330
2
100
AcDbSymbolTableRecord
100
AcDbLayerTableRecord
  2
5
 70
     0
 62
     7
  6
Continuous
370
    35
390
F
347
46
348
0
  0
ENDTAB
  0
TABLE
  2
STYLE
  5
3
330
0
100
AcDbSymbolTable
 70
     3
  0
STYLE
  5
11
330
3
100
AcDbSymbolTableRecord
100
AcDbTextStyleTableRecord
  2
Standard
 70
     0
 40
0.0
 41
1.0
 50
0.0
 71
     0
 42
4.2333333333
  3
txt
  4

  0
STYLE
  5
75
330
3
100
AcDbSymbolTableRecord
100
AcDbTextStyleTableRecord
  2
SLDTEXTSTYLE0
 70
     0
 40
0.0
 41
0.75
 50
0.0
 71
     0
 42
4.2333333333
  3
TXT
  4

  0
STYLE
  5
7B
330
3
100
AcDbSymbolTableRecord
100
AcDbTextStyleTableRecord
  2
SLDTEXTSTYLE1
 70
     0
 40
0.0
 41
0.6
 50
0.0
 71
     0
 42
4.2333333333
  3
TXT
  4

  0
ENDTAB
  0
TABLE
  2
VIEW
  5
6
330
0
100
AcDbSymbolTable
 70
     0
  0
ENDTAB
  0
TABLE
  2
UCS
  5
7
330
0
100
AcDbSymbolTable
 70
     0
  0
ENDTAB
  0
TABLE
  2
APPID
  5
9
330
0
100
AcDbSymbolTable
 70
     1
  0
APPID
  5
12
330
9
100
AcDbSymbolTableRecord
100
AcDbRegAppTableRecord
  2
ACAD
 70
     0
  0
ENDTAB
  0
TABLE
  2
DIMSTYLE
  5
A
330
0
100
AcDbSymbolTable
 70
     1
100
AcDbDimStyleTable
  0
DIMSTYLE
105
27
330
A
100
AcDbSymbolTableRecord
100
AcDbDimStyleTableRecord
  2
ISO-25
 70
     0
 41
2.5
 42
0.625
 43
3.75
 44
1.25
 73
     0
 74
     0
 77
     1
 78
     8
140
2.5
141
2.5
143
0.0393700787
147
0.625
171
     3
172
     1
178
     0
271
     2
272
     2
274
     3
278
    44
283
     0
284
     8
340
11
  0
ENDTAB
  0
TABLE
  2
BLOCK_RECORD
  5
1
330
0
100
AcDbSymbolTable
 70
     6
  0
BLOCK_RECORD
  5
1F
330
1
100
AcDbSymbolTableRecord
100
AcDbBlockTableRecord
  2
*Model_Space
340
22
 70
     0
280
     1
281
     0
  0
BLOCK_RECORD
  5
1B
330
1
100
AcDbSymbolTableRecord
100
AcDbBlockTableRecord
  2
*Paper_Space
340
1E
 70
     0
280
     1
281
     0
  0
BLOCK_RECORD
  5
23
330
1
100
AcDbSymbolTableRecord
100
AcDbBlockTableRecord
  2
*Paper_Space0
340
26
 70
     0
280
     1
281
     0
  0
BLOCK_RECORD
  5
6F
330
1
100
AcDbSymbolTableRecord
100
AcDbBlockTableRecord
  2
Block1
340
0
 70
     0
280
     1
281
     0
  0
BLOCK_RECORD
  5
72
330
1
100
AcDbSymbolTableRecord
100
AcDbBlockTableRecord
  2
SW_NOTE_0
340
0
102
{BLKREFS
331
77
102
}
 70
     0
280
     1
281
     0
  0
BLOCK_RECORD
  5
78
330
1
100
AcDbSymbolTableRecord
100
AcDbBlockTableRecord
  2
SW_NOTE_0_1
340
0
102
{BLKREFS
331
7D
102
}
 70
     0
280
     1
281
     0
  0
BLOCK_RECORD
  5
7E
330
1
100
AcDbSymbolTableRecord
100
AcDbBlockTableRecord
  2
SW_NOTE_0_2
340
0
102
{BLKREFS
331
82
102
}
 70
     0
280
     1
281
     0
  0
BLOCK_RECORD
  5
83
330
1
100
AcDbSymbolTableRecord
100
AcDbBlockTableRecord
  2
SW_NOTE_0_3
340
0
102
{BLKREFS
331
87
102
}
 70
     0
280
     1
281
     0
  0
ENDTAB
  0
ENDSEC
  0
SECTION
  2
BLOCKS
  0
BLOCK
  5
20
330
1F
100
AcDbEntity
  8
0
100
AcDbBlockBegin
  2
*Model_Space
 70
     0
 10
0.0
 20
0.0
 30
0.0
  3
*Model_Space
  1

  0
ENDBLK
  5
21
330
1F
100
AcDbEntity
  8
0
100
AcDbBlockEnd
  0
BLOCK
  5
1C
330
1B
100
AcDbEntity
 67
     1
  8
0
100
AcDbBlockBegin
  2
*Paper_Space
 70
     0
 10
0.0
 20
0.0
 30
0.0
  3
*Paper_Space
  1

  0
ENDBLK
  5
1D
330
1B
100
AcDbEntity
 67
     1
  8
0
100
AcDbBlockEnd
  0
BLOCK
  5
24
330
23
100
AcDbEntity
  8
0
100
AcDbBlockBegin
  2
*Paper_Space0
 70
     0
 10
0.0
 20
0.0
 30
0.0
  3
*Paper_Space0
  1

  0
ENDBLK
  5
25
330
23
100
AcDbEntity
  8
0
100
AcDbBlockEnd
  0
BLOCK
  5
70
330
6F
100
AcDbEntity
  8
0
100
AcDbBlockBegin
  2
Block1
 70
     0
 10
0.0
 20
0.0
 30
0.0
  3
Block1
  1

  0
INSERT
  5
77
330
6F
100
AcDbEntity
  8
0
  6
Continuous
 62
     7
370
     0
100
AcDbBlockReference
  2
SW_NOTE_0
 10
40.5248655077
 20
20.5912386523
 30
0.0
  0
INSERT
  5
7D
330
6F
100
AcDbEntity
  8
DRAWING-SHEET
 62
     7
100
AcDbBlockReference
  2
SW_NOTE_0_1
 10
3.556761253
 20
-0.3611706024
 30
0.0
  0
INSERT
  5
82
330
6F
100
AcDbEntity
  8
DRAWING-SHEET
 62
     7
100
AcDbBlockReference
  2
SW_NOTE_0_2
 10
7.9590819428
 20
3.0109637777
 30
0.0
  0
INSERT
  5
87
330
6F
100
AcDbEntity
  8
DRAWING-SHEET
 62
     7
100
AcDbBlockReference
  2
SW_NOTE_0_3
 10
0.0721004934
 20
6.5234823937
 30
0.0
  0
ENDBLK
  5
71
330
6F
100
AcDbEntity
  8
0
100
AcDbBlockEnd
  0
BLOCK
  5
73
330
72
100
AcDbEntity
  8
0
100
AcDbBlockBegin
  2
SW_NOTE_0
 70
     0
 10
0.0
 20
0.0
 30
0.0
  3
SW_NOTE_0
  1

  0
MTEXT
  5
76
330
72
100
AcDbEntity
  8
0
  6
Continuous
 62
     0
370
     0
100
AcDbMText
 10
0.0
 20
1.9336016097
 30
0.0
 40
1.5
 41
0.0
 46
0.0
 71
     1
 72
     1
  1
TITLE:
  7
SLDTEXTSTYLE0
 73
     1
 44
1.0
  0
ENDBLK
  5
74
330
72
100
AcDbEntity
  8
0
100
AcDbBlockEnd
  0
BLOCK
  5
79
330
78
100
AcDbEntity
  8
0
100
AcDbBlockBegin
  2
SW_NOTE_0_1
 70
     0
 10
0.0
 20
0.0
 30
0.0
  3
SW_NOTE_0_1
  1

  0
MTEXT
  5
7C
330
78
100
AcDbEntity
  8
DRAWING-SHEET
 62
     0
100
AcDbMText
 10
0.0
 20
2.7285267159
 30
0.0
 40
2.1166666667
 41
0.0
 46
0.0
 71
     1
 72
     1
  1
Email: roddyeng.com.au
  7
SLDTEXTSTYLE1
 73
     1
 44
1.0
  0
ENDBLK
  5
7A
330
78
100
AcDbEntity
  8
0
100
AcDbBlockEnd
  0
BLOCK
  5
7F
330
7E
100
AcDbEntity
  8
0
100
AcDbBlockBegin
  2
SW_NOTE_0_2
 70
     0
 10
0.0
 20
0.0
 30
0.0
  3
SW_NOTE_0_2
  1

  0
MTEXT
  5
81
330
7E
100
AcDbEntity
  8
DRAWING-SHEET
 62
     0
100
AcDbMText
 10
0.0
 20
2.7285267159
 30
0.0
 40
2.1166666667
 41
0.0
 46
0.0
 71
     1
 72
     1
  1
Ph: - 02 6947 4039
  7
SLDTEXTSTYLE1
 73
     1
 44
1.0
  0
ENDBLK
  5
80
330
7E
100
AcDbEntity
  8
0
100
AcDbBlockEnd
  0
BLOCK
  5
84
330
83
100
AcDbEntity
  8
0
100
AcDbBlockBegin
  2
SW_NOTE_0_3
 70
     0
 10
0.0
 20
0.0
 30
0.0
  3
SW_NOTE_0_3
  1

  0
MTEXT
  5
86
330
83
100
AcDbEntity
  8
DRAWING-SHEET
 62
     0
100
AcDbMText
 10
0.0
 20
2.7285267159
 30
0.0
 40
2.1166666667
 41
0.0
 46
0.0
 71
     1
 72
     1
  1
14 Waratah St TUMUT NSW 2720
  7
SLDTEXTSTYLE1
 73
     1
 44
1.0
  0
ENDBLK
  5
85
330
83
100
AcDbEntity
  8
0
100
AcDbBlockEnd
  0
ENDSEC
  0
SECTION
  2
ENTITIES
  0
SPLINE
  5
88
330
1F
100
AcDbEntity
  8
0
  6
Continuous
 62
     7
370
    25
100
AcDbSpline
210
0.0
220
0.0
230
1.0
 70
     8
 71
     3
 72
    15
 73
    11
 74
     0
 42
0.00000001
 43
0.00000001
 40
0.0
 40
0.0
 40
0.0
 40
0.0
 40
0.1022030370352187
 40
0.2110233423738748
 40
0.3250996615652079
 40
0.4465020971348911
 40
0.5737877176488537
 40
0.7089007097660668
 40
0.8503578712934009
 40
1.0
 40
1.0
 40
1.0
 40
1.0
 10
906.1034141628021
 20
734.7023953357439
 30
0.0
 10
906.0414051826731
 20
734.7010682702409
 30
0.0
 10
905.9133723705023
 20
734.698328216656
 30
0.0
 10
905.7169773379783
 20
734.6781533667674
 30
0.0
 10
905.5105962568886
 20
734.6456064080744
 30
0.0
 10
905.2950202670459
 20
734.6008378424307
 30
0.0
 10
905.0696019628103
 20
734.5422525241252
 30
0.0
 10
904.8348170468623
 20
734.4720479512667
 30
0.0
 10
904.590171866064
 20
734.388111954207
 30
0.0
 10
904.4253313531526
 20
734.3247240370719
 30
0.0
 10
904.3405936499815
 20
734.2921389254875
 30
0.0
  0
SPLINE
  5
89
330
1F
100
AcDbEntity
  8
0
  6
Continuous
 62
     7
370
    25
100
AcDbSpline
210
0.0
220
0.0
230
1.0
 70
     8
 71
     3
 72
    23
 73
    19
 74
     0
 42
0.00000001
 43
0.00000001
 40
0.0
 40
0.0
 40
0.0
 40
0.0
 40
0.0653513820265915
 40
0.127916031830613
 40
0.1883602055716977
 40
0.2472160772654515
 40
0.3056301291974098
 40
0.3637698398318175
 40
0.4226609139127775
 40
0.4826872940903932
 40
0.543300221239559
 40
0.6041179553231044
 40
0.6649648912652834
 40
0.7274134941125643
 40
0.7914676251494224
 40
0.8580554427290993
 40
0.9270368146149471
 40
1.0
 40
1.0
 40
1.0
 40
1.0
 10
908.0329013422892
 20
732.9363696947183
 30
0.0
 10
908.0313962463773
 20
733.000542841281
 30
0.0
 10
908.0284502352815
 20
733.1261526448358
 30
0.0
 10
908.0043803603033
 20
733.3099222595586
 30
0.0
 10
907.9625129949235
 20
733.4838034991051
 30
0.0
 10
907.9044012693305
 20
733.6486360338981
 30
0.0
 10
907.8306195373679
 20
733.8045753306936
 30
0.0
 10
907.740456537782
 20
733.951782325437
 30
0.0
 10
907.6322201996254
 20
734.0883168013763
 30
0.0
 10
907.5085815971371
 20
734.214242638198
 30
0.0
 10
907.37313464641
 20
734.3304594950508
 30
0.0
 10
907.2235489490452
 20
734.4295316926554
 30
0.0
 10
907.0629548306563
 20
734.5128777901451
 30
0.0
 10
906.8932871747274
 20
734.5848046435001
 30
0.0
 10
906.7105102636706
 20
734.6364634901271
 30
0.0
 10
906.5182436753748
 20
734.6752472282805
 30
0.0
 10
906.3144112000674
 20
734.6976823429737
 30
0.0
 10
906.1750496271899
 20
734.7007952306897
 30
0.0
 10
906.1034141628021
 20
734.7023953357439
 30
0.0
  0
SPLINE
  5
8A
330
1F
100
AcDbEntity
  8
0
  6
Continuous
 62
     7
370
    25
100
AcDbSpline
210
0.0
220
0.0
230
1.0
 70
     8
 71
     3
 72
    23
 73
    19
 74
     0
 42
0.00000001
 43
0.00000001
 40
0.0
 40
0.0
 40
0.0
 40
0.0
 40
0.0642072952829856
 40
0.1264246897797424
 40
0.1876802842649215
 40
0.2482164244552124
 40
0.3083050600086126
 40
0.3696609913251418
 40
0.4316985517867804
 40
0.495946892208764
 40
0.5597580239721189
 40
0.6222954078261592
 40
0.6839106352841717
 40
0.7450924080566215
 40
0.8067402253892929
 40
0.8690866181211991
 40
0.9332900029747978
 40
1.0
 40
1.0
 40
1.0
 40
1.0
 10
906.0024526243405
 20
730.907523540872
 30
0.0
 10
906.0709290687229
 20
730.9093996046552
 30
0.0
 10
906.205759748011
 20
730.9130935895947
 30
0.0
 10
906.4041857747379
 20
730.9415256172286
 30
0.0
 10
906.5957580586285
 20
730.9853143516461
 30
0.0
 10
906.7785863026489
 20
731.0508454487518
 30
0.0
 10
906.9558698217097
 20
731.1304905194395
 30
0.0
 10
907.1231241541053
 20
731.2326964070186
 30
0.0
 10
907.2851878732839
 20
731.3503193063215
 30
0.0
 10
907.4370236070464
 20
731.4850773178491
 30
0.0
 10
907.5760852053539
 20
731.633579476979
 30
0.0
 10
907.6989563393744
 20
731.7923849476645
 30
0.0
 10
907.8013035700627
 20
731.9617948826196
 30
0.0
 10
907.8875529617649
 20
732.1388763748503
 30
0.0
 10
907.9530462162165
 20
732.3255702198296
 30
0.0
 10
907.9997684590115
 20
732.5210014773666
 30
0.0
 10
908.0272040220252
 20
732.7256528606956
 30
0.0
 10
908.0309781476755
 20
732.8652398544697
 30
0.0
 10
908.0329013422892
 20
732.9363696947183
 30
0.0
  0
SPLINE
  5
8B
330
1F
100
AcDbEntity
  8
0
  6
Continuous
 62
     7
370
    25
100
AcDbSpline
210
0.0
220
0.0
230
1.0
 70
     8
 71
     3
 72
    19
 73
    15
 74
     0
 42
0.00000001
 43
0.00000001
 40
0.0
 40
0.0
 40
0.0
 40
0.0
 40
0.0946872518675511
 40
0.1819941557072739
 40
0.2643769486105131
 40
0.3421798619477729
 40
0.4186176108621473
 40
0.496509075371908
 40
0.5773690916117317
 40
0.6615105924541969
 40
0.7467325508291952
 40
0.8312579843277428
 40
0.9152056162136547
 40
1.0
 40
1.0
 40
1.0
 40
1.0
 10
904.2380295474173
 20
732.3434209767695
 30
0.0
 10
904.255694821452
 20
732.2671319426012
 30
0.0
 10
904.2896484590312
 20
732.1205001828939
 30
0.0
 10
904.36417588475
 20
731.9144856884184
 30
0.0
 10
904.4552978858305
 20
731.7308988914444
 30
0.0
 10
904.5636506822129
 20
731.5673112725336
 30
0.0
 10
904.6929078947528
 20
731.4246621359111
 30
0.0
 10
904.8404037323314
 20
731.2975374229105
 30
0.0
 10
905.0057699567868
 20
731.182851413019
 30
0.0
 10
905.1895259099751
 20
731.087256516568
 30
0.0
 10
905.3833843769931
 20
731.005727937368
 30
0.0
 10
905.586280857015
 20
730.951438348907
 30
0.0
 10
905.7926907918061
 20
730.913264879552
 30
0.0
 10
905.9322984951124
 20
730.9094437120054
 30
0.0
 10
906.0024526243404
 20
730.907523540872
 30
0.0
  0
LINE
  5
8C
330
1F
100
AcDbEntity
  8
0
  6
Continuous
 62
     7
370
    25
100
AcDbLine
 10
903.5200808295
 20
732.3434209768
 30
0.0
 11
904.2380295474
 21
732.3434209768
 31
0.0
  0
SPLINE
  5
8D
330
1F
100
AcDbEntity
  8
0
  6
Continuous
 62
     7
370
    25
100
AcDbSpline
210
0.0
220
0.0
230
1.0
 70
     8
 71
     3
 72
    23
 73
    19
 74
     0
 42
0.00000001
 43
0.00000001
 40
0.0
 40
0.0
 40
0.0
 40
0.0
 40
0.0654211437588916
 40
0.1287083718818824
 40
0.1902361418635389
 40
0.2507244020335382
 40
0.3106371794134439
 40
0.3707664082897267
 40
0.431614744412352
 40
0.4935229735663553
 40
0.5558834553775321
 40
0.6173423673185096
 40
0.6786680390972745
 40
0.7407113595451474
 40
0.802985362512746
 40
0.8668025802655179
 40
0.9323471713458862
 40
0.9999999999999999
 40
0.9999999999999999
 40
0.9999999999999999
 40
0.9999999999999999
 10
905.9607859576738
 20
730.0870107203593
 30
0.0
 10
905.8810735446402
 20
730.0885897786088
 30
0.0
 10
905.7242487887456
 20
730.0916963891741
 30
0.0
 10
905.494487492582
 20
730.1241957840407
 30
0.0
 10
905.2734255367112
 20
730.1707418786522
 30
0.0
 10
905.0628424483515
 20
730.2407676383056
 30
0.0
 10
904.8608509884536
 20
730.3285100261689
 30
0.0
 10
904.6701704906507
 20
730.4394041324441
 30
0.0
 10
904.485928716827
 20
730.5650706552947
 30
0.0
 10
904.3156154899709
 20
730.7133686049283
 30
0.0
 10
904.1575443734688
 20
730.8754615924312
 30
0.0
 10
904.0160437817652
 20
731.0513647722387
 30
0.0
 10
903.8900241777957
 20
731.2381749255783
 30
0.0
 10
903.7815036132498
 20
731.4367992777514
 30
0.0
 10
903.6889367073838
 20
731.6467159198946
 30
0.0
 10
903.61621673418
 20
731.8687113505047
 30
0.0
 10
903.5575233514528
 20
732.1016256452233
 30
0.0
 10
903.5326926760782
 20
732.2619765261617
 30
0.0
 10
903.5200808294686
 20
732.3434209767695
 30
0.0
  0
SPLINE
  5
8E
330
1F
100
AcDbEntity
  8
0
  6
Continuous
 62
     7
370
    25
100
AcDbSpline
210
0.0
220
0.0
230
1.0
 70
     8
 71
     3
 72
    31
 73
    27
 74
     0
 42
0.00000001
 43
0.00000001
 40
0.0
 40
0.0
 40
0.0
 40
0.0
 40
0.0440144705761397
 40
0.087434123667707
 40
0.130118398657898
 40
0.1725536945581827
 40
0.2145547559681396
 40
0.2562980920971315
 40
0.2984382251332496
 40
0.3408490025880963
 40
0.3827151889670276
 40
0.4239240454075323
 40
0.4642462432504172
 40
0.5040736714617979
 40
0.5438619058684923
 40
0.5835667249796532
 40
0.6230943188523339
 40
0.6632290607685857
 40
0.7035512586114697
 40
0.7439378946861853
 40
0.7845412548000915
 40
0.825750111240597
 40
0.8677573633885064
 40
0.9107451640323104
 40
0.9549144468914782
 40
1.0
 40
1.0
 40
1.0
 40
1.0
 10
908.7508500602379
 20
732.9059209767695
 30
0.0
 10
908.7493298881844
 20
732.8407273302508
 30
0.0
 10
908.7463100878875
 20
732.7112210729346
 30
0.0
 10
908.7309533161211
 20
732.5188914713682
 30
0.0
 10
908.7013859651174
 20
732.33063356718
 30
0.0
 10
908.6616883100223
 20
732.1464223858343
 30
0.0
 10
908.6101627832442
 20
731.9666066779964
 30
0.0
 10
908.5477878028959
 20
731.7906717570208
 30
0.0
 10
908.4714540257306
 20
731.6197126558936
 30
0.0
 10
908.3877251679958
 20
731.4521117529822
 30
0.0
 10
908.2934475039152
 20
731.2916580222513
 30
0.0
 10
908.1888109157118
 20
731.1416031958681
 30
0.0
 10
908.0782612214894
 20
730.999696266771
 30
0.0
 10
907.959309483299
 20
730.86745916275
 30
0.0
 10
907.8308500658989
 20
730.7457608361375
 30
0.0
 10
907.694438713072
 20
730.6338790498382
 30
0.0
 10
907.5511639267197
 20
730.5299217234311
 30
0.0
 10
907.398809087129
 20
730.4381087058871
 30
0.0
 10
907.2407691260694
 20
730.3536219489665
 30
0.0
 10
907.0747617726054
 20
730.2843110064857
 30
0.0
 10
906.9045658858455
 20
730.2223440851487
 30
0.0
 10
906.7277318844857
 20
730.1729508791793
 30
0.0
 10
906.5446603127925
 20
730.1342478974209
 30
0.0
 10
906.355049397405
 20
730.1079608103295
 30
0.0
 10
906.1598935802078
 20
730.0888146675404
 30
0.0
 10
906.027607837168
 20
730.0876161373675
 30
0.0
 10
905.9607859576738
 20
730.0870107203593
 30
0.0
  0
SPLINE
  5
8F
330
1F
100
AcDbEntity
  8
0
  6
Continuous
 62
     7
370
    25
100
AcDbSpline
210
0.0
220
0.0
230
1.0
 70
     8
 71
     3
 72
    23
 73
    19
 74
     0
 42
0.00000001
 43
0.00000001
 40
0.0
 40
0.0
 40
0.0
 40
0.0
 40
0.0658076458106949
 40
0.1293942736680564
 40
0.1908940606321908
 40
0.2512810689298364
 40
0.3108149644652751
 40
0.3703709874482455
 40
0.4307682625897288
 40
0.4928812506175023
 40
0.55510394815525
 40
0.6160670509938448
 40
0.677256033174655
 40
0.7382598051991164
 40
0.8007621343762975
 40
0.8647775815744866
 40
0.9310452949994039
 40
1.0
 40
1.0
 40
1.0
 40
1.0
 10
906.2332218551097
 20
735.5229081562568
 30
0.0
 10
906.3225561173091
 20
735.5209745889547
 30
0.0
 10
906.4982095969093
 20
735.5171727125381
 30
0.0
 10
906.7552129043233
 20
735.4806656280941
 30
0.0
 10
907.0005452316791
 20
735.423202966082
 30
0.0
 10
907.2336935063679
 20
735.3429274878267
 30
0.0
 10
907.4550890506816
 20
735.2402766690968
 30
0.0
 10
907.6626949054943
 20
735.1120482339933
 30
0.0
 10
907.8596272780356
 20
734.962257762794
 30
0.0
 10
908.0423532070737
 20
734.7900405926007
 30
0.0
 10
908.2081230543089
 20
734.6005054685957
 30
0.0
 10
908.3538738878334
 20
734.3967160490678
 30
0.0
 10
908.4776740942432
 20
734.1806528213316
 30
0.0
 10
908.5772415339608
 20
733.9502514299298
 30
0.0
 10
908.6567485837344
 20
733.7080590792776
 30
0.0
 10
908.7096674290916
 20
733.4515274620154
 30
0.0
 10
908.7449056210032
 20
733.1830746162706
 30
0.0
 10
908.7488425040193
 20
732.999521313237
 30
0.0
 10
908.7508500602379
 20
732.9059209767695
 30
0.0
  0
SPLINE
  5
90
330
1F
100
AcDbEntity
  8
0
  6
Continuous
 62
     7
370
    25
100
AcDbSpline
210
0.0
220
0.0
230
1.0
 70
     8
 71
     3
 72
    11
 73
     7
 74
     0
 42
0.00000001
 43
0.00000001
 40
0.0
 40
0.0
 40
0.0
 40
0.0
 40
0.2750683690187423
 40
0.532901460089937
 40
0.7739734595924415
 40
0.9999999999999999
 40
0.9999999999999999
 40
0.9999999999999999
 40
0.9999999999999999
 10
905.2909141628021
 20
735.3674594383081
 30
0.0
 10
905.3756133042275
 20
735.3908429167315
 30
0.0
 10
905.5397044947016
 20
735.43614470784
 30
0.0
 10
905.7818984626185
 20
735.4864436116787
 30
0.0
 10
906.0118234991238
 20
735.5167646266673
 30
0.0
 10
906.1610243457764
 20
735.5209047649809
 30
0.0
 10
906.2332218551097
 20
735.5229081562568
 30
0.0
  0
LINE
  5
91
330
1F
100
AcDbEntity
  8
0
  6
Continuous
 62
     7
370
    25
100
AcDbLine
 10
905.7220039064
 20
737.471626105
 30
0.0
 11
905.2909141628
 21
735.3674594383
 31
0.0
  0
LINE
  5
92
330
1F
100
AcDbEntity
  8
0
  6
Continuous
 62
     7
370
    25
100
AcDbLine
 10
908.4431577525
 20
737.471626105
 30
0.0
 11
905.7220039064
 21
737.471626105
 31
0.0
  0
LINE
  5
93
330
1F
100
AcDbEntity
  8
0
  6
Continuous
 62
     7
370
    25
100
AcDbLine
 10
908.4431577525
 20
738.2921389255
 30
0.0
 11
908.4431577525
 21
737.471626105
 31
0.0
  0
LINE
  5
94
330
1F
100
AcDbEntity
  8
0
  6
Continuous
 62
     7
370
    25
100
AcDbLine
 10
905.1611064705
 20
738.2921389255
 30
0.0
 11
908.4431577525
 21
738.2921389255
 31
0.0
  0
LINE
  5
95
330
1F
100
AcDbEntity
  8
0
  6
Continuous
 62
     7
370
    25
100
AcDbLine
 10
904.34059365
 20
734.2921389255
 30
0.0
 11
905.1611064705
 21
738.2921389255
 31
0.0
  0
SPLINE
  5
96
330
1F
100
AcDbEntity
  8
0
  6
Continuous
 62
     7
370
    25
100
AcDbSpline
210
0.0
220
0.0
230
1.0
 70
     8
 71
     3
 72
    31
 73
    27
 74
     0
 42
0.00000001
 43
0.00000001
 40
0.0
 40
0.0
 40
0.0
 40
0.0
 40
0.0337881161627107
 40
0.0671939323738803
 40
0.0998624108568249
 40
0.1325666121262579
 40
0.1651511732547859
 40
0.1979131873557925
 40
0.2313190035669618
 40
0.2650832782673727
 40
0.2992553087581147
 40
0.3343985665049785
 40
0.3699428235093072
 40
0.4062835607000601
 40
0.4440638196985089
 40
0.4829977068727745
 40
0.5233544466133041
 40
0.5655365896041497
 40
0.6096129240658182
 40
0.6563908113764166
 40
0.7058854949364557
 40
0.7583245002617313
 40
0.8138317829411498
 40
0.8727945590393887
 40
0.9347222295400733
 40
1.0
 40
1.0
 40
1.0
 40
1.0
 10
912.2460423679303
 20
738.4972671306157
 30
0.0
 10
912.3096663187515
 20
738.4961521244999
 30
0.0
 10
912.4361943390845
 20
738.4939347281473
 30
0.0
 10
912.6232580539324
 20
738.4726228594968
 30
0.0
 10
912.8060001835657
 20
738.437260292418
 30
0.0
 10
912.9836416434595
 20
738.3871552076577
 30
0.0
 10
913.1576416125287
 20
738.3249936610075
 30
0.0
 10
913.3266391157186
 20
738.2470802504722
 30
0.0
 10
913.4916838737577
 20
738.1563856965421
 30
0.0
 10
913.6501531023745
 20
738.049816834127
 30
0.0
 10
913.80378650888
 20
737.9310002028201
 30
0.0
 10
913.9488104242447
 20
737.7966855312695
 30
0.0
 10
914.0852380491532
 20
737.648229030084
 30
0.0
 10
914.2147816043217
 20
737.4872190554861
 30
0.0
 10
914.3337658264913
 20
737.3105674330094
 30
0.0
 10
914.4470765287438
 20
737.121346610577
 30
0.0
 10
914.5484983250905
 20
736.9162474910484
 30
0.0
 10
914.6461775826416
 20
736.698692135983
 30
0.0
 10
914.7304906951885
 20
736.4626609158536
 30
0.0
 10
914.8065278272394
 20
736.2094843203836
 30
0.0
 10
914.8679654696964
 20
735.9361718932903
 30
0.0
 10
914.9191409493263
 20
735.64415761833
 30
0.0
 10
914.9587864257735
 20
735.3323690852096
 30
0.0
 10
914.9876610362387
 20
735.0014746497542
 30
0.0
 10
915.0029138020476
 20
734.6512566140038
 30
0.0
 10
915.0057862619485
 20
734.4118101015989
 30
0.0
 10
915.0072603166482
 20
734.2889337972823
 30
0.0
  0
SPLINE
  5
97
330
1F
100
AcDbEntity
  8
0
  6
Continuous
 62
     7
370
    25
100
AcDbSpline
210
0.0
220
0.0
230
1.0
 70
     8
 71
     3
 72
    31
 73
    27
 74
     0
 42
0.00000001
 43
0.00000001
 40
0.0
 40
0.0
 40
0.0
 40
0.0
 40
0.0685946222587427
 40
0.1332460424433001
 40
0.1943125864682572
 40
0.2512792231169662
 40
0.3045134392563468
 40
0.3542349066533261
 40
0.4004805887739902
 40
0.4434107549384919
 40
0.4840148686163452
 40
0.5232523007732023
 40
0.5610423727283603
 40
0.5979002393643994
 40
0.6335184888561964
 40
0.6683143511696525
 40
0.7024956712863812
 40
0.7366853535134581
 40
0.7702931693607891
 40
0.8034372550192488
 40
0.8359129516660291
 40
0.8684602457892907
 40
0.9008465382431827
 40
0.9334665246307081
 40
0.9662575752981233
 40
1.0
 40
1.0
 40
1.0
 40
1.0
 10
909.5713628807507
 20
734.2889337972823
 30
0.0
 10
909.5721126365393
 20
734.4171563978178
 30
0.0
 10
909.5735690479652
 20
734.6662306475263
 30
0.0
 10
909.589771152976
 20
735.0291669722504
 30
0.0
 10
909.6166862211204
 20
735.3696476328107
 30
0.0
 10
909.6535716447783
 20
735.687688926613
 30
0.0
 10
909.6984584567178
 20
735.9833729597962
 30
0.0
 10
909.7583795689493
 20
736.2559095475364
 30
0.0
 10
909.8265231177836
 20
736.5065600769377
 30
0.0
 10
909.9055001367791
 20
736.7361419020258
 30
0.0
 10
909.9946150831066
 20
736.9477480803621
 30
0.0
 10
910.0916076790428
 20
737.145291397605
 30
0.0
 10
910.2003272091539
 20
737.3284729572387
 30
0.0
 10
910.3145601529873
 20
737.5002164781986
 30
0.0
 10
910.4389306024221
 20
737.657710637724
 30
0.0
 10
910.5698992663473
 20
737.8031795806235
 30
0.0
 10
910.7125778406722
 20
737.9332612959693
 30
0.0
 10
910.8621161452973
 20
738.0517671299923
 30
0.0
 10
911.0198680639069
 20
738.1556516366711
 30
0.0
 10
911.1813370150915
 20
738.2471550392213
 30
0.0
 10
911.3476343999049
 20
738.3253261643816
 30
0.0
 10
911.5192142465288
 20
738.3867900177748
 30
0.0
 10
911.6945343788481
 20
738.4375576675408
 30
0.0
 10
911.8742076741424
 20
738.4722752621615
 30
0.0
 10
912.0585307917112
 20
738.494119624423
 30
0.0
 10
912.1829454998212
 20
738.4962080078291
 30
0.0
 10
912.2460423679303
 20
738.4972671306157
 30
0.0
  0
SPLINE
  5
98
330
1F
100
AcDbEntity
  8
0
  6
Continuous
 62
     7
370
    25
100
AcDbSpline
210
0.0
220
0.0
230
1.0
 70
     8
 71
     3
 72
    31
 73
    27
 74
     0
 42
0.00000001
 43
0.00000001
 40
0.0
 40
0.0
 40
0.0
 40
0.0
 40
0.033787146346991
 40
0.0666216577242936
 40
0.0992848780959722
 40
0.1313611650426506
 40
0.1635851875953431
 40
0.1961039269870685
 40
0.2289022543238174
 40
0.2621580559050076
 40
0.2959912222583158
 40
0.3302178457247995
 40
0.3650598258919537
 40
0.4009507373401078
 40
0.4376203820767381
 40
0.4757075294370928
 40
0.5153806916250497
 40
0.5564135414931649
 40
0.5997648298727322
 40
0.6464241555840875
 40
0.6964314445175676
 40
0.7497815178015586
 40
0.8065733069755331
 40
0.8674355315654003
 40
0.9318867532508747
 40
0.9999999999999999
 40
0.9999999999999999
 40
0.9999999999999999
 40
0.9999999999999999
 10
912.2460423679303
 20
730.0870107203593
 30
0.0
 10
912.1829472502496
 20
730.0880766756937
 30
0.0
 10
912.0585359936427
 20
730.0901785315507
 30
0.0
 10
911.8741875926382
 20
730.1119242035237
 30
0.0
 10
911.695256293347
 20
730.1468853537234
 30
0.0
 10
911.520859141261
 20
730.1958375916457
 30
0.0
 10
911.3501013924983
 20
730.2557572175097
 30
0.0
 10
911.1853098801422
 20
730.3338227800308
 30
0.0
 10
911.0246523174206
 20
730.4237292233587
 30
0.0
 10
910.8685573322365
 20
730.5261187580747
 30
0.0
 10
910.7199581070025
 20
730.6434254623682
 30
0.0
 10
910.5780184377138
 20
730.7731724079374
 30
0.0
 10
910.4463041083494
 20
730.9185973480456
 30
0.0
 10
910.3237118897954
 20
731.0774040294348
 30
0.0
 10
910.2071996882052
 20
731.2481314404811
 30
0.0
 10
910.1000239777611
 20
731.4331105788706
 30
0.0
 10
910.0008905970342
 20
731.6316079742755
 30
0.0
 10
909.9102769040776
 20
731.8449060558186
 30
0.0
 10
909.8299371017578
 20
732.076117319498
 30
0.0
 10
909.7589709117842
 20
732.3278868703609
 30
0.0
 10
909.7029385518525
 20
732.6024368957644
 30
0.0
 10
909.6549775110918
 20
732.897562306291
 30
0.0
 10
909.6162932069923
 20
733.21453129003
 30
0.0
 10
909.5898833205504
 20
733.5535159258858
 30
0.0
 10
909.5735603147543
 20
733.9143049748599
 30
0.0
 10
909.5721087252226
 20
734.1617787447265
 30
0.0
 10
909.5713628807507
 20
734.2889337972823
 30
0.0
  0
SPLINE
  5
99
330
1F
100
AcDbEntity
  8
0
  6
Continuous
 62
     7
370
    25
100
AcDbSpline
210
0.0
220
0.0
230
1.0
 70
     8
 71
     3
 72
    31
 73
    27
 74
     0
 42
0.00000001
 43
0.00000001
 40
0.0
 40
0.0
 40
0.0
 40
0.0
 40
0.0650632896172783
 40
0.1267731664665233
 40
0.1855157632260795
 40
0.2407646791677157
 40
0.292979796023599
 40
0.342250372779768
 40
0.3889192861856595
 40
0.4327756640583106
 40
0.4746284326311175
 40
0.5147746906379524
 40
0.553605893498442
 40
0.5914264064311742
 40
0.6280281199460676
 40
0.66380363411032
 40
0.6989843361316637
 40
0.7335914893067051
 40
0.7676284691511392
 40
0.801208347786592
 40
0.834263839726623
 40
0.866980694728776
 40
0.8997197415181601
 40
0.9327019124985377
 40
0.9661758834327493
 40
1.0
 40
1.0
 40
1.0
 40
1.0
 10
915.0072603166482
 20
734.2889337972823
 30
0.0
 10
915.0057709805478
 20
734.1665934362745
 30
0.0
 10
915.0028690698929
 20
733.9282182320258
 30
0.0
 10
914.9878320258524
 20
733.5795760027235
 30
0.0
 10
914.9582122974439
 20
733.250437618041
 30
0.0
 10
914.9211608955952
 20
732.9400137038497
 30
0.0
 10
914.8698444087989
 20
732.6495962893744
 30
0.0
 10
914.8067468859388
 20
732.378180407162
 30
0.0
 10
914.7366890052033
 20
732.1245939576411
 30
0.0
 10
914.6502094758096
 20
731.8909143882469
 30
0.0
 10
914.5555564235873
 20
731.6738818788415
 30
0.0
 10
914.4525731180435
 20
731.4712141112309
 30
0.0
 10
914.3422420869906
 20
731.2811197279631
 30
0.0
 10
914.2220392412693
 20
731.1051203064062
 30
0.0
 10
914.0939171539633
 20
730.9419690902396
 30
0.0
 10
913.955133636722
 20
730.7945459527504
 30
0.0
 10
913.8096008707747
 20
730.6592987025489
 30
0.0
 10
913.6555153488686
 20
730.5389521254925
 30
0.0
 10
913.4945746603379
 20
730.4336154291809
 30
0.0
 10
913.3300967702239
 20
730.3394123425802
 30
0.0
 10
913.1591633225729
 20
730.2634518967519
 30
0.0
 10
912.9856480020484
 20
730.1982289459456
 30
0.0
 10
912.8070688794999
 20
730.1483993416344
 30
0.0
 10
912.623648557924
 20
730.1139448147302
 30
0.0
 10
912.4363200186585
 20
730.0897805896908
 30
0.0
 10
912.3096878699013
 20
730.0879372071187
 30
0.0
 10
912.2460423679303
 20
730.0870107203593
 30
0.0
  0
SPLINE
  5
9A
330
1F
100
AcDbEntity
  8
0
  6
Continuous
 62
     7
370
    25
100
AcDbSpline
210
0.0
220
0.0
230
1.0
 70
     8
 71
     3
 72
    11
 73
     7
 74
     0
 42
0.00000001
 43
0.00000001
 40
0.0
 40
0.0
 40
0.0
 40
0.0
 40
0.2629516255674855
 40
0.5157066923583614
 40
0.7621092269530989
 40
1.0
 40
1.0
 40
1.0
 40
1.0
 10
935.0168757012635
 20
731.0229081562567
 30
0.0
 10
935.0609541276845
 20
731.0056293966229
 30
0.0
 10
935.1474017373723
 20
730.9717419013107
 30
0.0
 10
935.2795733480409
 20
730.933922705171
 30
0.0
 10
935.4109905753809
 20
730.9132543396393
 30
0.0
 10
935.4981167327905
 20
730.9094112924654
 30
0.0
 10
935.5409141628021
 20
730.907523540872
 30
0.0
  0
SPLINE
  5
9B
330
1F
100
AcDbEntity
  8
0
  6
Continuous
 62
     7
370
    25
100
AcDbSpline
210
0.0
220
0.0
230
1.0
 70
     8
 71
     3
 72
    11
 73
     7
 74
     0
 42
0.00000001
 43
0.00000001
 40
0.0
 40
0.0
 40
0.0
 40
0.0
 40
0.2991842876765383
 40
0.5648989463568109
 40
0.7985478688426205
 40
0.9999999999999999
 40
0.9999999999999999
 40
0.9999999999999999
 40
0.9999999999999999
 10
933.9944398038277
 20
731.6254722588208
 30
0.0
 10
934.0920459273077
 20
731.5581639246706
 30
0.0
 10
934.276339015491
 20
731.4310770133296
 30
0.0
 10
934.547206308945
 20
731.267587640893
 30
0.0
 10
934.78719980153
 20
731.1274158339046
 30
0.0
 10
934.9441893954189
 20
731.0559820531237
 30
0.0
 10
935.0168757012635
 20
731.0229081562567
 30
0.0
  0
LINE
  5
9C
330
1F
100
AcDbEntity
  8
0
  6
Continuous
 62
     7
370
    25
100
AcDbLine
 10
933.5713628808
 20
731.0100876434
 30
0.0
 11
933.9944398038
 21
731.6254722588
 31
0.0
  0
SPLINE
  5
9D
330
1F
100
AcDbEntity
  8
0
  6
Continuous
 62
     7
370
    25
100
AcDbSpline
210
0.0
220
0.0
230
1.0
 70
     8
 71
     3
 72
    15
 73
    11
 74
     0
 42
0.00000001
 43
0.00000001
 40
0.0
 40
0.0
 40
0.0
 40
0.0
 40
0.1060709021051295
 40
0.2134216804124504
 40
0.3216854881303262
 40
0.4338579390981568
 40
0.5540812827743541
 40
0.68758704396656
 40
0.836465850065112
 40
1.0
 40
1.0
 40
1.0
 40
1.0
 10
935.500850060238
 20
730.0870107203593
 30
0.0
 10
935.4232309556356
 20
730.089480684083
 30
0.0
 10
935.2670561762421
 20
730.0944504146876
 30
0.0
 10
935.0346202705001
 20
730.1349571873725
 30
0.0
 10
934.8028443256843
 20
730.1973938578786
 30
0.0
 10
934.5704981569066
 20
730.2888283616471
 30
0.0
 10
934.3329913195397
 20
730.4131840153261
 30
0.0
 10
934.0871070985257
 20
730.5758921675068
 30
0.0
 10
933.8296826620483
 20
730.7766499421292
 30
0.0
 10
933.6601208652329
 20
730.9298790749476
 30
0.0
 10
933.5713628807507
 20
731.0100876434362
 30
0.0
  0
SPLINE
  5
9E
330
1F
100
AcDbEntity
  8
0
  6
Continuous
 62
     7
370
    25
100
AcDbSpline
210
0.0
220
0.0
230
1.0
 70
     8
 71
     3
 72
    23
 73
    19
 74
     0
 42
0.00000001
 43
0.00000001
 40
0.0
 40
0.0
 40
0.0
 40
0.0
 40
0.0773606839426999
 40
0.1485419530250433
 40
0.214007737252132
 40
0.2729945033606875
 40
0.326409195767468
 40
0.3738804007298078
 40
0.4160199382657599
 40
0.4521255195126311
 40
0.5180017107054545
 40
0.5823669297335148
 40
0.6470437823418057
 40
0.7133304210644735
 40
0.7809119703509683
 40
0.8503949591306456
 40
0.9229229735922768
 40
1.0
 40
1.0
 40
1.0
 40
1.0
 10
937.3662346756225
 20
732.8898953357439
 30
0.0
 10
937.3655171473212
 20
732.7899978022679
 30
0.0
 10
937.3641394054271
 20
732.5981823481037
 30
0.0
 10
937.3565636099174
 20
732.3218991574943
 30
0.0
 10
937.3425442318455
 20
732.069623303315
 30
0.0
 10
937.3221213461552
 20
731.84078113876
 30
0.0
 10
937.2948750997014
 20
731.6360895838166
 30
0.0
 10
937.2636956068555
 20
731.4539670288112
 30
0.0
 10
937.2259520667965
 20
731.2959334692048
 30
0.0
 10
937.1691144294682
 20
731.1184812275181
 30
0.0
 10
937.0759168327913
 20
730.9238668166989
 30
0.0
 10
936.9356493170316
 20
730.7136836153142
 30
0.0
 10
936.7614029251808
 20
730.5298358195421
 30
0.0
 10
936.5595719922115
 20
730.3701724483062
 30
0.0
 10
936.3283925086006
 20
730.2429559199032
 30
0.0
 10
936.0726251506026
 20
730.1516297978237
 30
0.0
 10
935.7938443792928
 20
730.0959249826825
 30
0.0
 10
935.6004747510588
 20
730.0900417710319
 30
0.0
 10
935.500850060238
 20
730.0870107203593
 30
0.0
  0
LINE
  5
9F
330
1F
100
AcDbEntity
  8
0
  6
Continuous
 62
     7
370
    25
100
AcDbLine
 10
937.3662346756
 20
738.2921389255
 30
0.0
 11
937.3662346756
 21
732.8898953357
 31
0.0
  0
LINE
  5
A0
330
1F
100
AcDbEntity
  8
0
  6
Continuous
 62
     7
370
    25
100
AcDbLine
 10
936.6482859577
 20
738.2921389255
 30
0.0
 11
937.3662346756
 21
738.2921389255
 31
0.0
  0
LINE
  5
A1
330
1F
100
AcDbEntity
  8
0
  6
Continuous
 62
     7
370
    25
100
AcDbLine
 10
936.6482859577
 20
732.9700235409
 30
0.0
 11
936.6482859577
 21
738.2921389255
 31
0.0
  0
SPLINE
  5
A2
330
1F
100
AcDbEntity
  8
0
  6
Continuous
 62
     7
370
    25
100
AcDbSpline
210
0.0
220
0.0
230
1.0
 70
     8
 71
     3
 72
    23
 73
    19
 74
     0
 42
0.00000001
 43
0.00000001
 40
0.0
 40
0.0
 40
0.0
 40
0.0
 40
0.0623263659914404
 40
0.1231962451944443
 40
0.1840362202545513
 40
0.2469640854288916
 40
0.3106993957895715
 40
0.3732676370734408
 40
0.4365875799673878
 40
0.5021247910366504
 40
0.5390047220341659
 40
0.5832553755259875
 40
0.6344465152828147
 40
0.6926760461021151
 40
0.758570486286528
 40
0.831658674792116
 40
0.9119171022748382
 40
1.0
 40
1.0
 40
1.0
 40
1.0
 10
935.5409141628021
 20
730.907523540872
 30
0.0
 10
935.596189107779
 20
730.9098612207213
 30
0.0
 10
935.7054472935591
 20
730.9144819518563
 30
0.0
 10
935.8642221370062
 20
730.9552802953335
 30
0.0
 10
936.0161262083429
 20
731.0175532165078
 30
0.0
 10
936.1557139973281
 20
731.1087333165456
 30
0.0
 10
936.2843663106581
 20
731.2171479924303
 30
0.0
 10
936.390521340572
 20
731.3482474408105
 30
0.0
 10
936.4790178993948
 20
731.4935411185395
 30
0.0
 10
936.5322743413388
 20
731.6310758701785
 30
0.0
 10
936.5662052487926
 20
731.7565081679456
 30
0.0
 10
936.5877403958947
 20
731.8717839070933
 30
0.0
 10
936.6065716196462
 20
732.0065530008098
 30
0.0
 10
936.622986595421
 20
732.1609763158043
 30
0.0
 10
936.6325968138424
 20
732.33536301782
 30
0.0
 10
936.6433791517278
 20
732.5292010588016
 30
0.0
 10
936.6472768909041
 20
732.7429791438212
 30
0.0
 10
936.6479393386062
 20
732.8920327482092
 30
0.0
 10
936.6482859576738
 20
732.9700235408721
 30
0.0
  0
LINE
  5
A3
330
1F
100
AcDbEntity
  8
0
  6
Continuous
 62
     7
370
    25
100
AcDbLine
 10
940.1354654449
 20
738.2921389255
 30
0.0
 11
940.1354654449
 21
730.2921389255
 31
0.0
  0
LINE
  5
A4
330
1F
100
AcDbEntity
  8
0
  6
Continuous
 62
     7
370
    25
100
AcDbLine
 10
939.4175167269
 20
738.2921389255
 30
0.0
 11
940.1354654449
 21
738.2921389255
 31
0.0
  0
LINE
  5
A5
330
1F
100
AcDbEntity
  8
0
  6
Continuous
 62
     7
370
    25
100
AcDbLine
 10
939.4175167269
 20
730.2921389255
 30
0.0
 11
939.4175167269
 21
738.2921389255
 31
0.0
  0
LINE
  5
A6
330
1F
100
AcDbEntity
  8
0
  6
Continuous
 62
     7
370
    25
100
AcDbLine
 10
940.1354654449
 20
730.2921389255
 30
0.0
 11
939.4175167269
 21
730.2921389255
 31
0.0
  0
SPLINE
  5
A7
330
1F
100
AcDbEntity
  8
0
  6
Continuous
 62
     7
370
    25
100
AcDbSpline
210
0.0
220
0.0
230
1.0
 70
     8
 71
     3
 72
    19
 73
    15
 74
     0
 42
0.00000001
 43
0.00000001
 40
0.0
 40
0.0
 40
0.0
 40
0.0
 40
0.0969723103815161
 40
0.1877734389628681
 40
0.2723961390136943
 40
0.35132099737529
 40
0.4243347744514666
 40
0.4919087840005267
 40
0.5542332197968021
 40
0.6112676582441573
 40
0.7163478449915549
 40
0.8145400858216161
 40
0.9084954561491877
 40
1.0
 40
1.0
 40
1.0
 40
1.0
 10
944.1995680089559
 20
734.8338055921541
 30
0.0
 10
944.2863929536586
 20
734.7706253417548
 30
0.0
 10
944.4545174253808
 20
734.6482855434624
 30
0.0
 10
944.6937347508928
 20
734.4644782748283
 30
0.0
 10
944.9106348836812
 20
734.2847119466585
 30
0.0
 10
945.1059793489843
 20
734.1101345590102
 30
0.0
 10
945.2816979968467
 20
733.9420703464306
 30
0.0
 10
945.435841358389
 20
733.7784973628186
 30
0.0
 10
945.5699800563254
 20
733.6205874824021
 30
0.0
 10
945.7143896985201
 20
733.4181358808223
 30
0.0
 10
945.8619504288525
 20
733.169493402481
 30
0.0
 10
945.988673874398
 20
732.8648574286632
 30
0.0
 10
946.0685786685799
 20
732.5590372675273
 30
0.0
 10
946.07902784671
 20
732.3534902127271
 30
0.0
 10
946.0841833935713
 20
732.2520748229234
 30
0.0
  0
SPLINE
  5
A8
330
1F
100
AcDbEntity
  8
0
  6
Continuous
 62
     7
370
    25
100
AcDbSpline
210
0.0
220
0.0
230
1.0
 70
     8
 71
     3
 72
    15
 73
    11
 74
     0
 42
0.00000001
 43
0.00000001
 40
0.0
 40
0.0
 40
0.0
 40
0.0
 40
0.0525942815291342
 40
0.1249519739750351
 40
0.2180938989285908
 40
0.3335024107325172
 40
0.4687891785044455
 40
0.6249375859646001
 40
0.8016830479282276
 40
0.9999999999999999
 40
0.9999999999999999
 40
0.9999999999999999
 40
0.9999999999999999
 10
943.1242474961354
 20
735.6302799511285
 30
0.0
 10
943.1417592044959
 20
735.6146524635495
 30
0.0
 10
943.1833630150944
 20
735.5775251302255
 30
0.0
 10
943.259422273928
 20
735.5167427744683
 30
0.0
 10
943.3598629555963
 20
735.4417650092221
 30
0.0
 10
943.4820622725721
 20
735.3489940001367
 30
0.0
 10
943.628273385091
 20
735.241379229583
 30
0.0
 10
943.7985123705645
 20
735.1202966874944
 30
0.0
 10
943.9908815884729
 20
734.9818156383358
 30
0.0
 10
944.1273888248147
 20
734.8849984026558
 30
0.0
 10
944.1995680089559
 20
734.8338055921541
 30
0.0
  0
SPLINE
  5
A9
330
1F
100
AcDbEntity
  8
0
  6
Continuous
 62
     7
370
    25
100
AcDbSpline
210
0.0
220
0.0
230
1.0
 70
     8
 71
     3
 72
    15
 73
    11
 74
     0
 42
0.00000001
 43
0.00000001
 40
0.0
 40
0.0
 40
0.0
 40
0.0
 40
0.10728521426896
 40
0.2147458609696401
 40
0.3229385595552856
 40
0.4341161625174689
 40
0.5534123109627982
 40
0.6860729848107322
 40
0.834255992059577
 40
1.0
 40
1.0
 40
1.0
 40
1.0
 10
942.5970039063918
 20
736.6639337972823
 30
0.0
 10
942.5979024815573
 20
736.6210732749041
 30
0.0
 10
942.5997011012355
 20
736.5352821447617
 30
0.0
 10
942.6247863530901
 20
736.4085360374382
 30
0.0
 10
942.6570133907079
 20
736.2821101187673
 30
0.0
 10
942.7080822632872
 20
736.1565727865749
 30
0.0
 10
942.778585814409
 20
736.0297285373125
 30
0.0
 10
942.8711690736236
 20
735.8993931371787
 30
0.0
 10
942.9877709297378
 20
735.764417803071
 30
0.0
 10
943.0770898151125
 20
735.6766295201569
 30
0.0
 10
943.1242474961354
 20
735.6302799511285
 30
0.0
  0
SPLINE
  5
AA
330
1F
100
AcDbEntity
  8
0
  6
Continuous
 62
     7
370
    25
100
AcDbSpline
210
0.0
220
0.0
230
1.0
 70
     8
 71
     3
 72
    15
 73
    11
 74
     0
 42
0.00000001
 43
0.00000001
 40
0.0
 40
0.0
 40
0.0
 40
0.0
 40
0.1430730837303604
 40
0.2759029640930062
 40
0.4023708562739945
 40
0.5284136450935932
 40
0.6503563791869515
 40
0.7658950861246923
 40
0.8807741308440211
 40
1.0
 40
1.0
 40
1.0
 40
1.0
 10
943.7700808294687
 20
737.6767543101029
 30
0.0
 10
943.6874373496847
 20
737.6739847102128
 30
0.0
 10
943.5280671841663
 20
737.6686437977289
 30
0.0
 10
943.301803787349
 20
737.6103124027767
 30
0.0
 10
943.0981605300616
 20
737.5184681506489
 30
0.0
 10
942.9231832385045
 20
737.389748200716
 30
0.0
 10
942.7774987195489
 20
737.2372430745786
 30
0.0
 10
942.6721148138006
 20
737.061748548693
 30
0.0
 10
942.6086858662532
 20
736.8679601998826
 30
0.0
 10
942.6009457984793
 20
736.7327792711245
 30
0.0
 10
942.5970039063918
 20
736.6639337972823
 30
0.0
  0
SPLINE
  5
AB
330
1F
100
AcDbEntity
  8
0
  6
Continuous
 62
     7
370
    25
100
AcDbSpline
210
0.0
220
0.0
230
1.0
 70
     8
 71
     3
 72
    19
 73
    15
 74
     0
 42
0.00000001
 43
0.00000001
 40
0.0
 40
0.0
 40
0.0
 40
0.0
 40
0.0984694310255615
 40
0.1896291011376355
 40
0.2741840894379687
 40
0.3521831609671552
 40
0.4231988731834677
 40
0.4885509460005335
 40
0.5484733460279374
 40
0.6014401636178721
 40
0.7011980824257661
 40
0.799591802138184
 40
0.8985450984822277
 40
1.0
 40
1.0
 40
1.0
 40
1.0
 10
945.3325808294687
 20
736.6511132844619
 30
0.0
 10
945.2933901266748
 20
736.7016017197135
 30
0.0
 10
945.2179179962243
 20
736.7988306413689
 30
0.0
 10
945.1033363119716
 20
736.9349936484689
 30
0.0
 10
944.9953394024396
 20
737.0593741731133
 30
0.0
 10
944.8889384886471
 20
737.1674087514677
 30
0.0
 10
944.7897530452965
 20
737.2650136276686
 30
0.0
 10
944.6934855201605
 20
737.3485787861244
 30
0.0
 10
944.6015212887608
 20
737.4189230042504
 30
0.0
 10
944.4855969215697
 20
737.4939939984428
 30
0.0
 10
944.3399564225454
 20
737.5684088637108
 30
0.0
 10
944.1571346254269
 20
737.6313781850313
 30
0.0
 10
943.9660802824899
 20
737.66921832656
 30
0.0
 10
943.8359554105111
 20
737.6742214981435
 30
0.0
 10
943.7700808294687
 20
737.6767543101029
 30
0.0
  0
LINE
  5
AC
330
1F
100
AcDbEntity
  8
0
  6
Continuous
 62
     7
370
    25
100
AcDbLine
 10
945.981619291
 20
737.1431004639
 30
0.0
 11
945.3325808295
 21
736.6511132845
 31
0.0
  0
SPLINE
  5
AD
330
1F
100
AcDbEntity
  8
0
  6
Continuous
 62
     7
370
    25
100
AcDbSpline
210
0.0
220
0.0
230
1.0
 70
     8
 71
     3
 72
    19
 73
    15
 74
     0
 42
0.00000001
 43
0.00000001
 40
0.0
 40
0.0
 40
0.0
 40
0.0
 40
0.1072327993600892
 40
0.2132518127818507
 40
0.3188304473075882
 40
0.4267935306342781
 40
0.4836459507827199
 40
0.5436038220211417
 40
0.6083076495640826
 40
0.6771267602600425
 40
0.7506856360204984
 40
0.8287134184432883
 40
0.9121903482234537
 40
1.0
 40
1.0
 40
1.0
 40
1.0
 10
943.8502090345969
 20
738.4972671306157
 30
0.0
 10
943.9444812638494
 20
738.4940155841033
 30
0.0
 10
944.1319586392707
 20
738.4875492958756
 30
0.0
 10
944.4077282748583
 20
738.4313263671448
 30
0.0
 10
944.673238483774
 20
738.3382962602009
 30
0.0
 10
944.8868230890757
 20
738.2327221848235
 30
0.0
 10
945.0539836867027
 20
738.1272789489075
 30
0.0
 10
945.1814642185631
 20
738.0312336362701
 30
0.0
 10
945.3106469632181
 20
737.9206619594606
 30
0.0
 10
945.4425739456838
 20
737.7952693969902
 30
0.0
 10
945.5750097386875
 20
737.6539053944996
 30
0.0
 10
945.7099204866743
 20
737.4975381055642
 30
0.0
 10
945.8476216725272
 20
737.3271231207314
 30
0.0
 10
945.9362064956676
 20
737.2054671190068
 30
0.0
 10
945.9816192910071
 20
737.143100463949
 30
0.0
  0
SPLINE
  5
AE
330
1F
100
AcDbEntity
  8
0
  6
Continuous
 62
     7
370
    25
100
AcDbSpline
210
0.0
220
0.0
230
1.0
 70
     8
 71
     3
 72
    19
 73
    15
 74
     0
 42
0.00000001
 43
0.00000001
 40
0.0
 40
0.0
 40
0.0
 40
0.0
 40
0.0837853706537118
 40
0.1657798879221448
 40
0.2462800078932648
 40
0.3274609277363922
 40
0.4087969540320697
 40
0.4897152412309893
 40
0.5713760321300535
 40
0.6555233211112771
 40
0.7410194827999739
 40
0.8265467605037613
 40
0.911988851654834
 40
1.0
 40
1.0
 40
1.0
 40
1.0
 10
941.8790551884431
 20
736.6302799511285
 30
0.0
 10
941.882038523285
 20
736.7149194358478
 30
0.0
 10
941.8879414262844
 20
736.8823892958136
 30
0.0
 10
941.9378626086168
 20
737.1270311939669
 30
0.0
 10
942.0166577941128
 20
737.3606001476072
 30
0.0
 10
942.1270461092249
 20
737.5807837675494
 30
0.0
 10
942.269348630181
 20
737.7818488667224
 30
0.0
 10
942.4340251430158
 20
737.9661082655385
 30
0.0
 10
942.6301656829871
 20
738.1210078820433
 30
0.0
 10
942.8453716790177
 20
738.2563497297901
 30
0.0
 10
943.080929100921
 20
738.3622832731206
 30
0.0
 10
943.3277654515442
 20
738.442194084916
 30
0.0
 10
943.5862730447446
 20
738.4874723882095
 30
0.0
 10
943.7613659238838
 20
738.4939701365813
 30
0.0
 10
943.8502090345969
 20
738.4972671306157
 30
0.0
  0
SPLINE
  5
AF
330
1F
100
AcDbEntity
  8
0
  6
Continuous
 62
     7
370
    25
100
AcDbSpline
210
0.0
220
0.0
230
1.0
 70
     8
 71
     3
 72
    15
 73
    11
 74
     0
 42
0.00000001
 43
0.00000001
 40
0.0
 40
0.0
 40
0.0
 40
0.0
 40
0.1335067689985155
 40
0.2625589787303678
 40
0.3882644471488824
 40
0.5126673546814278
 40
0.6337222699657565
 40
0.7553938601370976
 40
0.8775529450912811
 40
1.0
 40
1.0
 40
1.0
 40
1.0
 10
942.3261705730584
 20
735.4123312331799
 30
0.0
 10
942.2908047553873
 20
735.459419317418
 30
0.0
 10
942.2212531286093
 20
735.5520243546059
 30
0.0
 10
942.1294451161176
 20
735.6967668866463
 30
0.0
 10
942.051412744007
 20
735.844934350439
 30
0.0
 10
941.9902416991242
 20
735.9969248980151
 30
0.0
 10
941.9387303417767
 20
736.1506047354565
 30
0.0
 10
941.9040836429932
 20
736.3079790113412
 30
0.0
 10
941.8823890214713
 20
736.4683415678314
 30
0.0
 10
941.8801673379671
 20
736.576258140683
 30
0.0
 10
941.8790551884431
 20
736.6302799511285
 30
0.0
  0
SPLINE
  5
B0
330
1F
100
AcDbEntity
  8
0
  6
Continuous
 62
     7
370
    25
100
AcDbSpline
210
0.0
220
0.0
230
1.0
 70
     8
 71
     3
 72
    15
 73
    11
 74
     0
 42
0.00000001
 43
0.00000001
 40
0.0
 40
0.0
 40
0.0
 40
0.0
 40
0.1815353013762817
 40
0.3470816724816275
 40
0.4955678164315517
 40
0.6283573018772124
 40
0.7455196699921548
 40
0.845830750757651
 40
0.9307818073847574
 40
1.0
 40
1.0
 40
1.0
 40
1.0
 10
943.6370680089559
 20
734.3241902075388
 30
0.0
 10
943.5528988748323
 20
734.3841412649543
 30
0.0
 10
943.3919738997919
 20
734.498763121514
 30
0.0
 10
943.1669257115717
 20
734.6688757706879
 30
0.0
 10
942.9656812246918
 20
734.8244046153551
 30
0.0
 10
942.78913490121
 20
734.9668137858752
 30
0.0
 10
942.6373643941332
 20
735.0961225966863
 30
0.0
 10
942.5091737403867
 20
735.2110893147257
 30
0.0
 10
942.4078284670253
 20
735.314823168139
 30
0.0
 10
942.3514728540916
 20
735.3821176635565
 30
0.0
 10
942.3261705730584
 20
735.4123312331799
 30
0.0
  0
SPLINE
  5
B1
330
1F
100
AcDbEntity
  8
0
  6
Continuous
 62
     7
370
    25
100
AcDbSpline
210
0.0
220
0.0
230
1.0
 70
     8
 71
     3
 72
    15
 73
    11
 74
     0
 42
0.00000001
 43
0.00000001
 40
0.0
 40
0.0
 40
0.0
 40
0.0
 40
0.0902792146500148
 40
0.1895299184469602
 40
0.2991978724002899
 40
0.4189258867738195
 40
0.5483762854012455
 40
0.6881363695386787
 40
0.8390835016589211
 40
1.0
 40
1.0
 40
1.0
 40
1.0
 10
945.0793757012635
 20
733.0485491818978
 30
0.0
 10
945.043557154565
 20
733.0943704929911
 30
0.0
 10
944.9683605961881
 20
733.1905666040043
 30
0.0
 10
944.8390862816898
 20
733.3337557136624
 30
0.0
 10
944.6873923061346
 20
733.4814549569815
 30
0.0
 10
944.518469894908
 20
733.6393042300084
 30
0.0
 10
944.3261656918437
 20
733.7999620510097
 30
0.0
 10
944.1165028017792
 20
733.9710895434416
 30
0.0
 10
943.8841282669996
 20
734.1461788624055
 30
0.0
 10
943.7211579890156
 20
734.263601869369
 30
0.0
 10
943.6370680089559
 20
734.3241902075388
 30
0.0
  0
SPLINE
  5
B2
330
1F
100
AcDbEntity
  8
0
  6
Continuous
 62
     7
370
    25
100
AcDbSpline
210
0.0
220
0.0
230
1.0
 70
     8
 71
     3
 72
    11
 73
     7
 74
     0
 42
0.00000001
 43
0.00000001
 40
0.0
 40
0.0
 40
0.0
 40
0.0
 40
0.2347233736739058
 40
0.4771583189289961
 40
0.7285562842030514
 40
1.0
 40
1.0
 40
1.0
 40
1.0
 10
945.3662346756225
 20
732.2632927716413
 30
0.0
 10
945.3628648225956
 20
732.3299004281155
 30
0.0
 10
945.356014403823
 20
732.4653040604576
 30
0.0
 10
945.298113877943
 20
732.665074695781
 30
0.0
 10
945.207029885158
 20
732.8627719986936
 30
0.0
 10
945.1230009852609
 20
732.9850606057284
 30
0.0
 10
945.0793757012635
 20
733.0485491818978
 30
0.0
  0
SPLINE
  5
B3
330
1F
100
AcDbEntity
  8
0
  6
Continuous
 62
     7
370
    25
100
AcDbSpline
210
0.0
220
0.0
230
1.0
 70
     8
 71
     3
 72
    19
 73
    15
 74
     0
 42
0.00000001
 43
0.00000001
 40
0.0
 40
0.0
 40
0.0
 40
0.0
 40
0.0912636048966265
 40
0.180930311085081
 40
0.2700882198317232
 40
0.3601561333877258
 40
0.4483425324981534
 40
0.5326658421383301
 40
0.6138337041070504
 40
0.6939815272835561
 40
0.7727159770890069
 40
0.8493351720622495
 40
0.9239673265752318
 40
1.0
 40
1.0
 40
1.0
 40
1.0
 10
943.7989269833148
 20
730.907523540872
 30
0.0
 10
943.8690683787697
 20
730.9094770780429
 30
0.0
 10
944.0081238600205
 20
730.9133499700729
 30
0.0
 10
944.2128375582174
 20
730.9505632319
 30
0.0
 10
944.4116531062541
 20
731.0077338122737
 30
0.0
 10
944.6004728496381
 20
731.0896102271503
 30
0.0
 10
944.7766913971388
 20
731.1886696230929
 30
0.0
 10
944.9312209864796
 20
731.308318028824
 30
0.0
 10
945.0648121023185
 20
731.4422750704554
 30
0.0
 10
945.174090078472
 20
731.5917211382083
 30
0.0
 10
945.2579301591311
 20
731.7524460493107
 30
0.0
 10
945.322369172647
 20
731.9174196523695
 30
0.0
 10
945.3581293410044
 20
732.0892335227215
 30
0.0
 10
945.3635162060483
 20
732.2049145806594
 30
0.0
 10
945.3662346756225
 20
732.2632927716413
 30
0.0
  0
SPLINE
  5
B4
330
1F
100
AcDbEntity
  8
0
  6
Continuous
 62
     7
370
    25
100
AcDbSpline
210
0.0
220
0.0
230
1.0
 70
     8
 71
     3
 72
    15
 73
    11
 74
     0
 42
0.00000001
 43
0.00000001
 40
0.0
 40
0.0
 40
0.0
 40
0.0
 40
0.1590042985173791
 40
0.3046460998968149
 40
0.4385469045795926
 40
0.5623222987759272
 40
0.6774325425257298
 40
0.7868973929387527
 40
0.8936108891042673
 40
1.0
 40
1.0
 40
1.0
 40
1.0
 10
942.0425167269046
 20
732.2408568742055
 30
0.0
 10
942.1054155549058
 20
732.1355668514692
 30
0.0
 10
942.2259272820561
 20
731.9338352311058
 30
0.0
 10
942.426958960119
 20
731.6612454244116
 30
0.0
 10
942.6352627570697
 20
731.4295604946767
 30
0.0
 10
942.852381233754
 20
731.2401282488714
 30
0.0
 10
943.0769891151767
 20
731.0909879363053
 30
0.0
 10
943.3105526665748
 20
730.9853828352344
 30
0.0
 10
943.5522848053438
 20
730.9195177486714
 30
0.0
 10
943.7167963972968
 20
730.9115175508321
 30
0.0
 10
943.7989269833148
 20
730.907523540872
 30
0.0
  0
LINE
  5
B5
330
1F
100
AcDbEntity
  8
0
  6
Continuous
 62
     7
370
    25
100
AcDbLine
 10
941.3662346756
 20
731.8354081563
 30
0.0
 11
942.0425167269
 21
732.2408568742
 31
0.0
  0
SPLINE
  5
B6
330
1F
100
AcDbEntity
  8
0
  6
Continuous
 62
     7
370
    25
100
AcDbSpline
210
0.0
220
0.0
230
1.0
 70
     8
 71
     3
 72
    23
 73
    19
 74
     0
 42
0.00000001
 43
0.00000001
 40
0.0
 40
0.0
 40
0.0
 40
0.0
 40
0.0572082694335104
 40
0.1136960596574913
 40
0.1691779164171951
 40
0.2241592165805421
 40
0.2787198783810438
 40
0.3337942174469891
 40
0.389241459340004
 40
0.4458220733936206
 40
0.5037042811090199
 40
0.5642938918193638
 40
0.6279754158952224
 40
0.6950382596840499
 40
0.7653727258510108
 40
0.8396114430907339
 40
0.9175377500777876
 40
0.9999999999999999
 40
0.9999999999999999
 40
0.9999999999999999
 40
0.9999999999999999
 10
943.7989269833148
 20
730.0870107203593
 30
0.0
 10
943.7385033422154
 20
730.0881791354391
 30
0.0
 10
943.6184170335194
 20
730.0905012506146
 30
0.0
 10
943.4407953606665
 20
730.1110298915796
 30
0.0
 10
943.2667620139281
 20
730.140074699788
 30
0.0
 10
943.0985007978501
 20
730.1861868597352
 30
0.0
 10
942.9338438569547
 20
730.2421342358315
 30
0.0
 10
942.7735073208953
 20
730.3110218531989
 30
0.0
 10
942.6174134835105
 20
730.393575456507
 30
0.0
 10
942.4646875798114
 20
730.4879640842297
 30
0.0
 10
942.3157180379002
 20
730.5978103575179
 30
0.0
 10
942.1719021112057
 20
730.7257497779481
 30
0.0
 10
942.0285211157468
 20
730.8682537893567
 30
0.0
 10
941.8898070670116
 20
731.0291922198978
 30
0.0
 10
941.7529541657412
 20
731.2059649807155
 30
0.0
 10
941.6206606582292
 20
731.4002259713383
 30
0.0
 10
941.4901881606772
 20
731.6109170656445
 30
0.0
 10
941.4083242342149
 20
731.7591801187183
 30
0.0
 10
941.3662346756225
 20
731.8354081562567
 30
0.0
  0
SPLINE
  5
B7
330
1F
100
AcDbEntity
  8
0
  6
Continuous
 62
     7
370
    25
100
AcDbSpline
210
0.0
220
0.0
230
1.0
 70
     8
 71
     3
 72
    23
 73
    19
 74
     0
 42
0.00000001
 43
0.00000001
 40
0.0
 40
0.0
 40
0.0
 40
0.0
 40
0.0614842551968907
 40
0.121774527702212
 40
0.180919559813933
 40
0.2402561150782735
 40
0.3001144444023519
 40
0.3611459476126121
 40
0.4235005824125854
 40
0.4886693612807191
 40
0.5539541046535609
 40
0.6175812610152626
 40
0.6802384268167405
 40
0.742187388772455
 40
0.8046632117692931
 40
0.8682589893126634
 40
0.933020257180377
 40
1.0
 40
1.0
 40
1.0
 40
1.0
 10
946.0841833935713
 20
732.2520748229234
 30
0.0
 10
946.0826813635737
 20
732.1803528455621
 30
0.0
 10
946.079706471986
 20
732.0383016831779
 30
0.0
 10
946.045510097635
 20
731.8297186503045
 30
0.0
 10
945.9954080058349
 20
731.6271338053125
 30
0.0
 10
945.9198943282336
 20
731.4330512625811
 30
0.0
 10
945.8277271093536
 20
731.2439203764475
 30
0.0
 10
945.71077568566
 20
731.0647023183654
 30
0.0
 10
945.5752152634024
 20
730.8914305501665
 30
0.0
 10
945.4197095150495
 20
730.7287254270691
 30
0.0
 10
945.2495474526118
 20
730.5793626933881
 30
0.0
 10
945.0696990076683
 20
730.4464962671655
 30
0.0
 10
944.8798698123902
 20
730.3357115279762
 30
0.0
 10
944.6810896599715
 20
730.2453096032905
 30
0.0
 10
944.4733128903553
 20
730.1746044203734
 30
0.0
 10
944.2566093844478
 20
730.1233750052172
 30
0.0
 10
944.0306219302316
 20
730.091933380272
 30
0.0
 10
943.8770208294947
 20
730.0886699254958
 30
0.0
 10
943.7989269833148
 20
730.0870107203593
 30
0.0
  0
SPLINE
  5
B8
330
1F
100
AcDbEntity
  8
0
  6
Continuous
 62
     7
370
    25
100
AcDbSpline
210
0.0
220
0.0
230
1.0
 70
     8
 71
     3
 72
    19
 73
    15
 74
     0
 42
0.00000001
 43
0.00000001
 40
0.0
 40
0.0
 40
0.0
 40
0.0
 40
0.1101655532114447
 40
0.2157872561749703
 40
0.3180274349094164
 40
0.4175739541655086
 40
0.511650487647446
 40
0.5961620971027629
 40
0.6729345334849952
 40
0.743669557349856
 40
0.8106770010653602
 40
0.8740589623137345
 40
0.9366963019193725
 40
1.0
 40
1.0
 40
1.0
 40
1.0
 10
949.2636705730583
 20
735.1126517460002
 30
0.0
 10
949.3626446661333
 20
735.1143312973632
 30
0.0
 10
949.5565106011234
 20
735.1176211258951
 30
0.0
 10
949.8396975834316
 20
735.1574108639409
 30
0.0
 10
950.1104937254551
 20
735.2124522994968
 30
0.0
 10
950.3628977071714
 20
735.2967613104005
 30
0.0
 10
950.5929519091159
 20
735.394681988936
 30
0.0
 10
950.7925395710174
 20
735.5086298964005
 30
0.0
 10
950.9588644790722
 20
735.635292180393
 30
0.0
 10
951.0911183567665
 20
735.7766238588898
 30
0.0
 10
951.1906137365322
 20
735.9282011102804
 30
0.0
 10
951.2633607020776
 20
736.0861820421375
 30
0.0
 10
951.3063328763521
 20
736.2519513242777
 30
0.0
 10
951.3120692578786
 20
736.3650819938343
 30
0.0
 10
951.3149526243405
 20
736.4219466177952
 30
0.0
  0
LINE
  5
B9
330
1F
100
AcDbEntity
  8
0
  6
Continuous
 62
     7
370
    25
100
AcDbLine
 10
949.2636705731
 20
734.2921389255
 30
0.0
 11
949.2636705731
 21
735.112651746
 31
0.0
  0
SPLINE
  5
BA
330
1F
100
AcDbEntity
  8
0
  6
Continuous
 62
     7
370
    25
100
AcDbSpline
210
0.0
220
0.0
230
1.0
 70
     8
 71
     3
 72
    23
 73
    19
 74
     0
 42
0.00000001
 43
0.00000001
 40
0.0
 40
0.0
 40
0.0
 40
0.0
 40
0.0669091856056583
 40
0.1334854404229657
 40
0.2010351165700835
 40
0.2712343400187647
 40
0.3428799841615855
 40
0.4138361296100202
 40
0.4859766219744208
 40
0.5602295572555495
 40
0.5998841807523916
 40
0.6440548396425956
 40
0.6918919315842558
 40
0.7446875244737722
 40
0.8014917751698766
 40
0.8628576982200915
 40
0.9293283793947436
 40
1.0
 40
1.0
 40
1.0
 40
1.0
 10
951.7252090345969
 20
732.5998312331799
 30
0.0
 10
951.7217112025379
 20
732.6743714363113
 30
0.0
 10
951.7147329431451
 20
732.8230809409057
 30
0.0
 10
951.6614561901362
 20
733.0418639678143
 30
0.0
 10
951.573824500519
 20
733.2526603391036
 30
0.0
 10
951.451144474672
 20
733.4518735735218
 30
0.0
 10
951.3018056663398
 20
733.6365042056005
 30
0.0
 10
951.1272573078049
 20
733.8012390226933
 30
0.0
 10
950.9260499286659
 20
733.9371706594272
 30
0.0
 10
950.74086165659
 20
734.0310875883384
 30
0.0
 10
950.5768270131339
 20
734.0951723316156
 30
0.0
 10
950.4364489915622
 20
734.1378579646425
 30
0.0
 10
950.2792910409943
 20
734.1740034633307
 30
0.0
 10
950.1072536721324
 20
734.2076315125302
 30
0.0
 10
949.919040605977
 20
734.2362517368771
 30
0.0
 10
949.7148567477411
 20
734.2601187442906
 30
0.0
 10
949.4946607212158
 20
734.2792159807353
 30
0.0
 10
949.3422237706824
 20
734.2877441985214
 30
0.0
 10
949.2636705730583
 20
734.2921389254875
 30
0.0
  0
SPLINE
  5
BB
330
1F
100
AcDbEntity
  8
0
  6
Continuous
 62
     7
370
    25
100
AcDbSpline
210
0.0
220
0.0
230
1.0
 70
     8
 71
     3
 72
    23
 73
    19
 74
     0
 42
0.00000001
 43
0.00000001
 40
0.0
 40
0.0
 40
0.0
 40
0.0
 40
0.0760717369555655
 40
0.1487517145745116
 40
0.2184027938458462
 40
0.2857595810623859
 40
0.3505980236748785
 40
0.4149640445981284
 40
0.4780693385717849
 40
0.5417606760069079
 40
0.6043498585387176
 40
0.6640750210708976
 40
0.7214636230801997
 40
0.7775871282364458
 40
0.8326444469271316
 40
0.8878435110684628
 40
0.9434603426519486
 40
1.0
 40
1.0
 40
1.0
 40
1.0
 10
949.6883500602379
 20
730.907523540872
 30
0.0
 10
949.7632152091484
 20
730.9089313242941
 30
0.0
 10
949.9096075449618
 20
730.9116841232462
 30
0.0
 10
950.1232186520035
 20
730.9370000246088
 30
0.0
 10
950.3264356750111
 20
730.9738695410532
 30
0.0
 10
950.5170023624827
 20
731.0308135017802
 30
0.0
 10
950.6974149507137
 20
731.1011697336818
 30
0.0
 10
950.8651444355662
 20
731.1895089461084
 30
0.0
 10
951.0223926782942
 20
731.2931540241364
 30
0.0
 10
951.167145604983
 20
731.410957815316
 30
0.0
 10
951.2973067650124
 20
731.5399212326439
 30
0.0
 10
951.4119113667072
 20
731.6748082523249
 30
0.0
 10
951.5093391643743
 20
731.8150501483472
 30
0.0
 10
951.5879302002348
 20
731.9614229961567
 30
0.0
 10
951.6499886009219
 20
732.1133206621683
 30
0.0
 10
951.6922359165079
 20
732.2711694149785
 30
0.0
 10
951.7216108082221
 20
732.4336774520164
 30
0.0
 10
951.7240030646279
 20
732.5441436667402
 30
0.0
 10
951.7252090345969
 20
732.5998312331799
 30
0.0
  0
SPLINE
  5
BC
330
1F
100
AcDbEntity
  8
0
  6
Continuous
 62
     7
370
    25
100
AcDbSpline
210
0.0
220
0.0
230
1.0
 70
     8
 71
     3
 72
    15
 73
    11
 74
     0
 42
0.00000001
 43
0.00000001
 40
0.0
 40
0.0
 40
0.0
 40
0.0
 40
0.1182713048357283
 40
0.236177533083764
 40
0.3556629329485072
 40
0.4759041646706826
 40
0.600127341711081
 40
0.7286081161551207
 40
0.8613134756739449
 40
1.0
 40
1.0
 40
1.0
 40
1.0
 10
948.3518115986996
 20
731.3402158485644
 30
0.0
 10
948.3966037736142
 20
731.305682513969
 30
0.0
 10
948.4860498601986
 20
731.2367224413186
 30
0.0
 10
948.631805816995
 20
731.1487187189467
 30
0.0
 10
948.785096985191
 20
731.0724649467529
 30
0.0
 10
948.9492448119817
 20
731.0142164994013
 30
0.0
 10
949.1207071444479
 20
730.9648961318833
 30
0.0
 10
949.302255407835
 20
730.9326206595804
 30
0.0
 10
949.4922879040904
 20
730.910476267939
 30
0.0
 10
949.6220427920516
 20
730.9085221388134
 30
0.0
 10
949.6883500602379
 20
730.907523540872
 30
0.0
  0
SPLINE
  5
BD
330
1F
100
AcDbEntity
  8
0
  6
Continuous
 62
     7
370
    25
100
AcDbSpline
210
0.0
220
0.0
230
1.0
 70
     8
 71
     3
 72
    15
 73
    11
 74
     0
 42
0.00000001
 43
0.00000001
 40
0.0
 40
0.0
 40
0.0
 40
0.0
 40
0.1497703860319692
 40
0.2913164099952424
 40
0.4259663731047428
 40
0.5521595739695293
 40
0.6715274135235911
 40
0.7861216286916617
 40
0.8953250730704456
 40
0.9999999999999999
 40
0.9999999999999999
 40
0.9999999999999999
 40
0.9999999999999999
 10
947.7252090345969
 20
732.4459850793337
 30
0.0
 10
947.743913700746
 20
732.3843873347196
 30
0.0
 10
947.780295901107
 20
732.2645743710211
 30
0.0
 10
947.8422257251873
 20
732.0921393866214
 30
0.0
 10
947.9127817756341
 20
731.9340638363933
 30
0.0
 10
947.9884721953737
 20
731.7891881290151
 30
0.0
 10
948.0679657862827
 20
731.6560854948112
 30
0.0
 10
948.1569141865946
 20
731.5382755084476
 30
0.0
 10
948.2487293755026
 20
731.4305836176824
 30
0.0
 10
948.3179393260199
 20
731.3699102189619
 30
0.0
 10
948.3518115986996
 20
731.3402158485644
 30
0.0
  0
LINE
  5
BE
330
1F
100
AcDbEntity
  8
0
  6
Continuous
 62
     7
370
    25
100
AcDbLine
 10
947.0072603166
 20
732.4459850793
 30
0.0
 11
947.7252090346
 21
732.4459850793
 31
0.0
  0
SPLINE
  5
BF
330
1F
100
AcDbEntity
  8
0
  6
Continuous
 62
     7
370
    25
100
AcDbSpline
210
0.0
220
0.0
230
1.0
 70
     8
 71
     3
 72
    23
 73
    19
 74
     0
 42
0.00000001
 43
0.00000001
 40
0.0
 40
0.0
 40
0.0
 40
0.0
 40
0.0655411703374041
 40
0.1289631677825927
 40
0.1903771361885619
 40
0.2500923616690521
 40
0.3085484324592021
 40
0.366397963055295
 40
0.4245421892666803
 40
0.4831699964229063
 40
0.5422433998311209
 40
0.6017393520173303
 40
0.6625060022496075
 40
0.7248555134488471
 40
0.7891278292811796
 40
0.8563463998785102
 40
0.9262952349869037
 40
1.0
 40
1.0
 40
1.0
 40
1.0
 10
949.6755295474175
 20
730.0870107203593
 30
0.0
 10
949.5899997181988
 20
730.0889952078073
 30
0.0
 10
949.4217055351814
 20
730.0929000173553
 30
0.0
 10
949.1742918245841
 20
730.1195939629474
 30
0.0
 10
948.9381279403224
 20
730.1683482606338
 30
0.0
 10
948.7128945737929
 20
730.2339558157563
 30
0.0
 10
948.4983916334647
 20
730.3171369405117
 30
0.0
 10
948.2952736787729
 20
730.420722535989
 30
0.0
 10
948.1022910650127
 20
730.5425773978218
 30
0.0
 10
947.9212648909678
 20
730.6841398842367
 30
0.0
 10
947.7522167362108
 20
730.8424972322523
 30
0.0
 10
947.5996390808276
 20
731.020460683607
 30
0.0
 10
947.4609881255313
 20
731.2147404639979
 30
0.0
 10
947.3399763799051
 20
731.4275931638807
 30
0.0
 10
947.2310919167832
 20
731.6562680376585
 30
0.0
 10
947.1415354444465
 20
731.9036931768165
 30
0.0
 10
947.0627112875635
 20
732.1676566556486
 30
0.0
 10
947.0260633692867
 20
732.3516057760504
 30
0.0
 10
947.0072603166482
 20
732.4459850793337
 30
0.0
  0
SPLINE
  5
C0
330
1F
100
AcDbEntity
  8
0
  6
Continuous
 62
     7
370
    25
100
AcDbSpline
210
0.0
220
0.0
230
1.0
 70
     8
 71
     3
 72
    19
 73
    15
 74
     0
 42
0.00000001
 43
0.00000001
 40
0.0
 40
0.0
 40
0.0
 40
0.0
 40
0.0796482511802281
 40
0.1589216764181118
 40
0.2396194947370306
 40
0.32260942981856
 40
0.4060346366179231
 40
0.4876020954923866
 40
0.5696846265959321
 40
0.6530361450088344
 40
0.7374357177222873
 40
0.8224778158555093
 40
0.909747655118407
 40
1.0
 40
1.0
 40
1.0
 40
1.0
 10
952.4431577525456
 20
732.66874148959
 30
0.0
 10
952.4390560073606
 20
732.5567192697335
 30
0.0
 10
952.4308718198689
 20
732.3332020083765
 30
0.0
 10
952.3577196500229
 20
732.0029740732143
 30
0.0
 10
952.244317957008
 20
731.6801729251547
 30
0.0
 10
952.0832735319392
 20
731.3714304354502
 30
0.0
 10
951.8870049403313
 20
731.0825609931637
 30
0.0
 10
951.6535024850667
 20
730.82410085822
 30
0.0
 10
951.3854192658433
 20
730.6019326197376
 30
0.0
 10
951.0864349256129
 20
730.4163092413265
 30
0.0
 10
950.7625100605062
 20
730.2679254191702
 30
0.0
 10
950.4160515645129
 20
730.1649369783781
 30
0.0
 10
950.0520514411643
 20
730.0978604077011
 30
0.0
 10
949.8024347610444
 20
730.0906675645235
 30
0.0
 10
949.6755295474175
 20
730.0870107203593
 30
0.0
  0
SPLINE
  5
C1
330
1F
100
AcDbEntity
  8
0
  6
Continuous
 62
     7
370
    25
100
AcDbSpline
210
0.0
220
0.0
230
1.0
 70
     8
 71
     3
 72
    15
 73
    11
 74
     0
 42
0.00000001
 43
0.00000001
 40
0.0
 40
0.0
 40
0.0
 40
0.0
 40
0.1281355097972525
 40
0.2541727119019763
 40
0.3781116451389986
 40
0.5017122630072797
 40
0.6239863093684818
 40
0.7470956136177394
 40
0.8728746366500596
 40
1.0
 40
1.0
 40
1.0
 40
1.0
 10
951.9655936499815
 20
734.0902158485644
 30
0.0
 10
952.0040881467877
 20
734.0375124163161
 30
0.0
 10
952.0804467663619
 20
733.9329686070138
 30
0.0
 10
952.1746994149373
 20
733.7648853478503
 30
0.0
 10
952.260205961923
 20
733.594939086634
 30
0.0
 10
952.32683503467
 20
733.418574730003
 30
0.0
 10
952.3784324445828
 20
733.2378364129787
 30
0.0
 10
952.415314803988
 20
733.0524137934167
 30
0.0
 10
952.4382271260014
 20
732.8621554564469
 30
0.0
 10
952.4415083877486
 20
732.733441215943
 30
0.0
 10
952.4431577525456
 20
732.66874148959
 30
0.0
  0
SPLINE
  5
C2
330
1F
100
AcDbEntity
  8
0
  6
Continuous
 62
     7
370
    25
100
AcDbSpline
210
0.0
220
0.0
230
1.0
 70
     8
 71
     3
 72
    11
 73
     7
 74
     0
 42
0.00000001
 43
0.00000001
 40
0.0
 40
0.0
 40
0.0
 40
0.0
 40
0.253879600326657
 40
0.5030089172783567
 40
0.750291080689966
 40
1.0
 40
1.0
 40
1.0
 40
1.0
 10
951.0986064704944
 20
734.7729081562567
 30
0.0
 10
951.1837076238048
 20
734.7318151927334
 30
0.0
 10
951.3523176221299
 20
734.6503981467671
 30
0.0
 10
951.5821474039193
 20
734.4907278438706
 30
0.0
 10
951.7907825475925
 20
734.3063704784902
 30
0.0
 10
951.9071339053154
 20
734.162501557545
 30
0.0
 10
951.9655936499815
 20
734.0902158485644
 30
0.0
  0
SPLINE
  5
C3
330
1F
100
AcDbEntity
  8
0
  6
Continuous
 62
     7
370
    25
100
AcDbSpline
210
0.0
220
0.0
230
1.0
 70
     8
 71
     3
 72
    15
 73
    11
 74
     0
 42
0.00000001
 43
0.00000001
 40
0.0
 40
0.0
 40
0.0
 40
0.0
 40
0.1280675485958934
 40
0.2506083188676669
 40
0.3706301659145064
 40
0.4900722467299483
 40
0.6103747641546218
 40
0.7343130699115266
 40
0.8632165042449875
 40
1.0
 40
1.0
 40
1.0
 40
1.0
 10
952.0329013422893
 20
736.41874148959
 30
0.0
 10
952.0302417056103
 20
736.3341545302629
 30
0.0
 10
952.0250372093562
 20
736.1686309772045
 30
0.0
 10
951.9808458823566
 20
735.9269818408886
 30
0.0
 10
951.9064772814967
 20
735.6992296116722
 30
0.0
 10
951.8034606813187
 20
735.4844155268186
 30
0.0
 10
951.6701085664837
 20
735.2839016072228
 30
0.0
 10
951.5085709735915
 20
735.0972367138274
 30
0.0
 10
951.3177077466761
 20
734.92359292382
 30
0.0
 10
951.1730701740515
 20
734.8241198427332
 30
0.0
 10
951.0986064704944
 20
734.7729081562567
 30
0.0
  0
SPLINE
  5
C4
330
1F
100
AcDbEntity
  8
0
  6
Continuous
 62
     7
370
    25
100
AcDbSpline
210
0.0
220
0.0
230
1.0
 70
     8
 71
     3
 72
    19
 73
    15
 74
     0
 42
0.00000001
 43
0.00000001
 40
0.0
 40
0.0
 40
0.0
 40
0.0
 40
0.0902542493426765
 40
0.1785397915286856
 40
0.2660930338538209
 40
0.3546309779571742
 40
0.4418861533505636
 40
0.5257469151636489
 40
0.608113633603635
 40
0.6901972728278841
 40
0.7708214843303359
 40
0.84832618125541
 40
0.9240117400247415
 40
1.0
 40
1.0
 40
1.0
 40
1.0
 10
949.6963628807507
 20
738.4972671306157
 30
0.0
 10
949.8007805769223
 20
738.4941146043416
 30
0.0
 10
950.0073383162218
 20
738.4878783175419
 30
0.0
 10
950.3107967092515
 20
738.4309310341613
 30
0.0
 10
950.6034294386276
 20
738.340816445923
 30
0.0
 10
950.8820334336364
 20
738.2163050696099
 30
0.0
 10
951.140818422428
 20
738.0627340680966
 30
0.0
 10
951.3710725635641
 20
737.8799575266228
 30
0.0
 10
951.5696748739732
 20
737.6715019803659
 30
0.0
 10
951.7362905943392
 20
737.4412561190665
 30
0.0
 10
951.8667477350333
 20
737.1951863833248
 30
0.0
 10
951.9629451601298
 20
736.9419288812738
 30
0.0
 10
952.0215090024125
 20
736.6820843752421
 30
0.0
 10
952.0290988465501
 20
736.5066391656989
 30
0.0
 10
952.0329013422893
 20
736.41874148959
 30
0.0
  0
SPLINE
  5
C5
330
1F
100
AcDbEntity
  8
0
  6
Continuous
 62
     7
370
    25
100
AcDbSpline
210
0.0
220
0.0
230
1.0
 70
     8
 71
     3
 72
    23
 73
    19
 74
     0
 42
0.00000001
 43
0.00000001
 40
0.0
 40
0.0
 40
0.0
 40
0.0
 40
0.0726253460834354
 40
0.1419766113262348
 40
0.2089849284189415
 40
0.273956870364446
 40
0.336889347396843
 40
0.3987449534945912
 40
0.4601158852788617
 40
0.5208249225900303
 40
0.580994458632486
 40
0.6401519276014672
 40
0.6986224507562563
 40
0.7572710809271651
 40
0.8164266940046623
 40
0.8762540482034719
 40
0.9371652930625373
 40
1.0
 40
1.0
 40
1.0
 40
1.0
 10
947.3149526243405
 20
736.4459850793337
 30
0.0
 10
947.3344030258971
 20
736.5265164712773
 30
0.0
 10
947.3724269700275
 20
736.6839487555989
 30
0.0
 10
947.4517357093852
 20
736.9088796375356
 30
0.0
 10
947.5381340069728
 20
737.1217334007144
 30
0.0
 10
947.6418805316922
 20
737.3185244263038
 30
0.0
 10
947.7550433984946
 20
737.5032076325499
 30
0.0
 10
947.8846953334339
 20
737.6715942027629
 30
0.0
 10
948.0248546992989
 20
737.8279666952592
 30
0.0
 10
948.1798831548458
 20
737.9667398096757
 30
0.0
 10
948.342462952882
 20
738.0924031907196
 30
0.0
 10
948.5148849408836
 20
738.1995461789306
 30
0.0
 10
948.6936801264164
 20
738.2917156711924
 30
0.0
 10
948.8800872874418
 20
738.3676476297646
 30
0.0
 10
949.0746613941662
 20
738.4248488267158
 30
0.0
 10
949.2756433903281
 20
738.4663500966375
 30
0.0
 10
949.4835599620187
 20
738.493301214842
 30
0.0
 10
949.6246973119577
 20
738.4959315304679
 30
0.0
 10
949.6963628807507
 20
738.4972671306157
 30
0.0
  0
LINE
  5
C6
330
1F
100
AcDbEntity
  8
0
  6
Continuous
 62
     7
370
    25
100
AcDbLine
 10
948.0329013423
 20
736.4459850793
 30
0.0
 11
947.3149526243
 21
736.4459850793
 31
0.0
  0
SPLINE
  5
C7
330
1F
100
AcDbEntity
  8
0
  6
Continuous
 62
     7
370
    25
100
AcDbSpline
210
0.0
220
0.0
230
1.0
 70
     8
 71
     3
 72
    19
 73
    15
 74
     0
 42
0.00000001
 43
0.00000001
 40
0.0
 40
0.0
 40
0.0
 40
0.0
 40
0.1227119423657786
 40
0.2396849640167739
 40
0.3518158552560928
 40
0.4637661328620822
 40
0.5208177931608283
 40
0.5794482914480045
 40
0.6406041451203153
 40
0.70529751180598
 40
0.7736338807131325
 40
0.8446693818863743
 40
0.9200565080211427
 40
1.0
 40
1.0
 40
1.0
 40
1.0
 10
949.7059782653662
 20
737.6767543101029
 30
0.0
 10
949.6148887385021
 20
737.6735740540958
 30
0.0
 10
949.4369697067617
 20
737.6673622744439
 30
0.0
 10
949.180478468121
 20
737.612955386558
 30
0.0
 10
948.9420342761199
 20
737.5261483385732
 30
0.0
 10
948.7597744667727
 20
737.4225300084432
 30
0.0
 10
948.625185725839
 20
737.3202433024982
 30
0.0
 10
948.5290098670888
 20
737.2309121336497
 30
0.0
 10
948.4345629861633
 20
737.1316371081375
 30
0.0
 10
948.3480585819367
 20
737.0163036789319
 30
0.0
 10
948.2605752066803
 20
736.8927224442101
 30
0.0
 10
948.1809304946149
 20
736.7546111721149
 30
0.0
 10
948.103536912326
 20
736.6055725565677
 30
0.0
 10
948.0569025131977
 20
736.5002111061633
 30
0.0
 10
948.0329013422893
 20
736.4459850793337
 30
0.0
  0
SPLINE
  5
C8
330
1F
100
AcDbEntity
  8
0
  6
Continuous
 62
     7
370
    25
100
AcDbSpline
210
0.0
220
0.0
230
1.0
 70
     8
 71
     3
 72
    23
 73
    19
 74
     0
 42
0.00000001
 43
0.00000001
 40
0.0
 40
0.0
 40
0.0
 40
0.0
 40
0.0552745490875266
 40
0.1099660938819816
 40
0.1632474428518045
 40
0.2180761854823601
 40
0.2733008743735911
 40
0.330909300011433
 40
0.3909945233652092
 40
0.454175953430824
 40
0.5188615408488237
 40
0.5833105320111656
 40
0.6485166818638237
 40
0.7150308870971841
 40
0.7825020728543338
 40
0.8523226850768567
 40
0.9249284897844289
 40
1.0
 40
1.0
 40
1.0
 40
1.0
 10
951.3149526243405
 20
736.4219466177952
 30
0.0
 10
951.3140053992852
 20
736.4637243209781
 30
0.0
 10
951.3121209399619
 20
736.5468390800532
 30
0.0
 10
951.2883557335997
 20
736.6682678084838
 30
0.0
 10
951.2526436399249
 20
736.7859842563151
 30
0.0
 10
951.2035471157948
 20
736.8994878226102
 30
0.0
 10
951.1378323758938
 20
737.0079913058057
 30
0.0
 10
951.059190120981
 20
737.1124197605262
 30
0.0
 10
950.9655487489136
 20
737.2121769696832
 30
0.0
 10
950.8582448700367
 20
737.3051605572367
 30
0.0
 10
950.7430178872506
 20
737.3937759564722
 30
0.0
 10
950.6167326871408
 20
737.4690071267107
 30
0.0
 10
950.4831969735137
 20
737.5333386971711
 30
0.0
 10
950.3422629052852
 20
737.5863889876944
 30
0.0
 10
950.1934731217003
 20
737.6262959321897
 30
0.0
 10
950.0375267041948
 20
737.6549492839653
 30
0.0
 10
949.8741262847377
 20
737.6728639233518
 30
0.0
 10
949.76264804015
 20
737.675443159714
 30
0.0
 10
949.7059782653662
 20
737.6767543101029
 30
0.0
  0
SPLINE
  5
C9
330
1F
100
AcDbEntity
  8
0
  6
Continuous
 62
     7
370
    25
100
AcDbSpline
210
0.0
220
0.0
230
1.0
 70
     8
 71
     3
 72
    31
 73
    27
 74
     0
 42
0.00000001
 43
0.00000001
 40
0.0
 40
0.0
 40
0.0
 40
0.0
 40
0.03378811616271
 40
0.0671939323738796
 40
0.0998624108568254
 40
0.1325666121262584
 40
0.1651511732547858
 40
0.197913187355793
 40
0.2313190035669623
 40
0.2650832782673732
 40
0.2992553087581152
 40
0.3343985665049789
 40
0.3699428235093076
 40
0.4062835607000605
 40
0.4440638196985093
 40
0.4829977068727749
 40
0.5233544466133044
 40
0.5655365896041498
 40
0.6096129240658184
 40
0.6563908113764167
 40
0.7058854949364557
 40
0.7583245002617313
 40
0.8138317829411499
 40
0.8727945590393887
 40
0.9347222295400733
 40
1.0
 40
1.0
 40
1.0
 40
1.0
 10
955.8357859576738
 20
738.4972671306157
 30
0.0
 10
955.8994099084952
 20
738.4961521244999
 30
0.0
 10
956.0259379288282
 20
738.4939347281473
 30
0.0
 10
956.213001643676
 20
738.4726228594968
 30
0.0
 10
956.3957437733094
 20
738.4372602924179
 30
0.0
 10
956.573385233203
 20
738.3871552076578
 30
0.0
 10
956.7473852022722
 20
738.3249936610075
 30
0.0
 10
956.9163827054623
 20
738.2470802504722
 30
0.0
 10
957.0814274635012
 20
738.1563856965421
 30
0.0
 10
957.2398966921181
 20
738.049816834127
 30
0.0
 10
957.3935300986235
 20
737.9310002028201
 30
0.0
 10
957.5385540139882
 20
737.7966855312695
 30
0.0
 10
957.6749816388967
 20
737.648229030084
 30
0.0
 10
957.8045251940654
 20
737.4872190554861
 30
0.0
 10
957.923509416235
 20
737.3105674330094
 30
0.0
 10
958.0368201184874
 20
737.1213466105769
 30
0.0
 10
958.1382419148341
 20
736.9162474910484
 30
0.0
 10
958.2359211723851
 20
736.698692135983
 30
0.0
 10
958.320234284932
 20
736.4626609158536
 30
0.0
 10
958.396271416983
 20
736.2094843203836
 30
0.0
 10
958.4577090594399
 20
735.9361718932903
 30
0.0
 10
958.50888453907
 20
735.64415761833
 30
0.0
 10
958.5485300155171
 20
735.3323690852096
 30
0.0
 10
958.5774046259824
 20
735.0014746497542
 30
0.0
 10
958.5926573917911
 20
734.6512566140038
 30
0.0
 10
958.5955298516922
 20
734.4118101015989
 30
0.0
 10
958.5970039063918
 20
734.2889337972823
 30
0.0
  0
SPLINE
  5
CA
330
1F
100
AcDbEntity
  8
0
  6
Continuous
 62
     7
370
    25
100
AcDbSpline
210
0.0
220
0.0
230
1.0
 70
     8
 71
     3
 72
    31
 73
    27
 74
     0
 42
0.00000001
 43
0.00000001
 40
0.0
 40
0.0
 40
0.0
 40
0.0
 40
0.0685946222587427
 40
0.1332460424433002
 40
0.1943125864682573
 40
0.2512792231169663
 40
0.3045134392563468
 40
0.3542349066533263
 40
0.4004805887739902
 40
0.4434107549384921
 40
0.4840148686163453
 40
0.5232523007732024
 40
0.5610423727283604
 40
0.5979002393643995
 40
0.6335184888561969
 40
0.6683143511696527
 40
0.7024956712863819
 40
0.7366853535134588
 40
0.7702931693607898
 40
0.8034372550192489
 40
0.8359129516660292
 40
0.8684602457892913
 40
0.9008465382431833
 40
0.9334665246307088
 40
0.9662575752981238
 40
1.0
 40
1.0
 40
1.0
 40
1.0
 10
953.1611064704944
 20
734.2889337972823
 30
0.0
 10
953.1618562262828
 20
734.4171563978178
 30
0.0
 10
953.1633126377088
 20
734.6662306475264
 30
0.0
 10
953.1795147427196
 20
735.0291669722504
 30
0.0
 10
953.206429810864
 20
735.3696476328107
 30
0.0
 10
953.2433152345218
 20
735.687688926613
 30
0.0
 10
953.2882020464614
 20
735.9833729597962
 30
0.0
 10
953.3481231586929
 20
736.2559095475364
 30
0.0
 10
953.4162667075273
 20
736.5065600769377
 30
0.0
 10
953.4952437265226
 20
736.7361419020258
 30
0.0
 10
953.5843586728503
 20
736.9477480803621
 30
0.0
 10
953.6813512687864
 20
737.145291397605
 30
0.0
 10
953.7900707988974
 20
737.3284729572388
 30
0.0
 10
953.9043037427308
 20
737.5002164781986
 30
0.0
 10
954.0286741921659
 20
737.657710637724
 30
0.0
 10
954.159642856091
 20
737.8031795806235
 30
0.0
 10
954.3023214304159
 20
737.9332612959693
 30
0.0
 10
954.4518597350409
 20
738.0517671299923
 30
0.0
 10
954.6096116536504
 20
738.1556516366711
 30
0.0
 10
954.771080604835
 20
738.2471550392213
 30
0.0
 10
954.9373779896486
 20
738.3253261643816
 30
0.0
 10
955.1089578362723
 20
738.3867900177748
 30
0.0
 10
955.2842779685916
 20
738.4375576675408
 30
0.0
 10
955.4639512638861
 20
738.4722752621615
 30
0.0
 10
955.6482743814547
 20
738.494119624423
 30
0.0
 10
955.7726890895648
 20
738.4962080078292
 30
0.0
 10
955.8357859576738
 20
738.4972671306157
 30
0.0
  0
SPLINE
  5
CB
330
1F
100
AcDbEntity
  8
0
  6
Continuous
 62
     7
370
    25
100
AcDbSpline
210
0.0
220
0.0
230
1.0
 70
     8
 71
     3
 72
    31
 73
    27
 74
     0
 42
0.00000001
 43
0.00000001
 40
0.0
 40
0.0
 40
0.0
 40
0.0
 40
0.0337871463469904
 40
0.066621657724293
 40
0.0992848780959716
 40
0.13136116504265
 40
0.1635851875953425
 40
0.1961039269870681
 40
0.2289022543238169
 40
0.2621580559050076
 40
0.2959912222583154
 40
0.3302178457247995
 40
0.3650598258919535
 40
0.4009507373401075
 40
0.4376203820767382
 40
0.4757075294370928
 40
0.5153806916250494
 40
0.5564135414931647
 40
0.5997648298727318
 40
0.6464241555840873
 40
0.6964314445175673
 40
0.7497815178015584
 40
0.806573306975533
 40
0.8674355315654003
 40
0.9318867532508747
 40
1.0
 40
1.0
 40
1.0
 40
1.0
 10
955.8357859576738
 20
730.0870107203593
 30
0.0
 10
955.7726908399933
 20
730.0880766756937
 30
0.0
 10
955.6482795833864
 20
730.0901785315507
 30
0.0
 10
955.4639311823819
 20
730.1119242035237
 30
0.0
 10
955.2849998830906
 20
730.1468853537233
 30
0.0
 10
955.1106027310046
 20
730.1958375916458
 30
0.0
 10
954.939844982242
 20
730.2557572175097
 30
0.0
 10
954.7750534698857
 20
730.3338227800308
 30
0.0
 10
954.6143959071642
 20
730.4237292233587
 30
0.0
 10
954.4583009219801
 20
730.5261187580747
 30
0.0
 10
954.3097016967462
 20
730.6434254623682
 30
0.0
 10
954.1677620274575
 20
730.7731724079374
 30
0.0
 10
954.036047698093
 20
730.9185973480458
 30
0.0
 10
953.913455479539
 20
731.0774040294348
 30
0.0
 10
953.7969432779487
 20
731.2481314404811
 30
0.0
 10
953.6897675675048
 20
731.4331105788706
 30
0.0
 10
953.5906341867778
 20
731.6316079742755
 30
0.0
 10
953.5000204938211
 20
731.8449060558186
 30
0.0
 10
953.4196806915013
 20
732.076117319498
 30
0.0
 10
953.3487145015278
 20
732.3278868703609
 30
0.0
 10
953.2926821415963
 20
732.6024368957644
 30
0.0
 10
953.2447211008354
 20
732.897562306291
 30
0.0
 10
953.206036796736
 20
733.21453129003
 30
0.0
 10
953.1796269102939
 20
733.5535159258858
 30
0.0
 10
953.1633039044979
 20
733.9143049748599
 30
0.0
 10
953.1618523149662
 20
734.1617787447265
 30
0.0
 10
953.1611064704944
 20
734.2889337972823
 30
0.0
  0
SPLINE
  5
CC
330
1F
100
AcDbEntity
  8
0
  6
Continuous
 62
     7
370
    25
100
AcDbSpline
210
0.0
220
0.0
230
1.0
 70
     8
 71
     3
 72
    31
 73
    27
 74
     0
 42
0.00000001
 43
0.00000001
 40
0.0
 40
0.0
 40
0.0
 40
0.0
 40
0.0650632896172782
 40
0.1267731664665232
 40
0.1855157632260793
 40
0.2407646791677156
 40
0.2929797960235988
 40
0.3422503727797678
 40
0.3889192861856594
 40
0.4327756640583106
 40
0.4746284326311175
 40
0.5147746906379524
 40
0.5536058934984417
 40
0.5914264064311738
 40
0.6280281199460672
 40
0.6638036341103195
 40
0.6989843361316636
 40
0.7335914893067046
 40
0.7676284691511387
 40
0.8012083477865914
 40
0.8342638397266224
 40
0.8669806947287755
 40
0.8997197415181596
 40
0.9327019124985384
 40
0.9661758834327498
 40
0.9999999999999999
 40
0.9999999999999999
 40
0.9999999999999999
 40
0.9999999999999999
 10
958.5970039063918
 20
734.2889337972823
 30
0.0
 10
958.5955145702914
 20
734.1665934362745
 30
0.0
 10
958.5926126596365
 20
733.9282182320259
 30
0.0
 10
958.577575615596
 20
733.5795760027235
 30
0.0
 10
958.5479558871875
 20
733.250437618041
 30
0.0
 10
958.510904485339
 20
732.9400137038498
 30
0.0
 10
958.4595879985425
 20
732.6495962893745
 30
0.0
 10
958.3964904756824
 20
732.378180407162
 30
0.0
 10
958.3264325949469
 20
732.1245939576411
 30
0.0
 10
958.2399530655531
 20
731.8909143882469
 30
0.0
 10
958.1453000133308
 20
731.6738818788416
 30
0.0
 10
958.0423167077872
 20
731.4712141112309
 30
0.0
 10
957.9319856767341
 20
731.2811197279632
 30
0.0
 10
957.811782831013
 20
731.1051203064062
 30
0.0
 10
957.6836607437068
 20
730.9419690902397
 30
0.0
 10
957.5448772264657
 20
730.7945459527504
 30
0.0
 10
957.3993444605184
 20
730.6592987025489
 30
0.0
 10
957.2452589386121
 20
730.5389521254925
 30
0.0
 10
957.0843182500815
 20
730.4336154291808
 30
0.0
 10
956.9198403599675
 20
730.3394123425802
 30
0.0
 10
956.7489069123166
 20
730.2634518967519
 30
0.0
 10
956.5753915917919
 20
730.1982289459456
 30
0.0
 10
956.3968124692435
 20
730.1483993416344
 30
0.0
 10
956.2133921476676
 20
730.1139448147302
 30
0.0
 10
956.0260636084021
 20
730.0897805896908
 30
0.0
 10
955.8994314596448
 20
730.0879372071187
 30
0.0
 10
955.8357859576738
 20
730.0870107203593
 30
0.0
  0
CIRCLE
  5
CD
330
1F
100
AcDbEntity
  8
0
  6
Continuous
 62
     7
370
    25
100
AcDbCircle
 10
940.9495597088
 20
816.2689151959
 30
0.0
 40
42.69999999999993
  0
CIRCLE
  5
CE
330
1F
100
AcDbEntity
  8
0
  6
Continuous
 62
     7
370
    25
100
AcDbCircle
 10
916.0751366051
 20
876.3210848092
 30
0.0
 40
9.500000000000076
  0
CIRCLE
  5
CF
330
1F
100
AcDbEntity
  8
0
  6
Continuous
 62
     7
370
    25
100
AcDbCircle
 10
880.8973900956
 20
841.1433382997
 30
0.0
 40
9.500000000000114
  0
CIRCLE
  5
D0
330
1F
100
AcDbEntity
  8
0
  6
Continuous
 62
     7
370
    25
100
AcDbCircle
 10
880.8973900956
 20
791.3944920922
 30
0.0
 40
9.499999999999996
  0
CIRCLE
  5
D1
330
1F
100
AcDbEntity
  8
0
  6
Continuous
 62
     7
370
    25
100
AcDbCircle
 10
916.0751366051
 20
756.2167455827
 30
0.0
 40
9.5
  0
CIRCLE
  5
D2
330
1F
100
AcDbEntity
  8
0
  6
Continuous
 62
     7
370
    25
100
AcDbCircle
 10
965.8239828125
 20
756.2167455827
 30
0.0
 40
9.500000000000076
  0
CIRCLE
  5
D3
330
1F
100
AcDbEntity
  8
0
  6
Continuous
 62
     7
370
    25
100
AcDbCircle
 10
1001.001729322
 20
791.3944920922
 30
0.0
 40
9.500000000000114
  0
CIRCLE
  5
D4
330
1F
100
AcDbEntity
  8
0
  6
Continuous
 62
     7
370
    25
100
AcDbCircle
 10
1001.001729322
 20
841.1433382997
 30
0.0
 40
9.500000000000076
  0
CIRCLE
  5
D5
330
1F
100
AcDbEntity
  8
0
  6
Continuous
 62
     7
370
    25
100
AcDbCircle
 10
965.8239828125
 20
876.3210848092
 30
0.0
 40
9.500000000000114
  0
ARC
  5
D6
330
1F
100
AcDbEntity
  8
0
  6
Continuous
 62
     7
370
    25
100
AcDbCircle
 10
880.9495597088
 20
701.1689151959
 30
0.0
 40
5.0
100
AcDbArc
 50
180.0
 51
270.0
  0
LINE
  5
D7
330
1F
100
AcDbEntity
  8
0
  6
Continuous
 62
     7
370
    25
100
AcDbLine
 10
875.9495597088
 20
763.7689151959
 30
0.0
 11
875.9495597088
 21
701.1689151959
 31
0.0
  0
ARC
  5
D8
330
1F
100
AcDbEntity
  8
0
  6
Continuous
 62
     7
370
    25
100
AcDbCircle
 10
870.9495597088
 20
763.7689151959
 30
0.0
 40
5.0
100
AcDbArc
 50
0.0
 51
36.8698976458
  0
ARC
  5
D9
330
1F
100
AcDbEntity
  8
0
  6
Continuous
 62
     7
370
    25
100
AcDbCircle
 10
940.9495597088
 20
816.2689151959
 30
0.0
 40
82.5
100
AcDbArc
 50
323.1301023542
 51
216.8698976458
  0
ARC
  5
DA
330
1F
100
AcDbEntity
  8
0
  6
Continuous
 62
     7
370
    25
100
AcDbCircle
 10
1010.9495597088
 20
763.7689151959
 30
0.0
 40
5.0
100
AcDbArc
 50
143.1301023542
 51
180.0
  0
LINE
  5
DB
330
1F
100
AcDbEntity
  8
0
  6
Continuous
 62
     7
370
    25
100
AcDbLine
 10
1005.9495597088
 20
701.1689151959
 30
0.0
 11
1005.9495597088
 21
763.7689151959
 31
0.0
  0
ARC
  5
DC
330
1F
100
AcDbEntity
  8
0
  6
Continuous
 62
     7
370
    25
100
AcDbCircle
 10
1000.9495597088
 20
701.1689151959
 30
0.0
 40
5.000000000000114
100
AcDbArc
 50
270.0
 51
0.0
  0
LINE
  5
DD
330
1F
100
AcDbEntity
  8
0
  6
Continuous
 62
     7
370
    25
100
AcDbLine
 10
880.9495597088
 20
696.1689151959
 30
0.0
 11
1000.9495597088
 21
696.1689151959
 31
0.0
  0
LINE
  5
DE
330
1F
100
AcDbEntity
  8
0
  6
Continuous
 62
     7
370
    25
100
AcDbLine
 10
960.7508500602
 20
734.1527158486
 30
0.0
 11
960.7508500602
 21
730.2921389255
 31
0.0
  0
LINE
  5
DF
330
1F
100
AcDbEntity
  8
0
  6
Continuous
 62
     7
370
    25
100
AcDbLine
 10
964.4607859577
 20
730.2921389255
 30
0.0
 11
960.7508500602
 21
734.1527158486
 31
0.0
  0
LINE
  5
E0
330
1F
100
AcDbEntity
  8
0
  6
Continuous
 62
     7
370
    25
100
AcDbLine
 10
965.4175167269
 20
730.2921389255
 30
0.0
 11
964.4607859577
 21
730.2921389255
 31
0.0
  0
LINE
  5
E1
330
1F
100
AcDbEntity
  8
0
  6
Continuous
 62
     7
370
    25
100
AcDbLine
 10
961.1787346756
 20
734.7023953357
 30
0.0
 11
965.4175167269
 21
730.2921389255
 31
0.0
  0
LINE
  5
E2
330
1F
100
AcDbEntity
  8
0
  6
Continuous
 62
     7
370
    25
100
AcDbLine
 10
965.1098244192
 20
738.2921389255
 30
0.0
 11
961.1787346756
 21
734.7023953357
 31
0.0
  0
LINE
  5
E3
330
1F
100
AcDbEntity
  8
0
  6
Continuous
 62
     7
370
    25
100
AcDbLine
 10
964.0857859577
 20
738.2921389255
 30
0.0
 11
965.1098244192
 21
738.2921389255
 31
0.0
  0
LINE
  5
E4
330
1F
100
AcDbEntity
  8
0
  6
Continuous
 62
     7
370
    25
100
AcDbLine
 10
960.7508500602
 20
735.2456645665
 30
0.0
 11
964.0857859577
 21
738.2921389255
 31
0.0
  0
LINE
  5
E5
330
1F
100
AcDbEntity
  8
0
  6
Continuous
 62
     7
370
    25
100
AcDbLine
 10
960.7508500602
 20
738.2921389255
 30
0.0
 11
960.7508500602
 21
735.2456645665
 31
0.0
  0
LINE
  5
E6
330
1F
100
AcDbEntity
  8
0
  6
Continuous
 62
     7
370
    25
100
AcDbLine
 10
960.0329013423
 20
738.2921389255
 30
0.0
 11
960.7508500602
 21
738.2921389255
 31
0.0
  0
LINE
  5
E7
330
1F
100
AcDbEntity
  8
0
  6
Continuous
 62
     7
370
    25
100
AcDbLine
 10
960.0329013423
 20
730.2921389255
 30
0.0
 11
960.0329013423
 21
738.2921389255
 31
0.0
  0
LINE
  5
E8
330
1F
100
AcDbEntity
  8
0
  6
Continuous
 62
     7
370
    25
100
AcDbLine
 10
960.7508500602
 20
730.2921389255
 30
0.0
 11
960.0329013423
 21
730.2921389255
 31
0.0
  0
SPLINE
  5
E9
330
1F
100
AcDbEntity
  8
0
  6
Continuous
 62
     7
370
    25
100
AcDbSpline
210
0.0
220
0.0
230
1.0
 70
     8
 71
     3
 72
    23
 73
    19
 74
     0
 42
0.00000001
 43
0.00000001
 40
0.0
 40
0.0
 40
0.0
 40
0.0
 40
0.0611602766365183
 40
0.1203345577262035
 40
0.1781802550631263
 40
0.2352351259863653
 40
0.2926829614441808
 40
0.3511862482150805
 40
0.410456609509693
 40
0.4717198544629948
 40
0.5337612027725886
 40
0.5957390238870942
 40
0.6578875151248837
 40
0.7212951802914607
 40
0.7868225145418892
 40
0.8546861538286845
 40
0.9254779862699962
 40
1.0
 40
1.0
 40
1.0
 40
1.0
 10
929.3662346756225
 20
732.5629722588209
 30
0.0
 10
929.364001884712
 20
732.4848765511138
 30
0.0
 10
929.3596088060426
 20
732.3312210582992
 30
0.0
 10
929.3271974419358
 20
732.1054950364694
 30
0.0
 10
929.2723194830995
 20
731.889780872783
 30
0.0
 10
929.1967282914087
 20
731.6826833123163
 30
0.0
 10
929.0980715723268
 20
731.4846030049547
 30
0.0
 10
928.9780076538551
 20
731.295315544414
 30
0.0
 10
928.8348497941456
 20
731.1167227887271
 30
0.0
 10
928.6747060936842
 20
730.9468402216345
 30
0.0
 10
928.4935354754242
 20
730.7940909934293
 30
0.0
 10
928.2980708927441
 20
730.6580550924434
 30
0.0
 10
928.0858507329872
 20
730.5461783790365
 30
0.0
 10
927.8603604609497
 20
730.4521989013158
 30
0.0
 10
927.6190705955457
 20
730.3804110191099
 30
0.0
 10
927.3630646358662
 20
730.3301879930543
 30
0.0
 10
927.092563374529
 20
730.2963479084863
 30
0.0
 10
926.9069410862742
 20
730.2935657258693
 30
0.0
 10
926.8117474961354
 20
730.2921389254875
 30
0.0
  0
SPLINE
  5
EA
330
1F
100
AcDbEntity
  8
0
  6
Continuous
 62
     7
370
    25
100
AcDbSpline
210
0.0
220
0.0
230
1.0
 70
     8
 71
     3
 72
    19
 73
    15
 74
     0
 42
0.00000001
 43
0.00000001
 40
0.0
 40
0.0
 40
0.0
 40
0.0
 40
0.1060574933033971
 40
0.2029142570846113
 40
0.2903001653958372
 40
0.3702225656250411
 40
0.4463837207709718
 40
0.5213968999648274
 40
0.5982910828464572
 40
0.6761424688569262
 40
0.7555286995560205
 40
0.8348871724576591
 40
0.9166460487466405
 40
1.0
 40
1.0
 40
1.0
 40
1.0
 10
927.8261705730583
 20
734.6078440536926
 30
0.0
 10
927.9170515504179
 20
734.5729526275426
 30
0.0
 10
928.0909293729993
 20
734.5061966860685
 30
0.0
 10
928.3302116871295
 20
734.388172768361
 30
0.0
 10
928.536371332835
 20
734.2598022303237
 30
0.0
 10
928.7109933808011
 20
734.1196151442808
 30
0.0
 10
928.8603365920392
 20
733.9685092910463
 30
0.0
 10
928.9907433156344
 20
733.8042690299071
 30
0.0
 10
929.102015028002
 20
733.6247518690445
 30
0.0
 10
929.1973588532949
 20
733.431829502502
 30
0.0
 10
929.2717560099263
 20
733.2274718605433
 30
0.0
 10
929.3274723627713
 20
733.0135958008922
 30
0.0
 10
929.3593979607961
 20
732.7909682461623
 30
0.0
 10
929.3639411408606
 20
732.6394588076744
 30
0.0
 10
929.3662346756225
 20
732.5629722588209
 30
0.0
  0
SPLINE
  5
EB
330
1F
100
AcDbEntity
  8
0
  6
Continuous
 62
     7
370
    25
100
AcDbSpline
210
0.0
220
0.0
230
1.0
 70
     8
 71
     3
 72
    15
 73
    11
 74
     0
 42
0.00000001
 43
0.00000001
 40
0.0
 40
0.0
 40
0.0
 40
0.0
 40
0.1305691070873112
 40
0.2565806086940821
 40
0.380551616803683
 40
0.5036229172007108
 40
0.6257393231697905
 40
0.7475485819596281
 40
0.8717661185648706
 40
1.0
 40
1.0
 40
1.0
 40
1.0
 10
928.7508500602379
 20
736.3097671306157
 30
0.0
 10
928.7483512752264
 20
736.2214184319232
 30
0.0
 10
928.7434409270318
 20
736.0478049073038
 30
0.0
 10
928.6964860485568
 20
735.7938755146554
 30
0.0
 10
928.6229759492664
 20
735.5521584430501
 30
0.0
 10
928.520792522606
 20
735.3235358478114
 30
0.0
 10
928.3879879598676
 20
735.1131733034786
 30
0.0
 10
928.2305975172044
 20
734.9193738382327
 30
0.0
 10
928.0407076829393
 20
734.7503428508156
 30
0.0
 10
927.8984374201098
 20
734.6558447878426
 30
0.0
 10
927.8261705730583
 20
734.6078440536926
 30
0.0
  0
SPLINE
  5
EC
330
1F
100
AcDbEntity
  8
0
  6
Continuous
 62
     7
370
    25
100
AcDbSpline
210
0.0
220
0.0
230
1.0
 70
     8
 71
     3
 72
    23
 73
    19
 74
     0
 42
0.00000001
 43
0.00000001
 40
0.0
 40
0.0
 40
0.0
 40
0.0
 40
0.0625940971873314
 40
0.1213229386347492
 40
0.176680142197766
 40
0.2283650957096756
 40
0.2768684458368066
 40
0.3218791276660452
 40
0.364098625109891
 40
0.4033556962427015
 40
0.4779679481633705
 40
0.5505354613647755
 40
0.623584456740322
 40
0.6981748822642047
 40
0.7733536703408739
 40
0.847281125497732
 40
0.9228183395566674
 40
1.0
 40
1.0
 40
1.0
 40
1.0
 10
926.2091833935713
 20
738.2921389254875
 30
0.0
 10
926.2855913437148
 20
738.2917372102835
 30
0.0
 10
926.4336889673409
 20
738.2909585862401
 30
0.0
 10
926.6490476915209
 20
738.2788828579041
 30
0.0
 10
926.8507592586993
 20
738.2624173267529
 30
0.0
 10
927.038882166929
 20
738.236291400709
 30
0.0
 10
927.2133294866801
 20
738.2047673386625
 30
0.0
 10
927.3746269432237
 20
738.1665917590275
 30
0.0
 10
927.5222616226941
 20
738.1208166420926
 30
0.0
 10
927.6985193059082
 20
738.0480251421326
 30
0.0
 10
927.8994808164884
 20
737.9398579001904
 30
0.0
 10
928.1170771426666
 20
737.7800211798499
 30
0.0
 10
928.303143975488
 20
737.5845184070033
 30
0.0
 10
928.4635698434672
 20
737.3639866231763
 30
0.0
 10
928.5911152597215
 20
737.1213905734597
 30
0.0
 10
928.6833879393002
 20
736.8625124276825
 30
0.0
 10
928.74180594012
 20
736.5906913032949
 30
0.0
 10
928.7478137897564
 20
736.404078325286
 30
0.0
 10
928.7508500602379
 20
736.3097671306157
 30
0.0
  0
LINE
  5
ED
330
1F
100
AcDbEntity
  8
0
  6
Continuous
 62
     7
370
    25
100
AcDbLine
 10
924.6482859577
 20
738.2921389255
 30
0.0
 11
926.2091833936
 21
738.2921389255
 31
0.0
  0
LINE
  5
EE
330
1F
100
AcDbEntity
  8
0
  6
Continuous
 62
     7
370
    25
100
AcDbLine
 10
924.6482859577
 20
730.2921389255
 30
0.0
 11
924.6482859577
 21
738.2921389255
 31
0.0
  0
LINE
  5
EF
330
1F
100
AcDbEntity
  8
0
  6
Continuous
 62
     7
370
    25
100
AcDbLine
 10
926.8117474961
 20
730.2921389255
 30
0.0
 11
924.6482859577
 21
730.2921389255
 31
0.0
  0
LINE
  5
F0
330
1F
100
AcDbEntity
  8
0
  6
Continuous
 62
     7
370
    25
100
AcDbLine
 10
922.4335423679
 20
730.2921389255
 30
0.0
 11
917.1611064705
 21
736.5741902075
 31
0.0
  0
LINE
  5
F1
330
1F
100
AcDbEntity
  8
0
  6
Continuous
 62
     7
370
    25
100
AcDbLine
 10
922.5970039064
 20
730.2921389255
 30
0.0
 11
922.4335423679
 21
730.2921389255
 31
0.0
  0
LINE
  5
F2
330
1F
100
AcDbEntity
  8
0
  6
Continuous
 62
     7
370
    25
100
AcDbLine
 10
922.5970039064
 20
738.2921389255
 30
0.0
 11
922.5970039064
 21
730.2921389255
 31
0.0
  0
LINE
  5
F3
330
1F
100
AcDbEntity
  8
0
  6
Continuous
 62
     7
370
    25
100
AcDbLine
 10
921.8790551884
 20
738.2921389255
 30
0.0
 11
922.5970039064
 21
738.2921389255
 31
0.0
  0
LINE
  5
F4
330
1F
100
AcDbEntity
  8
0
  6
Continuous
 62
     7
370
    25
100
AcDbLine
 10
921.8790551884
 20
731.9956645665
 30
0.0
 11
921.8790551884
 21
738.2921389255
 31
0.0
  0
LINE
  5
F5
330
1F
100
AcDbEntity
  8
0
  6
Continuous
 62
     7
370
    25
100
AcDbLine
 10
916.5937987782
 20
738.2921389255
 30
0.0
 11
921.8790551884
 21
731.9956645665
 31
0.0
  0
LINE
  5
F6
330
1F
100
AcDbEntity
  8
0
  6
Continuous
 62
     7
370
    25
100
AcDbLine
 10
916.4431577525
 20
738.2921389255
 30
0.0
 11
916.5937987782
 21
738.2921389255
 31
0.0
  0
LINE
  5
F7
330
1F
100
AcDbEntity
  8
0
  6
Continuous
 62
     7
370
    25
100
AcDbLine
 10
916.4431577525
 20
730.2921389255
 30
0.0
 11
916.4431577525
 21
738.2921389255
 31
0.0
  0
LINE
  5
F8
330
1F
100
AcDbEntity
  8
0
  6
Continuous
 62
     7
370
    25
100
AcDbLine
 10
917.1611064705
 20
730.2921389255
 30
0.0
 11
916.4431577525
 21
730.2921389255
 31
0.0
  0
LINE
  5
F9
330
1F
100
AcDbEntity
  8
0
  6
Continuous
 62
     7
370
    25
100
AcDbLine
 10
917.1611064705
 20
736.5741902075
 30
0.0
 11
917.1611064705
 21
730.2921389255
 31
0.0
  0
LINE
  5
FA
330
1F
100
AcDbEntity
  8
0
  6
Continuous
 62
     7
370
    25
100
AcDbLine
 10
925.3662346756
 20
737.471626105
 30
0.0
 11
925.3662346756
 21
734.9075235409
 31
0.0
  0
LINE
  5
FB
330
1F
100
AcDbEntity
  8
0
  6
Continuous
 62
     7
370
    25
100
AcDbLine
 10
925.3662346756
 20
734.9075235409
 30
0.0
 11
925.8486064705
 21
734.9075235409
 31
0.0
  0
SPLINE
  5
FC
330
1F
100
AcDbEntity
  8
0
  6
Continuous
 62
     7
370
    25
100
AcDbSpline
210
0.0
220
0.0
230
1.0
 70
     8
 71
     3
 72
    23
 73
    19
 74
     0
 42
0.00000001
 43
0.00000001
 40
0.0
 40
0.0
 40
0.0
 40
0.0
 40
0.072301033995505
 40
0.1397003317393865
 40
0.2022885114847732
 40
0.2605995332222013
 40
0.3131903291553325
 40
0.3617389329854284
 40
0.4057064756322233
 40
0.4455399848948723
 40
0.5188319558616096
 40
0.5897782395835771
 40
0.6588674786561479
 40
0.7284304780610658
 40
0.7972827036081005
 40
0.864815377401444
 40
0.9313637528792686
 40
1.0
 40
1.0
 40
1.0
 40
1.0
 10
925.8486064704944
 20
734.907523540872
 30
0.0
 10
925.9191180027605
 20
734.9084376506012
 30
0.0
 10
926.0553606524804
 20
734.9102038968822
 30
0.0
 10
926.2526632731863
 20
734.9152633644525
 30
0.0
 10
926.4358061719203
 20
734.9294303208342
 30
0.0
 10
926.6044732189465
 20
734.9435932055304
 30
0.0
 10
926.7583988051558
 20
734.9666208344763
 30
0.0
 10
926.8972419171608
 20
734.994031401133
 30
0.0
 10
927.0231815673059
 20
735.0230208984964
 30
0.0
 10
927.1684148142464
 20
735.07232258284
 30
0.0
 10
927.3331529821505
 20
735.1451858404033
 30
0.0
 10
927.5087715059321
 20
735.2582643229632
 30
0.0
 10
927.6635931507067
 20
735.3929485588469
 30
0.0
 10
927.7943295797793
 20
735.5483564714298
 30
0.0
 10
927.9013272267018
 20
735.7194791819627
 30
0.0
 10
927.9756442899115
 20
735.903586337242
 30
0.0
 10
928.0260380823289
 20
736.0960894961804
 30
0.0
 10
928.0305901540024
 20
736.2282455025571
 30
0.0
 10
928.0329013422892
 20
736.2953440536926
 30
0.0
  0
SPLINE
  5
FD
330
1F
100
AcDbEntity
  8
0
  6
Continuous
 62
     7
370
    25
100
AcDbSpline
210
0.0
220
0.0
230
1.0
 70
     8
 71
     3
 72
    23
 73
    19
 74
     0
 42
0.00000001
 43
0.00000001
 40
0.0
 40
0.0
 40
0.0
 40
0.0
 40
0.0570031325129265
 40
0.1118178691207246
 40
0.164402372218213
 40
0.2158698048987949
 40
0.2668411100818679
 40
0.3174789632053569
 40
0.3699021362727593
 40
0.4234004494436379
 40
0.4797183982994505
 40
0.5392414966442959
 40
0.6024306889434234
 40
0.6710295461473361
 40
0.7444847975608467
 40
0.8234539713786838
 40
0.908740312730665
 40
1.0
 40
1.0
 40
1.0
 40
1.0
 10
928.0329013422892
 20
736.2953440536926
 30
0.0
 10
928.0316986447262
 20
736.3397458171521
 30
0.0
 10
928.0293394221228
 20
736.4268447248153
 30
0.0
 10
928.0100175875973
 20
736.5538146771727
 30
0.0
 10
927.9771774174587
 20
736.6732289686292
 30
0.0
 10
927.9349961757671
 20
736.7867240779418
 30
0.0
 10
927.8760506015583
 20
736.8907511641596
 30
0.0
 10
927.8066483997252
 20
736.9889070400334
 30
0.0
 10
927.7227953933486
 20
737.0778490251691
 30
0.0
 10
927.6273501072778
 20
737.1609793070328
 30
0.0
 10
927.517616112173
 20
737.2346810848569
 30
0.0
 10
927.3936588737288
 20
737.2992314006823
 30
0.0
 10
927.2538013261477
 20
737.3512103188076
 30
0.0
 10
927.1004005147615
 20
737.3967329530421
 30
0.0
 10
926.9310951719075
 20
737.4287061960553
 30
0.0
 10
926.7478390498308
 20
737.4553425107001
 30
0.0
 10
926.5491311206262
 20
737.4689030638534
 30
0.0
 10
926.4116566005674
 20
737.4706981789955
 30
0.0
 10
926.3405936499815
 20
737.4716261049747
 30
0.0
  0
LINE
  5
FE
330
1F
100
AcDbEntity
  8
0
  6
Continuous
 62
     7
370
    25
100
AcDbLine
 10
926.34059365
 20
737.471626105
 30
0.0
 11
925.3662346756
 21
737.471626105
 31
0.0
  0
SPLINE
  5
FF
330
1F
100
AcDbEntity
  8
0
  6
Continuous
 62
     7
370
    25
100
AcDbSpline
210
0.0
220
0.0
230
1.0
 70
     8
 71
     3
 72
    15
 73
    11
 74
     0
 42
0.00000001
 43
0.00000001
 40
0.0
 40
0.0
 40
0.0
 40
0.0
 40
0.1105883385953369
 40
0.224541754053591
 40
0.3425034940501052
 40
0.464324098417359
 40
0.5907560327017657
 40
0.7222274753555105
 40
0.8588428362087219
 40
1.0
 40
1.0
 40
1.0
 40
1.0
 10
913.9864269833149
 20
732.2809209767696
 30
0.0
 10
914.0105453097007
 20
732.3523032384069
 30
0.0
 10
914.0595158556033
 20
732.4972398423919
 30
0.0
 10
914.1226284825079
 20
732.7220710471473
 30
0.0
 10
914.1723322521163
 20
732.9579630790055
 30
0.0
 10
914.2170485166865
 20
733.2035062029333
 30
0.0
 10
914.2475697873091
 20
733.4605112338156
 30
0.0
 10
914.2721362176707
 20
733.72818296848
 30
0.0
 10
914.2866063592462
 20
734.0067232250184
 30
0.0
 10
914.2884000759807
 20
734.1959689191789
 30
0.0
 10
914.2893115986994
 20
734.2921389254875
 30
0.0
  0
SPLINE
  5
100
330
1F
100
AcDbEntity
  8
0
  6
Continuous
 62
     7
370
    25
100
AcDbSpline
210
0.0
220
0.0
230
1.0
 70
     8
 71
     3
 72
    19
 73
    15
 74
     0
 42
0.00000001
 43
0.00000001
 40
0.0
 40
0.0
 40
0.0
 40
0.0
 40
0.1128134007444587
 40
0.2253938839207276
 40
0.3395948145626994
 40
0.4596754102248647
 40
0.5217351900879328
 40
0.5839258387389143
 40
0.6481741447653692
 40
0.7138810381130626
 40
0.7810044549073875
 40
0.8514509275565524
 40
0.9240506926641749
 40
1.0
 40
1.0
 40
1.0
 40
1.0
 10
912.2700808294687
 20
730.907523540872
 30
0.0
 10
912.3586697932532
 20
730.9111756112985
 30
0.0
 10
912.5356648176754
 20
730.918472211989
 30
0.0
 10
912.7942563494339
 20
730.9888693259871
 30
0.0
 10
913.0452969667648
 20
731.0950854161898
 30
0.0
 10
913.2420328302594
 20
731.2206797142909
 30
0.0
 10
913.3917072154055
 20
731.3402873244653
 30
0.0
 10
913.4989460499334
 20
731.4422636634663
 30
0.0
 10
913.5973735892094
 20
731.5564485030238
 30
0.0
 10
913.6907269031627
 20
731.6796468936865
 30
0.0
 10
913.7763476475625
 20
731.8142125717981
 30
0.0
 10
913.8542062480087
 20
731.9594984581203
 30
0.0
 10
913.9252538995405
 20
732.1159080076338
 30
0.0
 10
913.9657317188553
 20
732.2250959827558
 30
0.0
 10
913.9864269833149
 20
732.2809209767696
 30
0.0
  0
SPLINE
  5
101
330
1F
100
AcDbEntity
  8
0
  6
Continuous
 62
     7
370
    25
100
AcDbSpline
210
0.0
220
0.0
230
1.0
 70
     8
 71
     3
 72
    27
 73
    23
 74
     0
 42
0.00000001
 43
0.00000001
 40
0.0
 40
0.0
 40
0.0
 40
0.0
 40
0.0729510658758663
 40
0.1415836941865472
 40
0.2059264601708678
 40
0.2653013571846064
 40
0.3205972327139291
 40
0.3718165030988105
 40
0.4187897697094521
 40
0.4616987286157648
 40
0.5021335821035656
 40
0.5408043152926488
 40
0.5781805253279676
 40
0.6142968652075143
 40
0.649678243264788
 40
0.6842994600896385
 40
0.7183589527723611
 40
0.7520808646475976
 40
0.8176524386023869
 40
0.8797220764054375
 40
0.9399655597309876
 40
1.0
 40
1.0
 40
1.0
 40
1.0
 10
910.2893115986994
 20
734.2921389254875
 30
0.0
 10
910.2895846205681
 20
734.1852847567931
 30
0.0
 10
910.2901145024044
 20
733.9779017972521
 30
0.0
 10
910.3039572465809
 20
733.6765457721641
 30
0.0
 10
910.3228149197225
 20
733.3954707348678
 30
0.0
 10
910.3471378847172
 20
733.1343197943761
 30
0.0
 10
910.3832589099195
 20
732.8939769086394
 30
0.0
 10
910.4237315677885
 20
732.6727890616334
 30
0.0
 10
910.4729843440609
 20
732.4719268053732
 30
0.0
 10
910.5312586706142
 20
732.2900118094772
 30
0.0
 10
910.5976337492278
 20
732.1239567957736
 30
0.0
 10
910.6701042947593
 20
731.9694397326253
 30
0.0
 10
910.7479573756849
 20
731.8246353064864
 30
0.0
 10
910.8350868626632
 20
731.6908442016312
 30
0.0
 10
910.9299784357579
 20
731.5676301123218
 30
0.0
 10
911.030488742358
 20
731.4528122098709
 30
0.0
 10
911.1403689349113
 20
731.3504191096753
 30
0.0
 10
911.292377489296
 20
731.2276148696078
 30
0.0
 10
911.4930551451291
 20
731.1007139925116
 30
0.0
 10
911.7459018999431
 20
730.9902086443251
 30
0.0
 10
912.0057155021866
 20
730.9207630296227
 30
0.0
 10
912.182061216671
 20
730.9119315874395
 30
0.0
 10
912.2700808294687
 20
730.907523540872
 30
0.0
  0
SPLINE
  5
102
330
1F
100
AcDbEntity
  8
0
  6
Continuous
 62
     7
370
    25
100
AcDbSpline
210
0.0
220
0.0
230
1.0
 70
     8
 71
     3
 72
    27
 73
    23
 74
     0
 42
0.00000001
 43
0.00000001
 40
0.0
 40
0.0
 40
0.0
 40
0.0
 40
0.0603866193110626
 40
0.1208832485859964
 40
0.1827546186251395
 40
0.2478110297583506
 40
0.2812991000432497
 40
0.3150876241506568
 40
0.3497023955502758
 40
0.3848565811185569
 40
0.4209661972261021
 40
0.4585111882611392
 40
0.4971747221273131
 40
0.5376020478662706
 40
0.5805030184200131
 40
0.6274675400267059
 40
0.6783882095592452
 40
0.733983220592561
 40
0.7937467045508348
 40
0.8577136721607319
 40
0.9266978643613873
 40
1.0
 40
1.0
 40
1.0
 40
1.0
 10
912.2700808294687
 20
737.6767543101029
 30
0.0
 10
912.1815994761274
 20
737.6721110034805
 30
0.0
 10
912.0044755776014
 20
737.6628159312429
 30
0.0
 10
911.7428802525117
 20
737.597231351605
 30
0.0
 10
911.4921274487579
 20
737.4829160008904
 30
0.0
 10
911.2927149352063
 20
737.3573105781136
 30
0.0
 10
911.1398834231888
 20
737.2376801519612
 30
0.0
 10
911.0322658383277
 20
737.1339396855419
 30
0.0
 10
910.9313603018301
 20
737.0204625327073
 30
0.0
 10
910.8384055586583
 20
736.8961152987636
 30
0.0
 10
910.7513443399332
 20
736.7624801734627
 30
0.0
 10
910.6713877397602
 20
736.6185058540907
 30
0.0
 10
910.599348129072
 20
736.4634627358612
 30
0.0
 10
910.5328691892317
 20
736.2974823120462
 30
0.0
 10
910.4744171023145
 20
736.1155830104793
 30
0.0
 10
910.4262023292174
 20
735.9149681679799
 30
0.0
 10
910.3816604935149
 20
735.6944838438903
 30
0.0
 10
910.3501284503136
 20
735.4528392543012
 30
0.0
 10
910.3220970085724
 20
735.1916229037431
 30
0.0
 10
910.3040824989673
 20
734.9098461763618
 30
0.0
 10
910.2900681961805
 20
734.6079847354421
 30
0.0
 10
910.2895688490656
 20
734.3995295160074
 30
0.0
 10
910.2893115986994
 20
734.2921389254875
 30
0.0
  0
SPLINE
  5
103
330
1F
100
AcDbEntity
  8
0
  6
Continuous
 62
     7
370
    25
100
AcDbSpline
210
0.0
220
0.0
230
1.0
 70
     8
 71
     3
 72
    27
 73
    23
 74
     0
 42
0.00000001
 43
0.00000001
 40
0.0
 40
0.0
 40
0.0
 40
0.0
 40
0.0656811979906367
 40
0.1284864641740656
 40
0.1881751303280078
 40
0.2451061306699843
 40
0.2994484245294762
 40
0.3508229360093825
 40
0.3999416805337758
 40
0.4466717436323698
 40
0.4912545333734973
 40
0.5333763442704369
 40
0.5738527549682232
 40
0.6125263117194522
 40
0.6495971364453285
 40
0.6855320415538501
 40
0.7201057860682001
 40
0.7538376629736501
 40
0.8189254160467135
 40
0.8804934616501632
 40
0.940311333846057
 40
1.0
 40
1.0
 40
1.0
 40
1.0
 10
914.2893115986994
 20
734.2921389254875
 30
0.0
 10
914.2880540233099
 20
734.3882933769573
 30
0.0
 10
914.2855939370115
 20
734.576392039313
 30
0.0
 10
914.2761905365518
 20
734.8518621665406
 30
0.0
 10
914.2519080805702
 20
735.1135027629044
 30
0.0
 10
914.2249386660226
 20
735.3624409861371
 30
0.0
 10
914.1851735892407
 20
735.5972988208903
 30
0.0
 10
914.1422986020857
 20
735.8200423757618
 30
0.0
 10
914.0846958311366
 20
736.0279121467775
 30
0.0
 10
914.0231649169103
 20
736.2241626192612
 30
0.0
 10
913.9527411556957
 20
736.406564115263
 30
0.0
 10
913.8752194773926
 20
736.5759670555188
 30
0.0
 10
913.7924268859207
 20
736.7331892835344
 30
0.0
 10
913.7025017648709
 20
736.8777994357093
 30
0.0
 10
913.6065116321503
 20
737.0104452480775
 30
0.0
 10
913.5019229482701
 20
737.1284671784938
 30
0.0
 10
913.3928843818453
 20
737.235523105599
 30
0.0
 10
913.2401593856771
 20
737.3577232635913
 30
0.0
 10
913.0402181518475
 20
737.4823214246956
 30
0.0
 10
912.7914281007791
 20
737.5969860186622
 30
0.0
 10
912.5325237710622
 20
737.6628335446528
 30
0.0
 10
912.3574987331375
 20
737.6721174007399
 30
0.0
 10
912.2700808294687
 20
737.6767543101029
 30
0.0
  0
SPLINE
  5
104
330
1F
100
AcDbEntity
  8
0
  6
Continuous
 62
     7
370
    25
100
AcDbSpline
210
0.0
220
0.0
230
1.0
 70
     8
 71
     3
 72
    27
 73
    23
 74
     0
 42
0.00000001
 43
0.00000001
 40
0.0
 40
0.0
 40
0.0
 40
0.0
 40
0.0729510658758663
 40
0.1415836941865471
 40
0.2059264601708678
 40
0.2653013571846064
 40
0.3205972327139289
 40
0.3718165030988104
 40
0.418789769709452
 40
0.4616987286157648
 40
0.5021335821035656
 40
0.5408043152926488
 40
0.5781805253279672
 40
0.6142968652075143
 40
0.649678243264788
 40
0.6842994600896384
 40
0.718358952772361
 40
0.7520808646475975
 40
0.817652438602386
 40
0.8797220764054368
 40
0.9399655597309876
 40
1.0
 40
1.0
 40
1.0
 40
1.0
 10
953.8790551884431
 20
734.2921389254875
 30
0.0
 10
953.8793282103117
 20
734.1852847567931
 30
0.0
 10
953.8798580921481
 20
733.9779017972521
 30
0.0
 10
953.8937008363246
 20
733.6765457721642
 30
0.0
 10
953.9125585094662
 20
733.3954707348679
 30
0.0
 10
953.9368814744607
 20
733.1343197943761
 30
0.0
 10
953.9730024996632
 20
732.8939769086394
 30
0.0
 10
954.0134751575321
 20
732.6727890616334
 30
0.0
 10
954.0627279338047
 20
732.4719268053732
 30
0.0
 10
954.1210022603578
 20
732.2900118094772
 30
0.0
 10
954.1873773389714
 20
732.1239567957736
 30
0.0
 10
954.2598478845031
 20
731.9694397326253
 30
0.0
 10
954.3377009654284
 20
731.8246353064864
 30
0.0
 10
954.4248304524068
 20
731.6908442016312
 30
0.0
 10
954.5197220255017
 20
731.5676301123218
 30
0.0
 10
954.6202323321016
 20
731.4528122098709
 30
0.0
 10
954.730112524655
 20
731.3504191096753
 30
0.0
 10
954.8821210790395
 20
731.2276148696078
 30
0.0
 10
955.0827987348727
 20
731.1007139925116
 30
0.0
 10
955.3356454896866
 20
730.9902086443251
 30
0.0
 10
955.5954590919301
 20
730.9207630296227
 30
0.0
 10
955.7718048064146
 20
730.9119315874395
 30
0.0
 10
955.8598244192123
 20
730.907523540872
 30
0.0
  0
SPLINE
  5
105
330
1F
100
AcDbEntity
  8
0
  6
Continuous
 62
     7
370
    25
100
AcDbSpline
210
0.0
220
0.0
230
1.0
 70
     8
 71
     3
 72
    19
 73
    15
 74
     0
 42
0.00000001
 43
0.00000001
 40
0.0
 40
0.0
 40
0.0
 40
0.0
 40
0.1128134007444587
 40
0.2253938839207277
 40
0.3395948145626995
 40
0.4596754102248637
 40
0.5217351900879329
 40
0.5839258387389145
 40
0.6481741447653694
 40
0.7138810381130627
 40
0.7810044549073876
 40
0.8514509275565517
 40
0.9240506926641749
 40
1.0
 40
1.0
 40
1.0
 40
1.0
 10
955.8598244192123
 20
730.907523540872
 30
0.0
 10
955.9484133829968
 20
730.9111756112985
 30
0.0
 10
956.125408407419
 20
730.918472211989
 30
0.0
 10
956.3839999391776
 20
730.9888693259871
 30
0.0
 10
956.6350405565084
 20
731.0950854161898
 30
0.0
 10
956.8317764200029
 20
731.2206797142909
 30
0.0
 10
956.9814508051492
 20
731.3402873244653
 30
0.0
 10
957.088689639677
 20
731.4422636634663
 30
0.0
 10
957.187117178953
 20
731.5564485030238
 30
0.0
 10
957.2804704929064
 20
731.6796468936865
 30
0.0
 10
957.3660912373061
 20
731.814212571798
 30
0.0
 10
957.4439498377523
 20
731.9594984581203
 30
0.0
 10
957.514997489284
 20
732.1159080076338
 30
0.0
 10
957.555475308599
 20
732.2250959827558
 30
0.0
 10
957.5761705730584
 20
732.2809209767696
 30
0.0
  0
SPLINE
  5
106
330
1F
100
AcDbEntity
  8
0
  6
Continuous
 62
     7
370
    25
100
AcDbSpline
210
0.0
220
0.0
230
1.0
 70
     8
 71
     3
 72
    15
 73
    11
 74
     0
 42
0.00000001
 43
0.00000001
 40
0.0
 40
0.0
 40
0.0
 40
0.0
 40
0.1105883385953364
 40
0.2245417540535905
 40
0.3425034940501052
 40
0.4643240984173589
 40
0.5907560327017657
 40
0.7222274753555104
 40
0.8588428362087218
 40
1.0
 40
1.0
 40
1.0
 40
1.0
 10
957.5761705730584
 20
732.2809209767696
 30
0.0
 10
957.6002888994442
 20
732.3523032384069
 30
0.0
 10
957.649259445347
 20
732.4972398423919
 30
0.0
 10
957.7123720722515
 20
732.7220710471473
 30
0.0
 10
957.7620758418599
 20
732.9579630790055
 30
0.0
 10
957.8067921064301
 20
733.2035062029333
 30
0.0
 10
957.8373133770526
 20
733.4605112338156
 30
0.0
 10
957.8618798074143
 20
733.7281829684802
 30
0.0
 10
957.8763499489897
 20
734.0067232250184
 30
0.0
 10
957.8781436657242
 20
734.1959689191789
 30
0.0
 10
957.8790551884431
 20
734.2921389254875
 30
0.0
  0
SPLINE
  5
107
330
1F
100
AcDbEntity
  8
0
  6
Continuous
 62
     7
370
    25
100
AcDbSpline
210
0.0
220
0.0
230
1.0
 70
     8
 71
     3
 72
    27
 73
    23
 74
     0
 42
0.00000001
 43
0.00000001
 40
0.0
 40
0.0
 40
0.0
 40
0.0
 40
0.0656811979906367
 40
0.1284864641740656
 40
0.1881751303280079
 40
0.2451061306699845
 40
0.2994484245294763
 40
0.3508229360093826
 40
0.3999416805337759
 40
0.44667174363237
 40
0.4912545333734981
 40
0.533376344270437
 40
0.5738527549682236
 40
0.6125263117194532
 40
0.6495971364453285
 40
0.6855320415538505
 40
0.7201057860682001
 40
0.7538376629736501
 40
0.8189254160467135
 40
0.880493461650164
 40
0.9403113338460578
 40
1.0
 40
1.0
 40
1.0
 40
1.0
 10
957.8790551884431
 20
734.2921389254875
 30
0.0
 10
957.8777976130534
 20
734.3882933769573
 30
0.0
 10
957.8753375267552
 20
734.576392039313
 30
0.0
 10
957.8659341262954
 20
734.8518621665406
 30
0.0
 10
957.8416516703137
 20
735.1135027629044
 30
0.0
 10
957.8146822557662
 20
735.3624409861371
 30
0.0
 10
957.7749171789843
 20
735.5972988208902
 30
0.0
 10
957.7320421918294
 20
735.8200423757618
 30
0.0
 10
957.6744394208803
 20
736.0279121467775
 30
0.0
 10
957.6129085066541
 20
736.2241626192612
 30
0.0
 10
957.5424847454393
 20
736.406564115263
 30
0.0
 10
957.4649630671364
 20
736.5759670555188
 30
0.0
 10
957.3821704756642
 20
736.7331892835343
 30
0.0
 10
957.2922453546145
 20
736.8777994357093
 30
0.0
 10
957.1962552218939
 20
737.0104452480776
 30
0.0
 10
957.0916665380137
 20
737.1284671784938
 30
0.0
 10
956.982627971589
 20
737.235523105599
 30
0.0
 10
956.8299029754206
 20
737.3577232635913
 30
0.0
 10
956.629961741591
 20
737.4823214246956
 30
0.0
 10
956.3811716905227
 20
737.596986018662
 30
0.0
 10
956.1222673608057
 20
737.6628335446528
 30
0.0
 10
955.9472423228812
 20
737.6721174007399
 30
0.0
 10
955.8598244192123
 20
737.6767543101029
 30
0.0
  0
SPLINE
  5
108
330
1F
100
AcDbEntity
  8
0
  6
Continuous
 62
     7
370
    25
100
AcDbSpline
210
0.0
220
0.0
230
1.0
 70
     8
 71
     3
 72
    27
 73
    23
 74
     0
 42
0.00000001
 43
0.00000001
 40
0.0
 40
0.0
 40
0.0
 40
0.0
 40
0.0603866193110626
 40
0.1208832485859964
 40
0.1827546186251394
 40
0.2478110297583505
 40
0.2812991000432497
 40
0.3150876241506567
 40
0.3497023955502763
 40
0.3848565811185573
 40
0.4209661972261021
 40
0.4585111882611391
 40
0.4971747221273131
 40
0.5376020478662709
 40
0.5805030184200134
 40
0.6274675400267059
 40
0.6783882095592453
 40
0.733983220592561
 40
0.7937467045508348
 40
0.8577136721607319
 40
0.9266978643613872
 40
1.0
 40
1.0
 40
1.0
 40
1.0
 10
955.8598244192123
 20
737.6767543101029
 30
0.0
 10
955.771343065871
 20
737.6721110034806
 30
0.0
 10
955.5942191673452
 20
737.6628159312429
 30
0.0
 10
955.3326238422553
 20
737.597231351605
 30
0.0
 10
955.0818710385015
 20
737.4829160008904
 30
0.0
 10
954.8824585249498
 20
737.3573105781135
 30
0.0
 10
954.7296270129325
 20
737.2376801519612
 30
0.0
 10
954.6220094280714
 20
737.1339396855419
 30
0.0
 10
954.5211038915737
 20
737.0204625327073
 30
0.0
 10
954.4281491484019
 20
736.8961152987636
 30
0.0
 10
954.3410879296767
 20
736.7624801734627
 30
0.0
 10
954.2611313295038
 20
736.6185058540907
 30
0.0
 10
954.1890917188156
 20
736.4634627358612
 30
0.0
 10
954.1226127789753
 20
736.2974823120462
 30
0.0
 10
954.0641606920582
 20
736.1155830104793
 30
0.0
 10
954.015945918961
 20
735.9149681679799
 30
0.0
 10
953.9714040832584
 20
735.6944838438903
 30
0.0
 10
953.9398720400571
 20
735.4528392543014
 30
0.0
 10
953.9118405983161
 20
735.1916229037431
 30
0.0
 10
953.893826088711
 20
734.9098461763618
 30
0.0
 10
953.8798117859242
 20
734.6079847354421
 30
0.0
 10
953.8793124388093
 20
734.3995295160074
 30
0.0
 10
953.8790551884431
 20
734.2921389254875
 30
0.0
  0
LINE
  5
109
330
1F
100
AcDbEntity
  8
0
  6
Continuous
 62
     7
370
    25
100
AcDbLine
 10
925.3662346756
 20
734.0870107204
 30
0.0
 11
925.3662346756
 21
731.112651746
 31
0.0
  0
LINE
  5
10A
330
1F
100
AcDbEntity
  8
0
  6
Continuous
 62
     7
370
    25
100
AcDbLine
 10
925.3662346756
 20
731.112651746
 30
0.0
 11
926.3886705731
 21
731.112651746
 31
0.0
  0
SPLINE
  5
10B
330
1F
100
AcDbEntity
  8
0
  6
Continuous
 62
     7
370
    25
100
AcDbSpline
210
0.0
220
0.0
230
1.0
 70
     8
 71
     3
 72
    23
 73
    19
 74
     0
 42
0.00000001
 43
0.00000001
 40
0.0
 40
0.0
 40
0.0
 40
0.0
 40
0.0725024889330335
 40
0.1397389892678939
 40
0.2017951348259223
 40
0.2598219344148623
 40
0.3122059893845968
 40
0.3607734341243385
 40
0.4045403426007482
 40
0.4436980985527629
 40
0.5168407942439696
 40
0.5878743359442823
 40
0.6579654175616315
 40
0.7289693886473124
 40
0.799307719954883
 40
0.8666357778344734
 40
0.9331163290572758
 40
1.0
 40
1.0
 40
1.0
 40
1.0
 10
926.3886705730584
 20
731.1126517460002
 30
0.0
 10
926.461856689431
 20
731.1135288829072
 30
0.0
 10
926.6029132804647
 20
731.1152194486605
 30
0.0
 10
926.8065732350268
 20
731.1207384305137
 30
0.0
 10
926.9953346151436
 20
731.1332922035401
 30
0.0
 10
927.1683360682395
 20
731.1530541456287
 30
0.0
 10
927.3274456742525
 20
731.1744906008794
 30
0.0
 10
927.4707547097471
 20
731.2033163858431
 30
0.0
 10
927.5994248662305
 20
731.2363425813298
 30
0.0
 10
927.7486232839204
 20
731.2873921178671
 30
0.0
 10
927.9166313028483
 20
731.3666983371065
 30
0.0
 10
928.0976846888725
 20
731.4862737117768
 30
0.0
 10
928.2586589017732
 20
731.6287269866862
 30
0.0
 10
928.3953566371026
 20
731.7935976476543
 30
0.0
 10
928.5073863252077
 20
731.972869252062
 30
0.0
 10
928.5888845082558
 20
732.1629157662395
 30
0.0
 10
928.6391493236138
 20
732.3605969717672
 30
0.0
 10
928.6452342819907
 20
732.4953780290083
 30
0.0
 10
928.6482859576738
 20
732.5629722588209
 30
0.0
  0
SPLINE
  5
10C
330
1F
100
AcDbEntity
  8
0
  6
Continuous
 62
     7
370
    25
100
AcDbSpline
210
0.0
220
0.0
230
1.0
 70
     8
 71
     3
 72
    15
 73
    11
 74
     0
 42
0.00000001
 43
0.00000001
 40
0.0
 40
0.0
 40
0.0
 40
0.0
 40
0.0793064855229995
 40
0.1719528189279318
 40
0.2770565073915908
 40
0.394730575864477
 40
0.5261773212767582
 40
0.6713447665976136
 40
0.8292852571892513
 40
1.0
 40
1.0
 40
1.0
 40
1.0
 10
927.3389910858789
 20
733.9924594383081
 30
0.0
 10
927.3000674382166
 20
734.0003567730633
 30
0.0
 10
927.2156729414189
 20
734.0174798237725
 30
0.0
 10
927.0780556147246
 20
734.0355545743769
 30
0.0
 10
926.9209450572337
 20
734.051657568416
 30
0.0
 10
926.7439784807169
 20
734.0635687859331
 30
0.0
 10
926.5469319867427
 20
734.0758808854715
 30
0.0
 10
926.3293847440328
 20
734.0806690480366
 30
0.0
 10
926.0922251676689
 20
734.0863816425358
 30
0.0
 10
925.9276711736125
 20
734.0867956636599
 30
0.0
 10
925.8421962140841
 20
734.0870107203593
 30
0.0
  0
LINE
  5
10D
330
1F
100
AcDbEntity
  8
0
  6
Continuous
 62
     7
370
    25
100
AcDbLine
 10
925.8421962141
 20
734.0870107204
 30
0.0
 11
925.3662346756
 21
734.0870107204
 31
0.0
  0
SPLINE
  5
10E
330
1F
100
AcDbEntity
  8
0
  6
Continuous
 62
     7
370
    25
100
AcDbSpline
210
0.0
220
0.0
230
1.0
 70
     8
 71
     3
 72
    19
 73
    15
 74
     0
 42
0.00000001
 43
0.00000001
 40
0.0
 40
0.0
 40
0.0
 40
0.0
 40
0.0602873979279692
 40
0.1196023547075218
 40
0.1775033710185431
 40
0.2351426637323316
 40
0.2921325932269365
 40
0.3508712086415661
 40
0.4100978625665964
 40
0.4707315215304502
 40
0.5948287040804169
 40
0.722578824094291
 40
0.8566913895440182
 40
1.0
 40
1.0
 40
1.0
 40
1.0
 10
928.6482859576738
 20
732.5629722588209
 30
0.0
 10
928.6476548620454
 20
732.6052427514267
 30
0.0
 10
928.6464028504179
 20
732.6891019097926
 30
0.0
 10
928.6275214448782
 20
732.8123380679365
 30
0.0
 10
928.6000611710639
 20
732.9317114926432
 30
0.0
 10
928.5645607507608
 20
733.047546328037
 30
0.0
 10
928.5128591116955
 20
733.1577483311178
 30
0.0
 10
928.4525012945136
 20
733.2644970386302
 30
0.0
 10
928.3817323764687
 20
733.3679335630277
 30
0.0
 10
928.2714599973427
 20
733.4987044280547
 30
0.0
 10
928.1110668898684
 20
733.6493718861196
 30
0.0
 10
927.8831656888561
 20
733.7968861770148
 30
0.0
 10
927.6240290077835
 20
733.9158525932148
 30
0.0
 10
927.4360804525925
 20
733.9663656819883
 30
0.0
 10
927.3389910858789
 20
733.9924594383081
 30
0.0
  0
CIRCLE
  5
10F
330
1F
100
AcDbEntity
  8
0
  6
Continuous
 62
     7
370
    25
100
AcDbCircle
 10
940.9495597088
 20
816.2689151959
 30
0.0
 40
42.5
  0
CIRCLE
  5
110
330
1F
100
AcDbEntity
  8
0
  6
Continuous
 62
     7
370
    25
100
AcDbCircle
 10
940.9495597088
 20
816.2689151959
 30
0.0
 40
30.25
  0
ENDSEC
  0
SECTION
  2
OBJECTS
  0
DICTIONARY
  5
C
330
0
100
AcDbDictionary
281
     1
  3
ACAD_DETAILVIEWSTYLE
350
118
  3
ACAD_GROUP
350
D
  3
ACAD_LAYOUT
350
1A
  3
ACAD_MATERIAL
350
43
  3
ACAD_MLEADERSTYLE
350
5B
  3
ACAD_MLINESTYLE
350
17
  3
ACAD_PLOTSETTINGS
350
19
  3
ACAD_PLOTSTYLENAME
350
E
  3
ACAD_SCALELIST
350
47
  3
ACAD_SECTIONVIEWSTYLE
350
119
  3
ACAD_TABLESTYLE
350
59
  3
ACAD_VISUALSTYLE
350
2A
  3
ACDB_RECOMPOSE_DATA
350
115
  3
AcDbVariableDictionary
350
111
  0
SUN
  5
5D
330
29
100
AcDbSun
 90
        1
290
     0
 63
     7
421
 16777215
 40
1.0
291
     1
 91
  2455826
 92
 54000000
292
     0
 70
     2
 71
   256
280
     1
  0
DICTIONARY
  5
118
102
{ACAD_REACTORS
330
C
102
}
330
C
100
AcDbDictionary
281
     1
  0
DICTIONARY
  5
D
102
{ACAD_REACTORS
330
C
102
}
330
C
100
AcDbDictionary
281
     1
  0
DICTIONARY
  5
1A
102
{ACAD_REACTORS
330
C
102
}
330
C
100
AcDbDictionary
281
     1
  3
Layout1
350
1E
  3
Layout2
350
26
  3
Model
350
22
  0
DICTIONARY
  5
43
102
{ACAD_REACTORS
330
C
102
}
330
C
100
AcDbDictionary
281
     1
  3
ByBlock
350
45
  3
ByLayer
350
44
  3
Global
350
46
  0
DICTIONARY
  5
5B
102
{ACAD_REACTORS
330
C
102
}
330
C
100
AcDbDictionary
281
     1
  3
Standard
350
5C
  0
DICTIONARY
  5
17
102
{ACAD_REACTORS
330
C
102
}
330
C
100
AcDbDictionary
281
     1
  3
Standard
350
18
  0
DICTIONARY
  5
19
102
{ACAD_REACTORS
330
C
102
}
330
C
100
AcDbDictionary
281
     1
  0
ACDBDICTIONARYWDFLT
  5
E
102
{ACAD_REACTORS
330
C
102
}
330
C
100
AcDbDictionary
281
     1
  3
Normal
350
F
100
AcDbDictionaryWithDefault
340
F
  0
DICTIONARY
  5
47
102
{ACAD_REACTORS
330
C
102
}
330
C
100
AcDbDictionary
281
     1
  3
A0
350
48
  3
A1
350
49
  3
A2
350
4A
  3
A3
350
4B
  3
A4
350
4C
  3
A5
350
4D
  3
A6
350
4E
  3
A7
350
4F
  3
A8
350
50
  3
A9
350
51
  3
B0
350
52
  3
B1
350
53
  3
B2
350
54
  3
B3
350
55
  3
B4
350
56
  3
B5
350
57
  3
B6
350
58
  0
DICTIONARY
  5
119
102
{ACAD_REACTORS
330
C
102
}
330
C
100
AcDbDictionary
281
     1
  0
DICTIONARY
  5
59
102
{ACAD_REACTORS
330
C
102
}
330
C
100
AcDbDictionary
281
     1
  3
Standard
350
5A
  0
DICTIONARY
  5
2A
102
{ACAD_REACTORS
330
C
102
}
330
C
100
AcDbDictionary
281
     1
  3
2dWireframe
350
2F
  3
Basic
350
32
  3
Brighten
350
36
  3
ColorChange
350
3A
  3
Conceptual
350
34
  3
Dim
350
35
  3
EdgeColorOff
350
3D
  3
Facepattern
350
39
  3
Flat
350
2B
  3
FlatWithEdges
350
2C
  3
Gouraud
350
2D
  3
GouraudWithEdges
350
2E
  3
Hidden
350
31
  3
JitterOff
350
3B
  3
Linepattern
350
38
  3
OverhangOff
350
3C
  3
Realistic
350
33
  3
Shaded
350
42
  3
Shaded with edges
350
41
  3
Shades of Gray
350
3E
  3
Sketchy
350
3F
  3
Thicken
350
37
  3
Wireframe
350
30
  3
X-Ray
350
40
  0
XRECORD
  5
115
102
{ACAD_REACTORS
330
C
102
}
330
C
100
AcDbXrecord
280
     1
 90
        1
330
5A
  0
DICTIONARY
  5
111
102
{ACAD_REACTORS
330
C
102
}
330
C
100
AcDbDictionary
281
     1
  3
CANNOSCALE
350
112
  3
CENTEREXE
350
11A
  3
CENTERLTYPEFILE
350
11B
  3
CMLEADERSTYLE
350
117
  3
CTABLESTYLE
350
116
  0
LAYOUT
  5
1E
102
{ACAD_REACTORS
330
1A
102
}
330
1A
100
AcDbPlotSettings
  1

  2
none_device
  4

  6

 40
0.0
 41
0.0
 42
0.0
 43
0.0
 44
0.0
 45
0.0
 46
0.0
 47
0.0
 48
0.0
 49
0.0
140
0.0
141
0.0
142
1.0
143
1.0
 70
   688
 72
     1
 73
     0
 74
     5
  7

 75
    16
 76
     0
 77
     2
 78
   300
147
1.0
148
0.0
149
0.0
100
AcDbLayout
  1
Layout1
 70
     1
 71
     1
 10
0.0
 20
0.0
 11
420.0
 21
297.0
 12
0.0
 22
0.0
 32
0.0
 14
1.0000000000E+20
 24
1.0000000000E+20
 34
1.0000000000E+20
 15
-1.0000000000E+20
 25
-1.0000000000E+20
 35
-1.0000000000E+20
146
0.0
 13
0.0
 23
0.0
 33
0.0
 16
1.0
 26
0.0
 36
0.0
 17
0.0
 27
1.0
 37
0.0
 76
     0
330
1B
  0
LAYOUT
  5
26
102
{ACAD_REACTORS
330
1A
102
}
330
1A
100
AcDbPlotSettings
  1

  2
none_device
  4

  6

 40
0.0
 41
0.0
 42
0.0
 43
0.0
 44
0.0
 45
0.0
 46
0.0
 47
0.0
 48
0.0
 49
0.0
140
0.0
141
0.0
142
1.0
143
1.0
 70
   688
 72
     1
 73
     0
 74
     5
  7

 75
    16
 76
     0
 77
     2
 78
   300
147
1.0
148
0.0
149
0.0
100
AcDbLayout
  1
Layout2
 70
     1
 71
     2
 10
0.0
 20
0.0
 11
0.0
 21
0.0
 12
0.0
 22
0.0
 32
0.0
 14
0.0
 24
0.0
 34
0.0
 15
0.0
 25
0.0
 35
0.0
146
0.0
 13
0.0
 23
0.0
 33
0.0
 16
1.0
 26
0.0
 36
0.0
 17
0.0
 27
1.0
 37
0.0
 76
     0
330
23
  0
LAYOUT
  5
22
102
{ACAD_REACTORS
330
1A
102
}
330
1A
100
AcDbPlotSettings
  1

  2
none_device
  4
Letter_(8.50_x_11.00_Inches)
  6

 40
6.35
 41
6.35
 42
6.35000508
 43
6.35000508
 44
215.9
 45
279.4
 46
0.0
 47
0.0
 48
0.0
 49
0.0
140
0.0
141
0.0
142
1.0
143
1.0
 70
  1712
 72
     1
 73
     0
 74
     0
  7

 75
     0
 76
     0
 77
     2
 78
   300
147
1.0
148
0.0
149
0.0
100
AcDbLayout
  1
Model
 70
     1
 71
     0
 10
0.0
 20
0.0
 11
420.0
 21
297.0
 12
0.0
 22
0.0
 32
0.0
 14
0.0
 24
0.0
 34
0.0
 15
420.0
 25
297.0
 35
0.0
146
0.0
 13
0.0
 23
0.0
 33
0.0
 16
1.0
 26
0.0
 36
0.0
 17
0.0
 27
1.0
 37
0.0
 76
     0
330
1F
331
29
  0
MATERIAL
  5
45
102
{ACAD_REACTORS
330
43
102
}
330
43
100
AcDbMaterial
  1
ByBlock
 72
     1
 94
      127
  0
MATERIAL
  5
44
102
{ACAD_REACTORS
330
43
102
}
330
43
100
AcDbMaterial
  1
ByLayer
 72
     1
 94
      127
  0
MATERIAL
  5
46
102
{ACAD_REACTORS
330
43
102
}
330
43
100
AcDbMaterial
  1
Global
 72
     1
 94
      127
  0
MLEADERSTYLE
  5
5C
102
{ACAD_REACTORS
330
5B
102
}
330
5B
100
AcDbMLeaderStyle
179
     2
170
     2
171
     1
172
     0
 90
        2
 40
0.0
 41
0.0
173
     1
 91
-1056964608
340
14
 92
       -2
290
     1
 42
2.0
291
     1
 43
8.0
  3
Standard
341
0
 44
4.0
300

342
11
174
     1
178
     6
175
     1
176
     0
 93
-1056964608
 45
4.0
292
     0
297
     0
 46
4.0
343
0
 94
-1056964608
 47
1.0
 49
1.0
140
1.0
293
     1
141
0.0
294
     1
177
     0
142
1.0
295
     0
296
     0
143
3.75
271
     0
272
     9
273
     9
298
     0
  0
MLINESTYLE
  5
18
102
{ACAD_REACTORS
330
17
102
}
330
17
100
AcDbMlineStyle
  2
Standard
 70
     0
  3

 62
   256
 51
90.0
 52
90.0
 71
     2
 49
0.5
 62
   256
  6
BYLAYER
 49
-0.5
 62
   256
  6
BYLAYER
  0
ACDBPLACEHOLDER
  5
F
102
{ACAD_REACTORS
330
E
102
}
330
E
  0
SCALE
  5
48
102
{ACAD_REACTORS
330
47
102
}
330
47
100
AcDbScale
 70
     0
300
1:1
140
1.0
141
1.0
290
     1
  0
SCALE
  5
49
102
{ACAD_REACTORS
330
47
102
}
330
47
100
AcDbScale
 70
     0
300
1:2
140
1.0
141
2.0
290
     0
  0
SCALE
  5
4A
102
{ACAD_REACTORS
330
47
102
}
330
47
100
AcDbScale
 70
     0
300
1:4
140
1.0
141
4.0
290
     0
  0
SCALE
  5
4B
102
{ACAD_REACTORS
330
47
102
}
330
47
100
AcDbScale
 70
     0
300
1:5
140
1.0
141
5.0
290
     0
  0
SCALE
  5
4C
102
{ACAD_REACTORS
330
47
102
}
330
47
100
AcDbScale
 70
     0
300
1:8
140
1.0
141
8.0
290
     0
  0
SCALE
  5
4D
102
{ACAD_REACTORS
330
47
102
}
330
47
100
AcDbScale
 70
     0
300
1:10
140
1.0
141
10.0
290
     0
  0
SCALE
  5
4E
102
{ACAD_REACTORS
330
47
102
}
330
47
100
AcDbScale
 70
     0
300
1:16
140
1.0
141
16.0
290
     0
  0
SCALE
  5
4F
102
{ACAD_REACTORS
330
47
102
}
330
47
100
AcDbScale
 70
     0
300
1:20
140
1.0
141
20.0
290
     0
  0
SCALE
  5
50
102
{ACAD_REACTORS
330
47
102
}
330
47
100
AcDbScale
 70
     0
300
1:30
140
1.0
141
30.0
290
     0
  0
SCALE
  5
51
102
{ACAD_REACTORS
330
47
102
}
330
47
100
AcDbScale
 70
     0
300
1:40
140
1.0
141
40.0
290
     0
  0
SCALE
  5
52
102
{ACAD_REACTORS
330
47
102
}
330
47
100
AcDbScale
 70
     0
300
1:50
140
1.0
141
50.0
290
     0
  0
SCALE
  5
53
102
{ACAD_REACTORS
330
47
102
}
330
47
100
AcDbScale
 70
     0
300
1:100
140
1.0
141
100.0
290
     0
  0
SCALE
  5
54
102
{ACAD_REACTORS
330
47
102
}
330
47
100
AcDbScale
 70
     0
300
2:1
140
2.0
141
1.0
290
     0
  0
SCALE
  5
55
102
{ACAD_REACTORS
330
47
102
}
330
47
100
AcDbScale
 70
     0
300
4:1
140
4.0
141
1.0
290
     0
  0
SCALE
  5
56
102
{ACAD_REACTORS
330
47
102
}
330
47
100
AcDbScale
 70
     0
300
8:1
140
8.0
141
1.0
290
     0
  0
SCALE
  5
57
102
{ACAD_REACTORS
330
47
102
}
330
47
100
AcDbScale
 70
     0
300
10:1
140
10.0
141
1.0
290
     0
  0
SCALE
  5
58
102
{ACAD_REACTORS
330
47
102
}
330
47
100
AcDbScale
 70
     0
300
100:1
140
100.0
141
1.0
290
     0
  0
TABLESTYLE
  5
5A
102
{ACAD_REACTORS
330
59
102
}
102
{ACAD_XDICTIONARY
360
113
102
}
330
59
100
AcDbTableStyle
  3
Standard
 70
     0
 71
     0
 40
0.06
 41
0.06
280
     0
281
     0
  7
Standard
140
4.5
170
     2
 62
     0
 63
   257
283
     0
 90
        4
 91
        0
  1

274
    -2
284
     1
 64
     0
275
    -2
285
     1
 65
     0
276
    -2
286
     1
 66
     0
277
    -2
287
     1
 67
     0
278
    -2
288
     1
 68
     0
279
    -2
289
     1
 69
     0
  7
Standard
140
6.0
170
     5
 62
     0
 63
   257
283
     0
 90
        4
 91
        0
  1

274
    -2
284
     1
 64
     0
275
    -2
285
     1
 65
     0
276
    -2
286
     1
 66
     0
277
    -2
287
     1
 67
     0
278
    -2
288
     1
 68
     0
279
    -2
289
     1
 69
     0
  7
Standard
140
4.5
170
     5
 62
     0
 63
   257
283
     0
 90
        4
 91
        0
  1

274
    -2
284
     1
 64
     0
275
    -2
285
     1
 65
     0
276
    -2
286
     1
 66
     0
277
    -2
287
     1
 67
     0
278
    -2
288
     1
 68
     0
279
    -2
289
     1
 69
     0
  0
VISUALSTYLE
  5
2F
102
{ACAD_REACTORS
330
2A
102
}
330
2A
100
AcDbVisualStyle
  2
2dWireframe
 70
     4
177
     3
291
     0
 70
    58
 90
        0
176
     1
 90
        2
176
     1
 90
        0
176
     1
 90
        0
176
     1
 40
0.6
176
     1
 40
30.0
176
     1
 62
     7
420
 16777215
176
     1
 90
        1
176
     1
 90
        4
176
     1
 62
     7
176
     1
 62
   257
176
     1
 90
        1
176
     1
 90
        1
176
     1
 40
1.0
176
     1
 90
        0
176
     1
 62
   257
176
     1
 40
1.0
176
     1
 90
        1
176
     1
 90
        6
176
     1
 90
        2
176
     1
 62
     7
176
     1
 90
        5
176
     1
 90
        0
176
     1
 90
        0
176
     1
290
     0
176
     1
 90
        1
176
     1
 40
0.0
176
     1
 90
        0
176
     1
290
     1
176
     1
290
     1
176
     1
290
     0
176
     1
290
     0
176
     1
290
     0
176
     1
290
     0
176
     1
290
     0
176
     1
290
     0
176
     1
290
     0
176
     1
 90
       50
176
     1
 40
0.0
176
     1
 40
1.0
176
     1
 90
        0
176
     1
 62
    18
420
        0
176
     1
 90
       50
176
     1
 90
        3
176
     1
 62
     5
420
      255
176
     1
290
     0
176
     1
 90
       50
176
     1
 90
       50
176
     1
 90
       50
176
     1
290
     0
176
     1
 90
       50
176
     1
 62
   256
176
     0
 40
1.0
176
     0
 90
        2
176
     1
  1
strokes_ogs.tif
176
     1
290
     0
176
     1
 40
1.0
176
     1
 40
1.0
176
     1
  0
VISUALSTYLE
  5
32
102
{ACAD_REACTORS
330
2A
102
}
330
2A
100
AcDbVisualStyle
  2
Basic
 70
     7
177
     3
291
     1
 70
    58
 90
        1
176
     1
 90
        0
176
     1
 90
        1
176
     1
 90
        0
176
     1
 40
0.6
176
     1
 40
30.0
176
     1
 62
     7
420
 16777215
176
     1
 90
        0
176
     1
 90
        4
176
     1
 62
     7
176
     1
 62
   257
176
     1
 90
        1
176
     1
 90
        1
176
     1
 40
1.0
176
     1
 90
        8
176
     1
 62
     7
176
     1
 40
1.0
176
     1
 90
        1
176
     1
 90
        6
176
     1
 90
        2
176
     1
 62
     7
176
     1
 90
        5
176
     1
 90
        0
176
     1
 90
        0
176
     1
290
     0
176
     1
 90
        1
176
     1
 40
0.0
176
     1
 90
        0
176
     1
290
     0
176
     1
290
     1
176
     1
290
     1
176
     1
290
     0
176
     1
290
     0
176
     1
290
     0
176
     1
290
     0
176
     1
290
     0
176
     1
290
     0
176
     1
 90
       50
176
     1
 40
0.0
176
     1
 40
1.0
176
     1
 90
        0
176
     1
 62
    18
420
        0
176
     1
 90
       50
176
     1
 90
        3
176
     1
 62
     5
420
      255
176
     1
290
     0
176
     1
 90
       50
176
     1
 90
       50
176
     1
 90
       50
176
     1
290
     0
176
     1
 90
       50
176
     1
 62
   256
176
     0
 40
1.0
176
     0
 90
        2
176
     1
  1
strokes_ogs.tif
176
     1
290
     0
176
     1
 40
1.0
176
     1
 40
1.0
176
     1
  0
VISUALSTYLE
  5
36
102
{ACAD_REACTORS
330
2A
102
}
330
2A
100
AcDbVisualStyle
  2
Brighten
 70
    12
177
     3
291
     1
 70
    58
 90
        2
176
     1
 90
        2
176
     1
 90
        0
176
     1
 90
        0
176
     1
 40
0.6
176
     1
 40
30.0
176
     1
 62
     7
420
 16777215
176
     1
 90
        1
176
     1
 90
        4
176
     1
 62
     7
176
     1
 62
   257
176
     1
 90
        1
176
     1
 90
        1
176
     1
 40
1.0
176
     1
 90
        8
176
     1
 62
     7
176
     1
 40
1.0
176
     1
 90
        1
176
     1
 90
        6
176
     1
 90
        2
176
     1
 62
     7
176
     1
 90
        5
176
     1
 90
        0
176
     1
 90
        0
176
     1
290
     0
176
     1
 90
        1
176
     1
 40
50.0
176
     1
 90
        0
176
     1
290
     0
176
     1
290
     1
176
     1
290
     1
176
     1
290
     0
176
     1
290
     0
176
     1
290
     0
176
     1
290
     0
176
     1
290
     0
176
     1
290
     0
176
     1
 90
       50
176
     1
 40
0.0
176
     1
 40
1.0
176
     1
 90
        0
176
     1
 62
    18
420
        0
176
     1
 90
       50
176
     1
 90
        3
176
     1
 62
     5
420
      255
176
     1
290
     0
176
     1
 90
       50
176
     1
 90
       50
176
     1
 90
       50
176
     1
290
     0
176
     1
 90
       50
176
     1
 62
   256
176
     0
 40
1.0
176
     0
 90
        2
176
     1
  1
strokes_ogs.tif
176
     1
290
     0
176
     1
 40
1.0
176
     1
 40
1.0
176
     1
  0
VISUALSTYLE
  5
3A
102
{ACAD_REACTORS
330
2A
102
}
330
2A
100
AcDbVisualStyle
  2
ColorChange
 70
    16
177
     3
291
     1
 70
    58
 90
        2
176
     1
 90
        2
176
     1
 90
        3
176
     1
 90
        0
176
     1
 40
0.6
176
     1
 40
30.0
176
     1
 62
     8
420
  8421504
176
     1
 90
        1
176
     1
 90
        4
176
     1
 62
     7
176
     1
 62
   257
176
     1
 90
        1
176
     1
 90
        1
176
     1
 40
1.0
176
     1
 90
        8
176
     1
 62
     8
420
  8421504
176
     1
 40
1.0
176
     1
 90
        1
176
     1
 90
        6
176
     1
 90
        2
176
     1
 62
     7
176
     1
 90
        5
176
     1
 90
        0
176
     1
 90
        0
176
     1
290
     0
176
     1
 90
        1
176
     1
 40
0.0
176
     1
 90
        0
176
     1
290
     0
176
     1
290
     1
176
     1
290
     1
176
     1
290
     0
176
     1
290
     0
176
     1
290
     0
176
     1
290
     0
176
     1
290
     0
176
     1
290
     0
176
     1
 90
       50
176
     1
 40
0.0
176
     1
 40
1.0
176
     1
 90
        0
176
     1
 62
    18
420
        0
176
     1
 90
       50
176
     1
 90
        3
176
     1
 62
     5
420
      255
176
     1
290
     0
176
     1
 90
       50
176
     1
 90
       50
176
     1
 90
       50
176
     1
290
     0
176
     1
 90
       50
176
     1
 62
   256
176
     0
 40
1.0
176
     0
 90
        2
176
     1
  1
strokes_ogs.tif
176
     1
290
     0
176
     1
 40
1.0
176
     1
 40
1.0
176
     1
  0
VISUALSTYLE
  5
34
102
{ACAD_REACTORS
330
2A
102
}
330
2A
100
AcDbVisualStyle
  2
Conceptual
 70
     9
177
     3
291
     0
 70
    58
 90
        3
176
     1
 90
        2
176
     1
 90
        0
176
     1
 90
        0
176
     1
 40
0.6
176
     1
 40
30.0
176
     1
 62
     7
420
 16777215
176
     1
 90
        2
176
     1
 90
        2
176
     1
 62
     7
176
     1
 62
   257
176
     1
 90
        1
176
     1
 90
        1
176
     1
 40
179.0
176
     1
 90
        8
176
     1
 62
     7
176
     1
 40
1.0
176
     1
 90
        1
176
     1
 90
        6
176
     1
 90
        2
176
     1
 62
     7
176
     1
 90
        3
176
     1
 90
        0
176
     1
 90
        0
176
     1
290
     0
176
     1
 90
        1
176
     1
 40
0.0
176
     1
 90
        0
176
     1
290
     0
176
     1
290
     1
176
     1
290
     1
176
     1
290
     0
176
     1
290
     0
176
     1
290
     0
176
     1
290
     0
176
     1
290
     0
176
     1
290
     0
176
     1
 90
       50
176
     1
 40
0.0
176
     1
 40
1.0
176
     1
 90
        0
176
     1
 62
    18
420
        0
176
     1
 90
       50
176
     1
 90
        3
176
     1
 62
     5
420
      255
176
     1
290
     0
176
     1
 90
       50
176
     1
 90
       50
176
     1
 90
       50
176
     1
290
     0
176
     1
 90
       50
176
     1
 62
   256
176
     0
 40
1.0
176
     0
 90
        2
176
     1
  1
strokes_ogs.tif
176
     1
290
     0
176
     1
 40
1.0
176
     1
 40
1.0
176
     1
  0
VISUALSTYLE
  5
35
102
{ACAD_REACTORS
330
2A
102
}
330
2A
100
AcDbVisualStyle
  2
Dim
 70
    11
177
     3
291
     1
 70
    58
 90
        2
176
     1
 90
        2
176
     1
 90
        0
176
     1
 90
        0
176
     1
 40
0.6
176
     1
 40
30.0
176
     1
 62
     7
420
 16777215
176
     1
 90
        1
176
     1
 90
        4
176
     1
 62
     7
176
     1
 62
   257
176
     1
 90
        1
176
     1
 90
        1
176
     1
 40
1.0
176
     1
 90
        8
176
     1
 62
     7
176
     1
 40
1.0
176
     1
 90
        1
176
     1
 90
        6
176
     1
 90
        2
176
     1
 62
     7
176
     1
 90
        5
176
     1
 90
        0
176
     1
 90
        0
176
     1
290
     0
176
     1
 90
        1
176
     1
 40
-50.0
176
     1
 90
        0
176
     1
290
     0
176
     1
290
     1
176
     1
290
     1
176
     1
290
     0
176
     1
290
     0
176
     1
290
     0
176
     1
290
     0
176
     1
290
     0
176
     1
290
     0
176
     1
 90
       50
176
     1
 40
0.0
176
     1
 40
1.0
176
     1
 90
        0
176
     1
 62
    18
420
        0
176
     1
 90
       50
176
     1
 90
        3
176
     1
 62
     5
420
      255
176
     1
290
     0
176
     1
 90
       50
176
     1
 90
       50
176
     1
 90
       50
176
     1
290
     0
176
     1
 90
       50
176
     1
 62
   256
176
     0
 40
1.0
176
     0
 90
        2
176
     1
  1
strokes_ogs.tif
176
     1
290
     0
176
     1
 40
1.0
176
     1
 40
1.0
176
     1
  0
VISUALSTYLE
  5
3D
102
{ACAD_REACTORS
330
2A
102
}
330
2A
100
AcDbVisualStyle
  2
EdgeColorOff
 70
    22
177
     3
291
     1
 70
    58
 90
        2
176
     0
 90
        2
176
     0
 90
        0
176
     0
 90
        0
176
     0
 40
0.6
176
     0
 40
30.0
176
     0
 62
     7
420
 16777215
176
     0
 90
        1
176
     0
 90
        4
176
     0
 62
     7
176
     0
 62
   257
176
     0
 90
        1
176
     0
 90
        1
176
     0
 40
1.0
176
     0
 90
        8
176
     2
 62
     7
176
     0
 40
1.0
176
     0
 90
        1
176
     0
 90
        6
176
     0
 90
        2
176
     0
 62
     7
176
     0
 90
        5
176
     0
 90
        0
176
     0
 90
        0
176
     0
290
     0
176
     0
 90
        1
176
     0
 40
0.0
176
     0
 90
        0
176
     0
290
     0
176
     0
290
     1
176
     0
290
     1
176
     0
290
     0
176
     0
290
     0
176
     0
290
     0
176
     0
290
     0
176
     0
290
     0
176
     0
290
     0
176
     0
 90
       50
176
     0
 40
0.0
176
     0
 40
1.0
176
     0
 90
        0
176
     0
 62
    18
420
        0
176
     0
 90
       50
176
     0
 90
        3
176
     0
 62
     5
420
      255
176
     0
290
     0
176
     0
 90
       50
176
     0
 90
       50
176
     0
 90
       50
176
     0
290
     0
176
     0
 90
       50
176
     0
 62
   256
176
     0
 40
1.0
176
     0
 90
        2
176
     0
  1
strokes_ogs.tif
176
     0
290
     0
176
     0
 40
1.0
176
     0
 40
1.0
176
     0
  0
VISUALSTYLE
  5
39
102
{ACAD_REACTORS
330
2A
102
}
330
2A
100
AcDbVisualStyle
  2
Facepattern
 70
    15
177
     3
291
     1
 70
    58
 90
        2
176
     1
 90
        2
176
     1
 90
        0
176
     1
 90
        0
176
     1
 40
0.6
176
     1
 40
30.0
176
     1
 62
     7
420
 16777215
176
     1
 90
        1
176
     1
 90
        4
176
     1
 62
     7
176
     1
 62
   257
176
     1
 90
        1
176
     1
 90
        1
176
     1
 40
1.0
176
     1
 90
        8
176
     1
 62
     7
176
     1
 40
1.0
176
     1
 90
        1
176
     1
 90
        6
176
     1
 90
        2
176
     1
 62
     7
176
     1
 90
        5
176
     1
 90
        0
176
     1
 90
        0
176
     1
290
     0
176
     1
 90
        1
176
     1
 40
0.0
176
     1
 90
        0
176
     1
290
     0
176
     1
290
     1
176
     1
290
     1
176
     1
290
     0
176
     1
290
     0
176
     1
290
     0
176
     1
290
     0
176
     1
290
     0
176
     1
290
     0
176
     1
 90
       50
176
     1
 40
0.0
176
     1
 40
1.0
176
     1
 90
        0
176
     1
 62
    18
420
        0
176
     1
 90
       50
176
     1
 90
        3
176
     1
 62
     5
420
      255
176
     1
290
     0
176
     1
 90
       50
176
     1
 90
       50
176
     1
 90
       50
176
     1
290
     0
176
     1
 90
       50
176
     1
 62
   256
176
     0
 40
1.0
176
     0
 90
        2
176
     1
  1
strokes_ogs.tif
176
     1
290
     0
176
     1
 40
1.0
176
     1
 40
1.0
176
     1
  0
VISUALSTYLE
  5
2B
102
{ACAD_REACTORS
330
2A
102
}
330
2A
100
AcDbVisualStyle
  2
Flat
 70
     0
177
     3
291
     1
 70
    58
 90
        2
176
     1
 90
        1
176
     1
 90
        1
176
     1
 90
        2
176
     1
 40
0.6
176
     1
 40
30.0
176
     1
 62
     7
420
 16777215
176
     1
 90
        0
176
     1
 90
        0
176
     1
 62
     7
176
     1
 62
   257
176
     1
 90
        1
176
     1
 90
        1
176
     1
 40
1.0
176
     1
 90
        8
176
     1
 62
     7
176
     1
 40
1.0
176
     1
 90
        1
176
     1
 90
        6
176
     1
 90
        2
176
     1
 62
     7
176
     1
 90
        5
176
     1
 90
        0
176
     1
 90
        0
176
     1
290
     0
176
     1
 90
       13
176
     1
 40
0.0
176
     1
 90
        0
176
     1
290
     0
176
     1
290
     1
176
     1
290
     1
176
     1
290
     0
176
     1
290
     0
176
     1
290
     0
176
     1
290
     0
176
     1
290
     0
176
     1
290
     0
176
     1
 90
       50
176
     1
 40
0.0
176
     1
 40
1.0
176
     1
 90
        0
176
     1
 62
    18
420
        0
176
     1
 90
       50
176
     1
 90
        3
176
     1
 62
     5
420
      255
176
     1
290
     0
176
     1
 90
       50
176
     1
 90
       50
176
     1
 90
       50
176
     1
290
     0
176
     1
 90
       50
176
     1
 62
   256
176
     0
 40
1.0
176
     0
 90
        2
176
     1
  1
strokes_ogs.tif
176
     1
290
     0
176
     1
 40
1.0
176
     1
 40
1.0
176
     1
  0
VISUALSTYLE
  5
2C
102
{ACAD_REACTORS
330
2A
102
}
330
2A
100
AcDbVisualStyle
  2
FlatWithEdges
 70
     1
177
     3
291
     1
 70
    58
 90
        2
176
     1
 90
        1
176
     1
 90
        1
176
     1
 90
        2
176
     1
 40
0.6
176
     1
 40
30.0
176
     1
 62
     7
420
 16777215
176
     1
 90
        1
176
     1
 90
        0
176
     1
 62
     7
176
     1
 62
   257
176
     1
 90
        1
176
     1
 90
        1
176
     1
 40
1.0
176
     1
 90
        0
176
     1
 62
   257
176
     1
 40
1.0
176
     1
 90
        1
176
     1
 90
        6
176
     1
 90
        2
176
     1
 62
     7
176
     1
 90
        5
176
     1
 90
        0
176
     1
 90
        0
176
     1
290
     0
176
     1
 90
       13
176
     1
 40
0.0
176
     1
 90
        0
176
     1
290
     0
176
     1
290
     1
176
     1
290
     1
176
     1
290
     0
176
     1
290
     0
176
     1
290
     0
176
     1
290
     0
176
     1
290
     0
176
     1
290
     0
176
     1
 90
       50
176
     1
 40
0.0
176
     1
 40
1.0
176
     1
 90
        0
176
     1
 62
    18
420
        0
176
     1
 90
       50
176
     1
 90
        3
176
     1
 62
     5
420
      255
176
     1
290
     0
176
     1
 90
       50
176
     1
 90
       50
176
     1
 90
       50
176
     1
290
     0
176
     1
 90
       50
176
     1
 62
   256
176
     0
 40
1.0
176
     0
 90
        2
176
     1
  1
strokes_ogs.tif
176
     1
290
     0
176
     1
 40
1.0
176
     1
 40
1.0
176
     1
  0
VISUALSTYLE
  5
2D
102
{ACAD_REACTORS
330
2A
102
}
330
2A
100
AcDbVisualStyle
  2
Gouraud
 70
     2
177
     3
291
     1
 70
    58
 90
        2
176
     1
 90
        2
176
     1
 90
        1
176
     1
 90
        2
176
     1
 40
0.6
176
     1
 40
30.0
176
     1
 62
     7
420
 16777215
176
     1
 90
        0
176
     1
 90
        0
176
     1
 62
     7
176
     1
 62
   257
176
     1
 90
        1
176
     1
 90
        1
176
     1
 40
1.0
176
     1
 90
        0
176
     1
 62
     7
176
     1
 40
1.0
176
     1
 90
        1
176
     1
 90
        6
176
     1
 90
        2
176
     1
 62
     7
176
     1
 90
        5
176
     1
 90
        0
176
     1
 90
        0
176
     1
290
     0
176
     1
 90
       13
176
     1
 40
0.0
176
     1
 90
        0
176
     1
290
     0
176
     1
290
     1
176
     1
290
     1
176
     1
290
     0
176
     1
290
     0
176
     1
290
     0
176
     1
290
     0
176
     1
290
     0
176
     1
290
     0
176
     1
 90
       50
176
     1
 40
0.0
176
     1
 40
1.0
176
     1
 90
        0
176
     1
 62
    18
420
        0
176
     1
 90
       50
176
     1
 90
        3
176
     1
 62
     5
420
      255
176
     1
290
     0
176
     1
 90
       50
176
     1
 90
       50
176
     1
 90
       50
176
     1
290
     0
176
     1
 90
       50
176
     1
 62
   256
176
     0
 40
1.0
176
     0
 90
        2
176
     1
  1
strokes_ogs.tif
176
     1
290
     0
176
     1
 40
1.0
176
     1
 40
1.0
176
     1
  0
VISUALSTYLE
  5
2E
102
{ACAD_REACTORS
330
2A
102
}
330
2A
100
AcDbVisualStyle
  2
GouraudWithEdges
 70
     3
177
     3
291
     1
 70
    58
 90
        2
176
     1
 90
        2
176
     1
 90
        1
176
     1
 90
        2
176
     1
 40
0.6
176
     1
 40
30.0
176
     1
 62
     7
420
 16777215
176
     1
 90
        1
176
     1
 90
        0
176
     1
 62
     7
176
     1
 62
   257
176
     1
 90
        1
176
     1
 90
        1
176
     1
 40
1.0
176
     1
 90
        0
176
     1
 62
   257
176
     1
 40
1.0
176
     1
 90
        1
176
     1
 90
        6
176
     1
 90
        2
176
     1
 62
     7
176
     1
 90
        5
176
     1
 90
        0
176
     1
 90
        0
176
     1
290
     0
176
     1
 90
       13
176
     1
 40
0.0
176
     1
 90
        0
176
     1
290
     0
176
     1
290
     1
176
     1
290
     1
176
     1
290
     0
176
     1
290
     0
176
     1
290
     0
176
     1
290
     0
176
     1
290
     0
176
     1
290
     0
176
     1
 90
       50
176
     1
 40
0.0
176
     1
 40
1.0
176
     1
 90
        0
176
     1
 62
    18
420
        0
176
     1
 90
       50
176
     1
 90
        3
176
     1
 62
     5
420
      255
176
     1
290
     0
176
     1
 90
       50
176
     1
 90
       50
176
     1
 90
       50
176
     1
290
     0
176
     1
 90
       50
176
     1
 62
   256
176
     0
 40
1.0
176
     0
 90
        2
176
     1
  1
strokes_ogs.tif
176
     1
290
     0
176
     1
 40
1.0
176
     1
 40
1.0
176
     1
  0
VISUALSTYLE
  5
31
102
{ACAD_REACTORS
330
2A
102
}
330
2A
100
AcDbVisualStyle
  2
Hidden
 70
     6
177
     3
291
     0
 70
    58
 90
        1
176
     1
 90
        2
176
     1
 90
        2
176
     1
 90
        0
176
     1
 40
0.6
176
     1
 40
30.0
176
     1
 62
     7
420
 16777215
176
     1
 90
        2
176
     1
 90
        2
176
     1
 62
     7
176
     1
 62
   257
176
     1
 90
        2
176
     1
 90
        1
176
     1
 40
40.0
176
     1
 90
        0
176
     1
 62
   257
176
     1
 40
1.0
176
     1
 90
        1
176
     1
 90
        6
176
     1
 90
        2
176
     1
 62
     7
176
     1
 90
        3
176
     1
 90
        0
176
     1
 90
        0
176
     1
290
     0
176
     1
 90
        1
176
     1
 40
0.0
176
     1
 90
        0
176
     1
290
     0
176
     1
290
     1
176
     1
290
     1
176
     1
290
     0
176
     1
290
     0
176
     1
290
     0
176
     1
290
     0
176
     1
290
     0
176
     1
290
     0
176
     1
 90
       50
176
     1
 40
0.0
176
     1
 40
1.0
176
     1
 90
        0
176
     1
 62
    18
420
        0
176
     1
 90
       50
176
     1
 90
        3
176
     1
 62
     5
420
      255
176
     1
290
     0
176
     1
 90
       50
176
     1
 90
       50
176
     1
 90
       50
176
     1
290
     0
176
     1
 90
       50
176
     1
 62
   256
176
     0
 40
1.0
176
     0
 90
        2
176
     1
  1
strokes_ogs.tif
176
     1
290
     0
176
     1
 40
1.0
176
     1
 40
1.0
176
     1
  0
VISUALSTYLE
  5
3B
102
{ACAD_REACTORS
330
2A
102
}
330
2A
100
AcDbVisualStyle
  2
JitterOff
 70
    20
177
     3
291
     1
 70
    58
 90
        2
176
     0
 90
        2
176
     0
 90
        0
176
     0
 90
        0
176
     0
 40
0.6
176
     0
 40
30.0
176
     0
 62
     7
420
 16777215
176
     0
 90
        1
176
     0
 90
        4
176
     0
 62
     7
176
     0
 62
   257
176
     0
 90
        1
176
     0
 90
        1
176
     0
 40
1.0
176
     0
 90
       10
176
     2
 62
     7
176
     0
 40
1.0
176
     0
 90
        1
176
     0
 90
        6
176
     0
 90
        2
176
     0
 62
     7
176
     0
 90
        5
176
     0
 90
        0
176
     0
 90
        0
176
     0
290
     0
176
     0
 90
        1
176
     0
 40
0.0
176
     0
 90
        0
176
     0
290
     0
176
     0
290
     1
176
     0
290
     1
176
     0
290
     0
176
     0
290
     0
176
     0
290
     0
176
     0
290
     0
176
     0
290
     0
176
     0
290
     0
176
     0
 90
       50
176
     0
 40
0.0
176
     0
 40
1.0
176
     0
 90
        0
176
     0
 62
    18
420
        0
176
     0
 90
       50
176
     0
 90
        3
176
     0
 62
     5
420
      255
176
     0
290
     0
176
     0
 90
       50
176
     0
 90
       50
176
     0
 90
       50
176
     0
290
     0
176
     0
 90
       50
176
     0
 62
   256
176
     0
 40
1.0
176
     0
 90
        2
176
     0
  1
strokes_ogs.tif
176
     0
290
     0
176
     0
 40
1.0
176
     0
 40
1.0
176
     0
  0
VISUALSTYLE
  5
38
102
{ACAD_REACTORS
330
2A
102
}
330
2A
100
AcDbVisualStyle
  2
Linepattern
 70
    14
177
     3
291
     1
 70
    58
 90
        2
176
     1
 90
        2
176
     1
 90
        0
176
     1
 90
        0
176
     1
 40
0.6
176
     1
 40
30.0
176
     1
 62
     7
420
 16777215
176
     1
 90
        1
176
     1
 90
        4
176
     1
 62
     7
176
     1
 62
   257
176
     1
 90
        7
176
     1
 90
        7
176
     1
 40
1.0
176
     1
 90
        8
176
     1
 62
     7
176
     1
 40
1.0
176
     1
 90
        1
176
     1
 90
        6
176
     1
 90
        2
176
     1
 62
     7
176
     1
 90
        5
176
     1
 90
        0
176
     1
 90
        0
176
     1
290
     0
176
     1
 90
        1
176
     1
 40
0.0
176
     1
 90
        0
176
     1
290
     0
176
     1
290
     1
176
     1
290
     1
176
     1
290
     0
176
     1
290
     0
176
     1
290
     0
176
     1
290
     0
176
     1
290
     0
176
     1
290
     0
176
     1
 90
       50
176
     1
 40
0.0
176
     1
 40
1.0
176
     1
 90
        0
176
     1
 62
    18
420
        0
176
     1
 90
       50
176
     1
 90
        3
176
     1
 62
     5
420
      255
176
     1
290
     0
176
     1
 90
       50
176
     1
 90
       50
176
     1
 90
       50
176
     1
290
     0
176
     1
 90
       50
176
     1
 62
   256
176
     0
 40
1.0
176
     0
 90
        2
176
     1
  1
strokes_ogs.tif
176
     1
290
     0
176
     1
 40
1.0
176
     1
 40
1.0
176
     1
  0
VISUALSTYLE
  5
3C
102
{ACAD_REACTORS
330
2A
102
}
330
2A
100
AcDbVisualStyle
  2
OverhangOff
 70
    21
177
     3
291
     1
 70
    58
 90
        2
176
     0
 90
        2
176
     0
 90
        0
176
     0
 90
        0
176
     0
 40
0.6
176
     0
 40
30.0
176
     0
 62
     7
420
 16777215
176
     0
 90
        1
176
     0
 90
        4
176
     0
 62
     7
176
     0
 62
   257
176
     0
 90
        1
176
     0
 90
        1
176
     0
 40
1.0
176
     0
 90
        9
176
     2
 62
     7
176
     0
 40
1.0
176
     0
 90
        1
176
     0
 90
        6
176
     0
 90
        2
176
     0
 62
     7
176
     0
 90
        5
176
     0
 90
        0
176
     0
 90
        0
176
     0
290
     0
176
     0
 90
        1
176
     0
 40
0.0
176
     0
 90
        0
176
     0
290
     0
176
     0
290
     1
176
     0
290
     1
176
     0
290
     0
176
     0
290
     0
176
     0
290
     0
176
     0
290
     0
176
     0
290
     0
176
     0
290
     0
176
     0
 90
       50
176
     0
 40
0.0
176
     0
 40
1.0
176
     0
 90
        0
176
     0
 62
    18
420
        0
176
     0
 90
       50
176
     0
 90
        3
176
     0
 62
     5
420
      255
176
     0
290
     0
176
     0
 90
       50
176
     0
 90
       50
176
     0
 90
       50
176
     0
290
     0
176
     0
 90
       50
176
     0
 62
   256
176
     0
 40
1.0
176
     0
 90
        2
176
     0
  1
strokes_ogs.tif
176
     0
290
     0
176
     0
 40
1.0
176
     0
 40
1.0
176
     0
  0
VISUALSTYLE
  5
33
102
{ACAD_REACTORS
330
2A
102
}
330
2A
100
AcDbVisualStyle
  2
Realistic
 70
     8
177
     3
291
     0
 70
    58
 90
        2
176
     1
 90
        3
176
     1
 90
        0
176
     1
 90
        2
176
     1
 40
0.6
176
     1
 40
30.0
176
     1
 62
     7
420
 16777215
176
     1
 90
        0
176
     1
 90
        0
176
     1
 62
     7
176
     1
 62
   257
176
     1
 90
        1
176
     1
 90
        1
176
     1
 40
1.0
176
     1
 90
        8
176
     1
 62
   257
176
     1
 40
1.0
176
     1
 90
        1
176
     1
 90
        6
176
     1
 90
        2
176
     1
 62
     7
176
     1
 90
        3
176
     1
 90
        0
176
     1
 90
        0
176
     1
290
     0
176
     1
 90
       13
176
     1
 40
0.0
176
     1
 90
        0
176
     1
290
     0
176
     1
290
     1
176
     1
290
     1
176
     1
290
     0
176
     1
290
     0
176
     1
290
     0
176
     1
290
     0
176
     1
290
     0
176
     1
290
     0
176
     1
 90
       50
176
     1
 40
0.0
176
     1
 40
1.0
176
     1
 90
        0
176
     1
 62
    18
420
        0
176
     1
 90
       50
176
     1
 90
        3
176
     1
 62
     5
420
      255
176
     1
290
     0
176
     1
 90
       50
176
     1
 90
       50
176
     1
 90
       50
176
     1
290
     0
176
     1
 90
       50
176
     1
 62
   256
176
     0
 40
1.0
176
     0
 90
        2
176
     1
  1
strokes_ogs.tif
176
     1
290
     0
176
     1
 40
1.0
176
     1
 40
1.0
176
     1
  0
VISUALSTYLE
  5
42
102
{ACAD_REACTORS
330
2A
102
}
330
2A
100
AcDbVisualStyle
  2
Shaded
 70
    27
177
     3
291
     0
 70
    58
 90
        2
176
     1
 90
        2
176
     1
 90
        1
176
     1
 90
        2
176
     1
 40
0.6
176
     1
 40
30.0
176
     1
 62
     7
420
 16777215
176
     1
 90
        0
176
     1
 90
        4
176
     1
 62
     7
176
     1
 62
   257
176
     1
 90
        1
176
     1
 90
        1
176
     1
 40
1.0
176
     1
 90
        8
176
     1
 62
   257
176
     1
 40
1.0
176
     1
 90
        1
176
     1
 90
        6
176
     1
 90
        2
176
     1
 62
     8
420
  7895160
176
     1
 90
        3
176
     1
 90
        0
176
     1
 90
        0
176
     1
290
     0
176
     1
 90
        5
176
     1
 40
0.0
176
     1
 90
        0
176
     1
290
     0
176
     1
290
     1
176
     1
290
     1
176
     1
290
     0
176
     1
290
     0
176
     1
290
     0
176
     1
290
     0
176
     1
290
     0
176
     1
290
     0
176
     1
 90
       50
176
     1
 40
0.0
176
     1
 40
1.0
176
     1
 90
        0
176
     1
 62
    18
420
        0
176
     1
 90
       50
176
     1
 90
        3
176
     1
 62
     5
420
      255
176
     1
290
     0
176
     1
 90
       50
176
     1
 90
       50
176
     1
 90
       50
176
     1
290
     0
176
     1
 90
       50
176
     1
 62
   256
176
     0
 40
1.0
176
     0
 90
        2
176
     1
  1
strokes_ogs.tif
176
     1
290
     0
176
     1
 40
1.0
176
     1
 40
1.0
176
     1
  0
VISUALSTYLE
  5
41
102
{ACAD_REACTORS
330
2A
102
}
330
2A
100
AcDbVisualStyle
  2
Shaded with edges
 70
    26
177
     3
291
     0
 70
    58
 90
        2
176
     1
 90
        2
176
     1
 90
        1
176
     1
 90
        2
176
     1
 40
0.6
176
     1
 40
30.0
176
     1
 62
     7
420
 16777215
176
     1
 90
        1
176
     1
 90
       10
176
     1
 62
     7
176
     1
 62
   257
176
     1
 90
        2
176
     1
 90
        1
176
     1
 40
1.0
176
     1
 90
        8
176
     1
 62
   257
176
     1
 40
1.0
176
     1
 90
        1
176
     1
 90
        6
176
     1
 90
        2
176
     1
 62
     7
176
     1
 90
        3
176
     1
 90
        0
176
     1
 90
        0
176
     1
290
     0
176
     1
 90
        5
176
     1
 40
0.0
176
     1
 90
        0
176
     1
290
     0
176
     1
290
     1
176
     1
290
     1
176
     1
290
     0
176
     1
290
     0
176
     1
290
     0
176
     1
290
     0
176
     1
290
     0
176
     1
290
     0
176
     1
 90
       50
176
     1
 40
0.0
176
     1
 40
1.0
176
     1
 90
        0
176
     1
 62
    18
420
        0
176
     1
 90
       50
176
     1
 90
        3
176
     1
 62
     5
420
      255
176
     1
290
     0
176
     1
 90
       50
176
     1
 90
       50
176
     1
 90
       50
176
     1
290
     0
176
     1
 90
       50
176
     1
 62
   256
176
     0
 40
1.0
176
     0
 90
        2
176
     1
  1
strokes_ogs.tif
176
     1
290
     0
176
     1
 40
1.0
176
     1
 40
1.0
176
     1
  0
VISUALSTYLE
  5
3E
102
{ACAD_REACTORS
330
2A
102
}
330
2A
100
AcDbVisualStyle
  2
Shades of Gray
 70
    23
177
     3
291
     0
 70
    58
 90
        2
176
     1
 90
        2
176
     1
 90
        3
176
     1
 90
        0
176
     1
 40
0.6
176
     1
 40
30.0
176
     1
 62
     7
420
 16777215
176
     1
 90
        2
176
     1
 90
        2
176
     1
 62
     7
176
     1
 62
     7
176
     1
 90
        1
176
     1
 90
        1
176
     1
 40
40.0
176
     1
 90
        8
176
     1
 62
     7
176
     1
 40
1.0
176
     1
 90
        1
176
     1
 90
        6
176
     1
 90
        2
176
     1
 62
     7
176
     1
 90
        3
176
     1
 90
        0
176
     1
 90
        0
176
     1
290
     0
176
     1
 90
        1
176
     1
 40
0.0
176
     1
 90
        0
176
     1
290
     0
176
     1
290
     1
176
     1
290
     1
176
     1
290
     0
176
     1
290
     0
176
     1
290
     0
176
     1
290
     0
176
     1
290
     0
176
     1
290
     0
176
     1
 90
       50
176
     1
 40
0.0
176
     1
 40
1.0
176
     1
 90
        0
176
     1
 62
    18
420
        0
176
     1
 90
       50
176
     1
 90
        3
176
     1
 62
     5
420
      255
176
     1
290
     0
176
     1
 90
       50
176
     1
 90
       50
176
     1
 90
       50
176
     1
290
     0
176
     1
 90
       50
176
     1
 62
   256
176
     0
 40
1.0
176
     0
 90
        2
176
     1
  1
strokes_ogs.tif
176
     1
290
     0
176
     1
 40
1.0
176
     1
 40
1.0
176
     1
  0
VISUALSTYLE
  5
3F
102
{ACAD_REACTORS
330
2A
102
}
330
2A
100
AcDbVisualStyle
  2
Sketchy
 70
    24
177
     3
291
     0
 70
    58
 90
        1
176
     1
 90
        2
176
     1
 90
        2
176
     1
 90
        0
176
     1
 40
0.6
176
     1
 40
30.0
176
     1
 62
     7
420
 16777215
176
     1
 90
        2
176
     1
 90
        2
176
     1
 62
     7
176
     1
 62
     7
176
     1
 90
        1
176
     1
 90
        1
176
     1
 40
40.0
176
     1
 90
       11
176
     1
 62
     7
176
     1
 40
1.0
176
     1
 90
        1
176
     1
 90
        6
176
     1
 90
        2
176
     1
 62
     7
176
     1
 90
        6
176
     1
 90
        0
176
     1
 90
        0
176
     1
290
     0
176
     1
 90
        1
176
     1
 40
0.0
176
     1
 90
        0
176
     1
290
     0
176
     1
290
     1
176
     1
290
     1
176
     1
290
     0
176
     1
290
     0
176
     1
290
     0
176
     1
290
     0
176
     1
290
     0
176
     1
290
     0
176
     1
 90
       50
176
     1
 40
0.0
176
     1
 40
1.0
176
     1
 90
        0
176
     1
 62
    18
420
        0
176
     1
 90
       50
176
     1
 90
        3
176
     1
 62
     5
420
      255
176
     1
290
     0
176
     1
 90
       50
176
     1
 90
       50
176
     1
 90
       50
176
     1
290
     0
176
     1
 90
       50
176
     1
 62
   256
176
     0
 40
1.0
176
     0
 90
        2
176
     1
  1
strokes_ogs.tif
176
     1
290
     0
176
     1
 40
1.0
176
     1
 40
1.0
176
     1
  0
VISUALSTYLE
  5
37
102
{ACAD_REACTORS
330
2A
102
}
330
2A
100
AcDbVisualStyle
  2
Thicken
 70
    13
177
     3
291
     1
 70
    58
 90
        2
176
     1
 90
        2
176
     1
 90
        0
176
     1
 90
        0
176
     1
 40
0.6
176
     1
 40
30.0
176
     1
 62
     7
420
 16777215
176
     1
 90
        1
176
     1
 90
        4
176
     1
 62
     7
176
     1
 62
   257
176
     1
 90
        1
176
     1
 90
        1
176
     1
 40
1.0
176
     1
 90
       12
176
     1
 62
     7
176
     1
 40
1.0
176
     1
 90
        1
176
     1
 90
        6
176
     1
 90
        2
176
     1
 62
     7
176
     1
 90
        5
176
     1
 90
        0
176
     1
 90
        0
176
     1
290
     0
176
     1
 90
        1
176
     1
 40
0.0
176
     1
 90
        0
176
     1
290
     0
176
     1
290
     1
176
     1
290
     1
176
     1
290
     0
176
     1
290
     0
176
     1
290
     0
176
     1
290
     0
176
     1
290
     0
176
     1
290
     0
176
     1
 90
       50
176
     1
 40
0.0
176
     1
 40
1.0
176
     1
 90
        0
176
     1
 62
    18
420
        0
176
     1
 90
       50
176
     1
 90
        3
176
     1
 62
     5
420
      255
176
     1
290
     0
176
     1
 90
       50
176
     1
 90
       50
176
     1
 90
       50
176
     1
290
     0
176
     1
 90
       50
176
     1
 62
   256
176
     0
 40
1.0
176
     0
 90
        2
176
     1
  1
strokes_ogs.tif
176
     1
290
     0
176
     1
 40
1.0
176
     1
 40
1.0
176
     1
  0
VISUALSTYLE
  5
30
102
{ACAD_REACTORS
330
2A
102
}
330
2A
100
AcDbVisualStyle
  2
Wireframe
 70
     5
177
     3
291
     0
 70
    58
 90
        0
176
     1
 90
        2
176
     1
 90
        0
176
     1
 90
        0
176
     1
 40
0.6
176
     1
 40
30.0
176
     1
 62
     7
420
 16777215
176
     1
 90
        1
176
     1
 90
        4
176
     1
 62
     7
176
     1
 62
   257
176
     1
 90
        1
176
     1
 90
        1
176
     1
 40
1.0
176
     1
 90
        0
176
     1
 62
   257
176
     1
 40
1.0
176
     1
 90
        1
176
     1
 90
        6
176
     1
 90
        2
176
     1
 62
     7
176
     1
 90
        3
176
     1
 90
        0
176
     1
 90
        0
176
     1
290
     0
176
     1
 90
        1
176
     1
 40
0.0
176
     1
 90
        0
176
     1
290
     0
176
     1
290
     1
176
     1
290
     1
176
     1
290
     0
176
     1
290
     0
176
     1
290
     0
176
     1
290
     0
176
     1
290
     0
176
     1
290
     0
176
     1
 90
       50
176
     1
 40
0.0
176
     1
 40
1.0
176
     1
 90
        0
176
     1
 62
    18
420
        0
176
     1
 90
       50
176
     1
 90
        3
176
     1
 62
     5
420
      255
176
     1
290
     0
176
     1
 90
       50
176
     1
 90
       50
176
     1
 90
       50
176
     1
290
     0
176
     1
 90
       50
176
     1
 62
   256
176
     0
 40
1.0
176
     0
 90
        2
176
     1
  1
strokes_ogs.tif
176
     1
290
     0
176
     1
 40
1.0
176
     1
 40
1.0
176
     1
  0
VISUALSTYLE
  5
40
102
{ACAD_REACTORS
330
2A
102
}
330
2A
100
AcDbVisualStyle
  2
X-Ray
 70
    25
177
     3
291
     0
 70
    58
 90
        2
176
     1
 90
        2
176
     1
 90
        1
176
     1
 90
        1
176
     1
 40
0.5
176
     1
 40
30.0
176
     1
 62
     7
420
 16777215
176
     1
 90
        1
176
     1
 90
        0
176
     1
 62
     7
176
     1
 62
   257
176
     1
 90
        1
176
     1
 90
        1
176
     1
 40
1.0
176
     1
 90
        8
176
     1
 62
     7
176
     1
 40
1.0
176
     1
 90
        1
176
     1
 90
        6
176
     1
 90
        2
176
     1
 62
     7
176
     1
 90
        3
176
     1
 90
        0
176
     1
 90
        0
176
     1
290
     0
176
     1
 90
       13
176
     1
 40
0.0
176
     1
 90
        0
176
     1
290
     0
176
     1
290
     1
176
     1
290
     1
176
     1
290
     0
176
     1
290
     0
176
     1
290
     0
176
     1
290
     0
176
     1
290
     0
176
     1
290
     0
176
     1
 90
       50
176
     1
 40
0.0
176
     1
 40
1.0
176
     1
 90
        0
176
     1
 62
    18
420
        0
176
     1
 90
       50
176
     1
 90
        3
176
     1
 62
     5
420
      255
176
     1
290
     0
176
     1
 90
       50
176
     1
 90
       50
176
     1
 90
       50
176
     1
290
     0
176
     1
 90
       50
176
     1
 62
   256
176
     0
 40
1.0
176
     0
 90
        2
176
     1
  1
strokes_ogs.tif
176
     1
290
     0
176
     1
 40
1.0
176
     1
 40
1.0
176
     1
  0
DICTIONARYVAR
  5
112
102
{ACAD_REACTORS
330
111
102
}
330
111
100
DictionaryVariables
280
     0
  1
1:1
  0
DICTIONARYVAR
  5
11A
102
{ACAD_REACTORS
330
111
102
}
330
111
100
DictionaryVariables
280
     0
  1
3.500000
  0
DICTIONARYVAR
  5
11B
102
{ACAD_REACTORS
330
111
102
}
330
111
100
DictionaryVariables
280
     0
  1
acadiso.lin
  0
DICTIONARYVAR
  5
117
102
{ACAD_REACTORS
330
111
102
}
330
111
100
DictionaryVariables
280
     0
  1
Standard
  0
DICTIONARYVAR
  5
116
102
{ACAD_REACTORS
330
111
102
}
330
111
100
DictionaryVariables
280
     0
  1
Standard
  0
DICTIONARY
  5
113
330
5A
100
AcDbDictionary
280
     1
281
     1
  3
ACAD_ROUNDTRIP_2008_TABLESTYLE_CELLSTYLEMAP
360
114
  0
CELLSTYLEMAP
  5
114
102
{ACAD_REACTORS
330
113
102
}
330
113
100
AcDbCellStyleMap
 90
        3
300
CELLSTYLE
  1
TABLEFORMAT_BEGIN
 90
        5
170
     1
 91
        0
 92
    32768
 62
   257
 93
        1
300
CONTENTFORMAT
  1
CONTENTFORMAT_BEGIN
 90
        0
 91
        0
 92
        4
 93
        0
300

 40
0.0
140
1.0
 94
        5
 62
     0
340
11
144
6.0
309
CONTENTFORMAT_END
171
     1
301
MARGIN
  1
CELLMARGIN_BEGIN
 40
1.5
 40
1.5
 40
1.5
 40
1.5
 40
1.5
 40
1.5
309
CELLMARGIN_END
 94
        6
 95
        1
302
GRIDFORMAT
  1
GRIDFORMAT_BEGIN
 90
        0
 91
        1
 62
     0
 92
       -2
340
14
 93
        0
 40
0.045
309
GRIDFORMAT_END
 95
        2
302
GRIDFORMAT
  1
GRIDFORMAT_BEGIN
 90
        0
 91
        1
 62
     0
 92
       -2
340
14
 93
        0
 40
0.045
309
GRIDFORMAT_END
 95
        4
302
GRIDFORMAT
  1
GRIDFORMAT_BEGIN
 90
        0
 91
        1
 62
     0
 92
       -2
340
14
 93
        0
 40
0.045
309
GRIDFORMAT_END
 95
        8
302
GRIDFORMAT
  1
GRIDFORMAT_BEGIN
 90
        0
 91
        1
 62
     0
 92
       -2
340
14
 93
        0
 40
0.045
309
GRIDFORMAT_END
 95
       16
302
GRIDFORMAT
  1
GRIDFORMAT_BEGIN
 90
        0
 91
        1
 62
     0
 92
       -2
340
14
 93
        0
 40
0.045
309
GRIDFORMAT_END
 95
       32
302
GRIDFORMAT
  1
GRIDFORMAT_BEGIN
 90
        0
 91
        1
 62
     0
 92
       -2
340
14
 93
        0
 40
0.045
309
GRIDFORMAT_END
309
TABLEFORMAT_END
  1
CELLSTYLE_BEGIN
 90
        1
 91
        1
300
_TITLE
309
CELLSTYLE_END
300
CELLSTYLE
  1
TABLEFORMAT_BEGIN
 90
        5
170
     1
 91
        0
 92
        0
 62
   257
 93
        1
300
CONTENTFORMAT
  1
CONTENTFORMAT_BEGIN
 90
        0
 91
        0
 92
        4
 93
        0
300

 40
0.0
140
1.0
 94
        5
 62
     0
340
11
144
4.5
309
CONTENTFORMAT_END
171
     1
301
MARGIN
  1
CELLMARGIN_BEGIN
 40
1.5
 40
1.5
 40
1.5
 40
1.5
 40
1.5
 40
1.5
309
CELLMARGIN_END
 94
        6
 95
        1
302
GRIDFORMAT
  1
GRIDFORMAT_BEGIN
 90
        0
 91
        1
 62
     0
 92
       -2
340
14
 93
        0
 40
0.045
309
GRIDFORMAT_END
 95
        2
302
GRIDFORMAT
  1
GRIDFORMAT_BEGIN
 90
        0
 91
        1
 62
     0
 92
       -2
340
14
 93
        0
 40
0.045
309
GRIDFORMAT_END
 95
        4
302
GRIDFORMAT
  1
GRIDFORMAT_BEGIN
 90
        0
 91
        1
 62
     0
 92
       -2
340
14
 93
        0
 40
0.045
309
GRIDFORMAT_END
 95
        8
302
GRIDFORMAT
  1
GRIDFORMAT_BEGIN
 90
        0
 91
        1
 62
     0
 92
       -2
340
14
 93
        0
 40
0.045
309
GRIDFORMAT_END
 95
       16
302
GRIDFORMAT
  1
GRIDFORMAT_BEGIN
 90
        0
 91
        1
 62
     0
 92
       -2
340
14
 93
        0
 40
0.045
309
GRIDFORMAT_END
 95
       32
302
GRIDFORMAT
  1
GRIDFORMAT_BEGIN
 90
        0
 91
        1
 62
     0
 92
       -2
340
14
 93
        0
 40
0.045
309
GRIDFORMAT_END
309
TABLEFORMAT_END
  1
CELLSTYLE_BEGIN
 90
        2
 91
        1
300
_HEADER
309
CELLSTYLE_END
300
CELLSTYLE
  1
TABLEFORMAT_BEGIN
 90
        5
170
     1
 91
        0
 92
        0
 62
   257
 93
        1
300
CONTENTFORMAT
  1
CONTENTFORMAT_BEGIN
 90
        0
 91
        0
 92
        4
 93
        0
300

 40
0.0
140
1.0
 94
        2
 62
     0
340
11
144
4.5
309
CONTENTFORMAT_END
171
     1
301
MARGIN
  1
CELLMARGIN_BEGIN
 40
1.5
 40
1.5
 40
1.5
 40
1.5
 40
1.5
 40
1.5
309
CELLMARGIN_END
 94
        6
 95
        1
302
GRIDFORMAT
  1
GRIDFORMAT_BEGIN
 90
        0
 91
        1
 62
     0
 92
       -2
340
14
 93
        0
 40
0.045
309
GRIDFORMAT_END
 95
        2
302
GRIDFORMAT
  1
GRIDFORMAT_BEGIN
 90
        0
 91
        1
 62
     0
 92
       -2
340
14
 93
        0
 40
0.045
309
GRIDFORMAT_END
 95
        4
302
GRIDFORMAT
  1
GRIDFORMAT_BEGIN
 90
        0
 91
        1
 62
     0
 92
       -2
340
14
 93
        0
 40
0.045
309
GRIDFORMAT_END
 95
        8
302
GRIDFORMAT
  1
GRIDFORMAT_BEGIN
 90
        0
 91
        1
 62
     0
 92
       -2
340
14
 93
        0
 40
0.045
309
GRIDFORMAT_END
 95
       16
302
GRIDFORMAT
  1
GRIDFORMAT_BEGIN
 90
        0
 91
        1
 62
     0
 92
       -2
340
14
 93
        0
 40
0.045
309
GRIDFORMAT_END
 95
       32
302
GRIDFORMAT
  1
GRIDFORMAT_BEGIN
 90
        0
 91
        1
 62
     0
 92
       -2
340
14
 93
        0
 40
0.045
309
GRIDFORMAT_END
309
TABLEFORMAT_END
  1
CELLSTYLE_BEGIN
 90
        3
 91
        2
300
_DATA
309
CELLSTYLE_END
  0
ENDSEC
  0
EOF
