  0
SECTION
  2
HEADER
  9
$ACADVER
  1
AC1027
  9
$ACADMAINTVER
 70
   105
  9
$DWGCODEPAGE
  3
ANSI_1252
  9
$LASTSAVEDBY
  1
Nick
  9
$REQUIREDVERSIONS
160
                 0
  9
$INSBASE
 10
0.0
 20
0.0
 30
0.0
  9
$EXTMIN
 10
0.0
 20
0.0
 30
0.0
  9
$EXTMAX
 10
420.0
 20
297.0
 30
0.0
  9
$LIMMIN
 10
0.0
 20
0.0
  9
$LIMMAX
 10
420.0
 20
297.0
  9
$ORTHOMODE
 70
     0
  9
$REGENMODE
 70
     1
  9
$FILLMODE
 70
     1
  9
$QTEXTMODE
 70
     0
  9
$MIRRTEXT
 70
     1
  9
$LTSCALE
 40
1.0
  9
$ATTMODE
 70
     1
  9
$TEXTSIZE
 40
4.2333333333
  9
$TRACEWID
 40
1.0
  9
$TEXTSTYLE
  7
Standard
  9
$CLAYER
  8
0
  9
$CELTYPE
  6
ByLayer
  9
$CECOLOR
 62
   256
  9
$CELTSCALE
 40
1.0
  9
$DISPSILH
 70
     0
  9
$DIMSCALE
 40
1.0
  9
$DIMASZ
 40
3.302
  9
$DIMEXO
 40
1.0
  9
$DIMDLI
 40
3.75
  9
$DIMRND
 40
0.0
  9
$DIMDLE
 40
0.0
  9
$DIMEXE
 40
1.0
  9
$DIMTP
 40
0.0
  9
$DIMTM
 40
0.0
  9
$DIMTXT
 40
4.2333333333
  9
$DIMCEN
 40
2.5
  9
$DIMTSZ
 40
0.0
  9
$DIMTOL
 70
     0
  9
$DIMLIM
 70
     0
  9
$DIMTIH
 70
     1
  9
$DIMTOH
 70
     1
  9
$DIMSE1
 70
     0
  9
$DIMSE2
 70
     0
  9
$DIMTAD
 70
     1
  9
$DIMZIN
 70
     1
  9
$DIMBLK
  1

  9
$DIMASO
 70
     1
  9
$DIMSHO
 70
     1
  9
$DIMPOST
  1

  9
$DIMAPOST
  1

  9
$DIMALT
 70
     0
  9
$DIMALTD
 70
     3
  9
$DIMALTF
 40
0.0393700787
  9
$DIMLFAC
 40
1.0
  9
$DIMTOFL
 70
     1
  9
$DIMTVP
 40
0.0
  9
$DIMTIX
 70
     0
  9
$DIMSOXD
 70
     0
  9
$DIMSAH
 70
     0
  9
$DIMBLK1
  1

  9
$DIMBLK2
  1

  9
$DIMSTYLE
  2
ISO-25
  9
$DIMCLRD
 70
     0
  9
$DIMCLRE
 70
     0
  9
$DIMCLRT
 70
     0
  9
$DIMTFAC
 40
1.0
  9
$DIMGAP
 40
1.524
  9
$DIMJUST
 70
     0
  9
$DIMSD1
 70
     0
  9
$DIMSD2
 70
     0
  9
$DIMTOLJ
 70
     0
  9
$DIMTZIN
 70
     1
  9
$DIMALTZ
 70
     0
  9
$DIMALTTZ
 70
     0
  9
$DIMUPT
 70
     0
  9
$DIMDEC
 70
     0
  9
$DIMTDEC
 70
     0
  9
$DIMALTU
 70
     2
  9
$DIMALTTD
 70
     3
  9
$DIMTXSTY
  7
Standard
  9
$DIMAUNIT
 70
     0
  9
$DIMADEC
 70
     2
  9
$DIMALTRND
 40
0.0
  9
$DIMAZIN
 70
     0
  9
$DIMDSEP
 70
    44
  9
$DIMATFIT
 70
     3
  9
$DIMFRAC
 70
     0
  9
$DIMLDRBLK
  1

  9
$DIMLUNIT
 70
     2
  9
$DIMLWD
 70
    -2
  9
$DIMLWE
 70
    -2
  9
$DIMTMOVE
 70
     0
  9
$DIMFXL
 40
1.0
  9
$DIMFXLON
 70
     0
  9
$DIMJOGANG
 40
0.7853981634
  9
$DIMTFILL
 70
     0
  9
$DIMTFILLCLR
 70
     0
  9
$DIMARCSYM
 70
     0
  9
$DIMLTYPE
  6

  9
$DIMLTEX1
  6

  9
$DIMLTEX2
  6

  9
$DIMTXTDIRECTION
 70
     0
  9
$LUNITS
 70
     2
  9
$LUPREC
 70
     0
  9
$SKETCHINC
 40
1.0
  9
$FILLETRAD
 40
0.0
  9
$AUNITS
 70
     0
  9
$AUPREC
 70
     2
  9
$MENU
  1
.
  9
$ELEVATION
 40
0.0
  9
$PELEVATION
 40
0.0
  9
$THICKNESS
 40
0.0
  9
$LIMCHECK
 70
     0
  9
$CHAMFERA
 40
0.0
  9
$CHAMFERB
 40
0.0
  9
$CHAMFERC
 40
0.0
  9
$CHAMFERD
 40
0.0
  9
$SKPOLY
 70
     0
  9
$TDCREATE
 40
2460934.443925672
  9
$TDUCREATE
 40
2460934.027259005
  9
$TDUPDATE
 40
2460934.443925891
  9
$TDUUPDATE
 40
2460934.027259225
  9
$TDINDWG
 40
0.0000000116
  9
$TDUSRTIMER
 40
0.0000000116
  9
$USRTIMER
 70
     1
  9
$ANGBASE
 50
0.0
  9
$ANGDIR
 70
     0
  9
$PDMODE
 70
     0
  9
$PDSIZE
 40
-1.0
  9
$PLINEWID
 40
0.0
  9
$SPLFRAME
 70
     0
  9
$SPLINETYPE
 70
     6
  9
$SPLINESEGS
 70
     8
  9
$HANDSEED
  5
113
  9
$SURFTAB1
 70
     6
  9
$SURFTAB2
 70
     6
  9
$SURFTYPE
 70
     6
  9
$SURFU
 70
     6
  9
$SURFV
 70
     6
  9
$UCSBASE
  2

  9
$UCSNAME
  2

  9
$UCSORG
 10
0.0
 20
0.0
 30
0.0
  9
$UCSXDIR
 10
1.0
 20
0.0
 30
0.0
  9
$UCSYDIR
 10
0.0
 20
1.0
 30
0.0
  9
$UCSORTHOREF
  2

  9
$UCSORTHOVIEW
 70
     0
  9
$UCSORGTOP
 10
0.0
 20
0.0
 30
0.0
  9
$UCSORGBOTTOM
 10
0.0
 20
0.0
 30
0.0
  9
$UCSORGLEFT
 10
0.0
 20
0.0
 30
0.0
  9
$UCSORGRIGHT
 10
0.0
 20
0.0
 30
0.0
  9
$UCSORGFRONT
 10
0.0
 20
0.0
 30
0.0
  9
$UCSORGBACK
 10
0.0
 20
0.0
 30
0.0
  9
$PUCSBASE
  2

  9
$PUCSNAME
  2

  9
$PUCSORG
 10
0.0
 20
0.0
 30
0.0
  9
$PUCSXDIR
 10
1.0
 20
0.0
 30
0.0
  9
$PUCSYDIR
 10
0.0
 20
1.0
 30
0.0
  9
$PUCSORTHOREF
  2

  9
$PUCSORTHOVIEW
 70
     0
  9
$PUCSORGTOP
 10
0.0
 20
0.0
 30
0.0
  9
$PUCSORGBOTTOM
 10
0.0
 20
0.0
 30
0.0
  9
$PUCSORGLEFT
 10
0.0
 20
0.0
 30
0.0
  9
$PUCSORGRIGHT
 10
0.0
 20
0.0
 30
0.0
  9
$PUCSORGFRONT
 10
0.0
 20
0.0
 30
0.0
  9
$PUCSORGBACK
 10
0.0
 20
0.0
 30
0.0
  9
$USERI1
 70
     0
  9
$USERI2
 70
     0
  9
$USERI3
 70
     0
  9
$USERI4
 70
     0
  9
$USERI5
 70
     0
  9
$USERR1
 40
0.0
  9
$USERR2
 40
0.0
  9
$USERR3
 40
0.0
  9
$USERR4
 40
0.0
  9
$USERR5
 40
0.0
  9
$WORLDVIEW
 70
     1
  9
$SHADEDGE
 70
     3
  9
$SHADEDIF
 70
    70
  9
$TILEMODE
 70
     1
  9
$MAXACTVP
 70
    64
  9
$PINSBASE
 10
0.0
 20
0.0
 30
0.0
  9
$PLIMCHECK
 70
     0
  9
$PEXTMIN
 10
1.0000000000E+20
 20
1.0000000000E+20
 30
1.0000000000E+20
  9
$PEXTMAX
 10
-1.0000000000E+20
 20
-1.0000000000E+20
 30
-1.0000000000E+20
  9
$PLIMMIN
 10
0.0
 20
0.0
  9
$PLIMMAX
 10
420.0
 20
297.0
  9
$UNITMODE
 70
     0
  9
$VISRETAIN
 70
     1
  9
$PLINEGEN
 70
     0
  9
$PSLTSCALE
 70
     1
  9
$TREEDEPTH
 70
  3020
  9
$CMLSTYLE
  2
Standard
  9
$CMLJUST
 70
     0
  9
$CMLSCALE
 40
20.0
  9
$PROXYGRAPHICS
 70
     1
  9
$MEASUREMENT
 70
     1
  9
$CELWEIGHT
370
    -1
  9
$ENDCAPS
280
     0
  9
$JOINSTYLE
280
     0
  9
$LWDISPLAY
290
     1
  9
$INSUNITS
 70
     4
  9
$HYPERLINKBASE
  1

  9
$STYLESHEET
  1

  9
$XEDIT
290
     1
  9
$CEPSNTYPE
380
     0
  9
$PSTYLEMODE
290
     1
  9
$FINGERPRINTGUID
  2
{3d44628f-be11-4bd6-be82-1fe54801b9e9}
  9
$VERSIONGUID
  2
{FAEB1C32-E019-11D5-929B-00C0DF256EC4}
  9
$EXTNAMES
290
     1
  9
$PSVPSCALE
 40
0.0
  9
$OLESTARTUP
290
     0
  9
$SORTENTS
280
   127
  9
$INDEXCTL
280
     0
  9
$HIDETEXT
280
     1
  9
$XCLIPFRAME
280
     2
  9
$HALOGAP
280
     0
  9
$OBSCOLOR
 70
   257
  9
$OBSLTYPE
280
     0
  9
$INTERSECTIONDISPLAY
280
     0
  9
$INTERSECTIONCOLOR
 70
   257
  9
$DIMASSOC
280
     2
  9
$PROJECTNAME
  1

  9
$CAMERADISPLAY
290
     0
  9
$LENSLENGTH
 40
50.0
  9
$CAMERAHEIGHT
 40
0.0
  9
$STEPSPERSEC
 40
2.0
  9
$STEPSIZE
 40
6.0
  9
$3DDWFPREC
 40
2.0
  9
$PSOLWIDTH
 40
5.0
  9
$PSOLHEIGHT
 40
80.0
  9
$LOFTANG1
 40
1.5707963268
  9
$LOFTANG2
 40
1.5707963268
  9
$LOFTMAG1
 40
0.0
  9
$LOFTMAG2
 40
0.0
  9
$LOFTPARAM
 70
     7
  9
$LOFTNORMALS
280
     1
  9
$LATITUDE
 40
37.795
  9
$LONGITUDE
 40
-122.394
  9
$NORTHDIRECTION
 40
0.0
  9
$TIMEZONE
 70
 -8000
  9
$LIGHTGLYPHDISPLAY
280
     1
  9
$TILEMODELIGHTSYNCH
280
     1
  9
$CMATERIAL
347
44
  9
$SOLIDHIST
280
     0
  9
$SHOWHIST
280
     1
  9
$DWFFRAME
280
     2
  9
$DGNFRAME
280
     2
  9
$REALWORLDSCALE
290
     1
  9
$INTERFERECOLOR
 62
   256
  9
$CSHADOW
280
     0
  9
$SHADOWPLANELOCATION
 40
0.0
  0
ENDSEC
  0
SECTION
  2
CLASSES
  0
CLASS
  1
ACDBDICTIONARYWDFLT
  2
AcDbDictionaryWithDefault
  3
ObjectDBX Classes
 90
        0
 91
        3
280
     0
281
     0
  0
CLASS
  1
VISUALSTYLE
  2
AcDbVisualStyle
  3
ObjectDBX Classes
 90
     4095
 91
        3
280
     0
281
     0
  0
CLASS
  1
MATERIAL
  2
AcDbMaterial
  3
ObjectDBX Classes
 90
     1153
 91
        3
280
     0
281
     0
  0
CLASS
  1
SCALE
  2
AcDbScale
  3
ObjectDBX Classes
 90
     1153
 91
        3
280
     0
281
     0
  0
CLASS
  1
TABLESTYLE
  2
AcDbTableStyle
  3
ObjectDBX Classes
 90
     4095
 91
        3
280
     0
281
     0
  0
CLASS
  1
MLEADERSTYLE
  2
AcDbMLeaderStyle
  3
ACDB_MLEADERSTYLE_CLASS
 90
     4095
 91
        3
280
     0
281
     0
  0
CLASS
  1
SUN
  2
AcDbSun
  3
SCENEOE
 90
     1153
 91
        3
280
     0
281
     0
  0
CLASS
  1
DICTIONARYVAR
  2
AcDbDictionaryVar
  3
ObjectDBX Classes
 90
        0
 91
        3
280
     0
281
     0
  0
CLASS
  1
CELLSTYLEMAP
  2
AcDbCellStyleMap
  3
ObjectDBX Classes
 90
     1152
 91
        3
280
     0
281
     0
  0
ENDSEC
  0
SECTION
  2
TABLES
  0
TABLE
  2
VPORT
  5
8
330
0
100
AcDbSymbolTable
 70
     1
  0
VPORT
  5
29
330
8
100
AcDbSymbolTableRecord
100
AcDbViewportTableRecord
  2
*Active
 70
     0
 10
0.0
 20
0.0
 11
1.0
 21
1.0
 12
210.0
 22
148.5
 13
0.0
 23
0.0
 14
10.0
 24
10.0
 15
10.0
 25
10.0
 16
0.0
 26
0.0
 36
1.0
 17
0.0
 27
0.0
 37
0.0
 40
297.0
 41
1.4141414141
 42
50.0
 43
0.0
 44
0.0
 50
0.0
 51
0.0
 71
     0
 72
  2000
 73
     1
 74
     3
 75
     0
 76
     0
 77
     0
 78
     0
281
     0
 65
     1
110
0.0
120
0.0
130
0.0
111
1.0
121
0.0
131
0.0
112
0.0
122
1.0
132
0.0
 79
     0
146
0.0
348
2F
 60
     3
 61
     5
292
     1
282
     1
141
0.0
142
0.0
 63
   250
361
5D
  0
ENDTAB
  0
TABLE
  2
LTYPE
  5
5
330
0
100
AcDbSymbolTable
 70
     6
  0
LTYPE
  5
14
330
5
100
AcDbSymbolTableRecord
100
AcDbLinetypeTableRecord
  2
ByBlock
 70
     0
  3

 72
    65
 73
     0
 40
0.0
  0
LTYPE
  5
15
330
5
100
AcDbSymbolTableRecord
100
AcDbLinetypeTableRecord
  2
ByLayer
 70
     0
  3

 72
    65
 73
     0
 40
0.0
  0
LTYPE
  5
16
330
5
100
AcDbSymbolTableRecord
100
AcDbLinetypeTableRecord
  2
Continuous
 70
     0
  3
Solid line
 72
    65
 73
     0
 40
0.0
  0
LTYPE
  5
5E
330
5
100
AcDbSymbolTableRecord
100
AcDbLinetypeTableRecord
  2
HIDDEN
 70
     0
  3
Hidden __ __ __ __ __ __ __ __ __ __ __ __ __ __
 72
    65
 73
     2
 40
1.905
 49
1.27
 74
     0
 49
-0.635
 74
     0
  0
LTYPE
  5
5F
330
5
100
AcDbSymbolTableRecord
100
AcDbLinetypeTableRecord
  2
PHANTOM
 70
     0
  3
Phantom ______  __  __  ______  __  __  ______
 72
    65
 73
     6
 40
12.7
 49
6.35
 74
     0
 49
-1.27
 74
     0
 49
1.27
 74
     0
 49
-1.27
 74
     0
 49
1.27
 74
     0
 49
-1.27
 74
     0
  0
LTYPE
  5
60
330
5
100
AcDbSymbolTableRecord
100
AcDbLinetypeTableRecord
  2
CENTER
 70
     0
  3
Center ____ _ ____ _ ____ _ ____ _ ____ _ ____
 72
    65
 73
     4
 40
10.16
 49
6.35
 74
     0
 49
-1.27
 74
     0
 49
1.27
 74
     0
 49
-1.27
 74
     0
  0
LTYPE
  5
61
330
5
100
AcDbSymbolTableRecord
100
AcDbLinetypeTableRecord
  2
CENTERX2
 70
     0
  3
Center (2x) ________  __  ________  __  _____
 72
    65
 73
     4
 40
20.32
 49
12.7
 74
     0
 49
-2.54
 74
     0
 49
2.54
 74
     0
 49
-2.54
 74
     0
  0
LTYPE
  5
62
330
5
100
AcDbSymbolTableRecord
100
AcDbLinetypeTableRecord
  2
DOT2
 70
     0
  3
Dot (.5x) ........................................
 72
    65
 73
     2
 40
0.635
 49
0.0
 74
     0
 49
-0.635
 74
     0
  0
ENDTAB
  0
TABLE
  2
LAYER
  5
2
330
0
100
AcDbSymbolTable
 70
    13
  0
LAYER
  5
10
330
2
100
AcDbSymbolTableRecord
100
AcDbLayerTableRecord
  2
0
 70
     0
 62
     7
  6
Continuous
370
    -3
390
F
347
46
348
0
  0
LAYER
  5
63
330
2
100
AcDbSymbolTableRecord
100
AcDbLayerTableRecord
  2
DRAWING-SHEET
 70
     0
 62
   179
  6
Continuous
370
    -3
390
F
347
46
348
0
  0
LAYER
  5
64
330
2
100
AcDbSymbolTableRecord
100
AcDbLayerTableRecord
  2
BORDER
 70
     0
 62
   179
  6
Continuous
370
    -3
390
F
347
46
348
0
  0
LAYER
  5
65
330
2
100
AcDbSymbolTableRecord
100
AcDbLayerTableRecord
  2
DIMENSIONS
 70
     0
 62
     7
  6
Continuous
370
    -3
390
F
347
46
348
0
  0
LAYER
  5
66
330
2
100
AcDbSymbolTableRecord
100
AcDbLayerTableRecord
  2
CENTRE_LINES
 70
     0
 62
     7
  6
Continuous
370
    -3
390
F
347
46
348
0
  0
LAYER
  5
67
330
2
100
AcDbSymbolTableRecord
100
AcDbLayerTableRecord
  2
FORMAT
 70
     0
 62
     7
  6
Continuous
370
    -3
390
F
347
46
348
0
  0
LAYER
  5
68
330
2
100
AcDbSymbolTableRecord
100
AcDbLayerTableRecord
  2
SLD-0
 70
     0
 62
   179
  6
Continuous
370
    -3
390
F
347
46
348
0
  0
LAYER
  5
69
330
2
100
AcDbSymbolTableRecord
100
AcDbLayerTableRecord
  2
OUTLINE
 70
     0
 62
     4
  6
Continuous
370
    -3
390
F
347
46
348
0
  0
LAYER
  5
6A
330
2
100
AcDbSymbolTableRecord
100
AcDbLayerTableRecord
  2
4
 70
     0
 62
     7
  6
Continuous
370
    70
390
F
347
46
348
0
  0
LAYER
  5
6B
330
2
100
AcDbSymbolTableRecord
100
AcDbLayerTableRecord
  2
TEXT25
 70
     0
 62
   179
  6
Continuous
370
    -3
390
F
347
46
348
0
  0
LAYER
  5
6C
330
2
100
AcDbSymbolTableRecord
100
AcDbLayerTableRecord
  2
TEXT35
 70
     0
 62
     7
  6
Continuous
370
    -3
390
F
347
46
348
0
  0
LAYER
  5
6D
330
2
100
AcDbSymbolTableRecord
100
AcDbLayerTableRecord
  2
TEXT5
 70
     0
 62
     7
  6
Continuous
370
    -3
390
F
347
46
348
0
  0
LAYER
  5
6E
330
2
100
AcDbSymbolTableRecord
100
AcDbLayerTableRecord
  2
5
 70
     0
 62
     7
  6
Continuous
370
    35
390
F
347
46
348
0
  0
ENDTAB
  0
TABLE
  2
STYLE
  5
3
330
0
100
AcDbSymbolTable
 70
     3
  0
STYLE
  5
11
330
3
100
AcDbSymbolTableRecord
100
AcDbTextStyleTableRecord
  2
Standard
 70
     0
 40
0.0
 41
1.0
 50
0.0
 71
     0
 42
4.2333333333
  3
txt
  4

  0
STYLE
  5
75
330
3
100
AcDbSymbolTableRecord
100
AcDbTextStyleTableRecord
  2
SLDTEXTSTYLE0
 70
     0
 40
0.0
 41
0.75
 50
0.0
 71
     0
 42
4.2333333333
  3
TXT
  4

  0
STYLE
  5
7B
330
3
100
AcDbSymbolTableRecord
100
AcDbTextStyleTableRecord
  2
SLDTEXTSTYLE1
 70
     0
 40
0.0
 41
0.6
 50
0.0
 71
     0
 42
4.2333333333
  3
TXT
  4

  0
ENDTAB
  0
TABLE
  2
VIEW
  5
6
330
0
100
AcDbSymbolTable
 70
     0
  0
ENDTAB
  0
TABLE
  2
UCS
  5
7
330
0
100
AcDbSymbolTable
 70
     0
  0
ENDTAB
  0
TABLE
  2
APPID
  5
9
330
0
100
AcDbSymbolTable
 70
     1
  0
APPID
  5
12
330
9
100
AcDbSymbolTableRecord
100
AcDbRegAppTableRecord
  2
ACAD
 70
     0
  0
ENDTAB
  0
TABLE
  2
DIMSTYLE
  5
A
330
0
100
AcDbSymbolTable
 70
     1
100
AcDbDimStyleTable
  0
DIMSTYLE
105
27
330
A
100
AcDbSymbolTableRecord
100
AcDbDimStyleTableRecord
  2
ISO-25
 70
     0
 41
2.5
 42
0.625
 43
3.75
 44
1.25
 73
     0
 74
     0
 77
     1
 78
     8
140
2.5
141
2.5
143
0.0393700787
147
0.625
171
     3
172
     1
178
     0
271
     2
272
     2
274
     3
278
    44
283
     0
284
     8
340
11
  0
ENDTAB
  0
TABLE
  2
BLOCK_RECORD
  5
1
330
0
100
AcDbSymbolTable
 70
     6
  0
BLOCK_RECORD
  5
1F
330
1
100
AcDbSymbolTableRecord
100
AcDbBlockTableRecord
  2
*Model_Space
340
22
 70
     0
280
     1
281
     0
  0
BLOCK_RECORD
  5
1B
330
1
100
AcDbSymbolTableRecord
100
AcDbBlockTableRecord
  2
*Paper_Space
340
1E
 70
     0
280
     1
281
     0
  0
BLOCK_RECORD
  5
23
330
1
100
AcDbSymbolTableRecord
100
AcDbBlockTableRecord
  2
*Paper_Space0
340
26
 70
     0
280
     1
281
     0
  0
BLOCK_RECORD
  5
6F
330
1
100
AcDbSymbolTableRecord
100
AcDbBlockTableRecord
  2
Block1
340
0
 70
     0
280
     1
281
     0
  0
BLOCK_RECORD
  5
72
330
1
100
AcDbSymbolTableRecord
100
AcDbBlockTableRecord
  2
SW_NOTE_0
340
0
102
{BLKREFS
331
77
102
}
 70
     0
280
     1
281
     0
  0
BLOCK_RECORD
  5
78
330
1
100
AcDbSymbolTableRecord
100
AcDbBlockTableRecord
  2
SW_NOTE_0_1
340
0
102
{BLKREFS
331
7D
102
}
 70
     0
280
     1
281
     0
  0
BLOCK_RECORD
  5
7E
330
1
100
AcDbSymbolTableRecord
100
AcDbBlockTableRecord
  2
SW_NOTE_0_2
340
0
102
{BLKREFS
331
82
102
}
 70
     0
280
     1
281
     0
  0
BLOCK_RECORD
  5
83
330
1
100
AcDbSymbolTableRecord
100
AcDbBlockTableRecord
  2
SW_NOTE_0_3
340
0
102
{BLKREFS
331
87
102
}
 70
     0
280
     1
281
     0
  0
ENDTAB
  0
ENDSEC
  0
SECTION
  2
BLOCKS
  0
BLOCK
  5
20
330
1F
100
AcDbEntity
  8
0
100
AcDbBlockBegin
  2
*Model_Space
 70
     0
 10
0.0
 20
0.0
 30
0.0
  3
*Model_Space
  1

  0
ENDBLK
  5
21
330
1F
100
AcDbEntity
  8
0
100
AcDbBlockEnd
  0
BLOCK
  5
1C
330
1B
100
AcDbEntity
 67
     1
  8
0
100
AcDbBlockBegin
  2
*Paper_Space
 70
     0
 10
0.0
 20
0.0
 30
0.0
  3
*Paper_Space
  1

  0
ENDBLK
  5
1D
330
1B
100
AcDbEntity
 67
     1
  8
0
100
AcDbBlockEnd
  0
BLOCK
  5
24
330
23
100
AcDbEntity
  8
0
100
AcDbBlockBegin
  2
*Paper_Space0
 70
     0
 10
0.0
 20
0.0
 30
0.0
  3
*Paper_Space0
  1

  0
ENDBLK
  5
25
330
23
100
AcDbEntity
  8
0
100
AcDbBlockEnd
  0
BLOCK
  5
70
330
6F
100
AcDbEntity
  8
0
100
AcDbBlockBegin
  2
Block1
 70
     0
 10
0.0
 20
0.0
 30
0.0
  3
Block1
  1

  0
INSERT
  5
77
330
6F
100
AcDbEntity
  8
0
  6
Continuous
 62
     7
370
     0
100
AcDbBlockReference
  2
SW_NOTE_0
 10
40.5248655077
 20
20.5912386523
 30
0.0
  0
INSERT
  5
7D
330
6F
100
AcDbEntity
  8
DRAWING-SHEET
 62
     7
100
AcDbBlockReference
  2
SW_NOTE_0_1
 10
3.556761253
 20
-0.3611706024
 30
0.0
  0
INSERT
  5
82
330
6F
100
AcDbEntity
  8
DRAWING-SHEET
 62
     7
100
AcDbBlockReference
  2
SW_NOTE_0_2
 10
7.9590819428
 20
3.0109637777
 30
0.0
  0
INSERT
  5
87
330
6F
100
AcDbEntity
  8
DRAWING-SHEET
 62
     7
100
AcDbBlockReference
  2
SW_NOTE_0_3
 10
0.0721004934
 20
6.5234823937
 30
0.0
  0
ENDBLK
  5
71
330
6F
100
AcDbEntity
  8
0
100
AcDbBlockEnd
  0
BLOCK
  5
73
330
72
100
AcDbEntity
  8
0
100
AcDbBlockBegin
  2
SW_NOTE_0
 70
     0
 10
0.0
 20
0.0
 30
0.0
  3
SW_NOTE_0
  1

  0
MTEXT
  5
76
330
72
100
AcDbEntity
  8
0
  6
Continuous
 62
     0
370
     0
100
AcDbMText
 10
0.0
 20
1.9336016097
 30
0.0
 40
1.5
 41
0.0
 46
0.0
 71
     1
 72
     1
  1
TITLE:
  7
SLDTEXTSTYLE0
 73
     1
 44
1.0
  0
ENDBLK
  5
74
330
72
100
AcDbEntity
  8
0
100
AcDbBlockEnd
  0
BLOCK
  5
79
330
78
100
AcDbEntity
  8
0
100
AcDbBlockBegin
  2
SW_NOTE_0_1
 70
     0
 10
0.0
 20
0.0
 30
0.0
  3
SW_NOTE_0_1
  1

  0
MTEXT
  5
7C
330
78
100
AcDbEntity
  8
DRAWING-SHEET
 62
     0
100
AcDbMText
 10
0.0
 20
2.7285267159
 30
0.0
 40
2.1166666667
 41
0.0
 46
0.0
 71
     1
 72
     1
  1
Email: roddyeng.com.au
  7
SLDTEXTSTYLE1
 73
     1
 44
1.0
  0
ENDBLK
  5
7A
330
78
100
AcDbEntity
  8
0
100
AcDbBlockEnd
  0
BLOCK
  5
7F
330
7E
100
AcDbEntity
  8
0
100
AcDbBlockBegin
  2
SW_NOTE_0_2
 70
     0
 10
0.0
 20
0.0
 30
0.0
  3
SW_NOTE_0_2
  1

  0
MTEXT
  5
81
330
7E
100
AcDbEntity
  8
DRAWING-SHEET
 62
     0
100
AcDbMText
 10
0.0
 20
2.7285267159
 30
0.0
 40
2.1166666667
 41
0.0
 46
0.0
 71
     1
 72
     1
  1
Ph: - 02 6947 4039
  7
SLDTEXTSTYLE1
 73
     1
 44
1.0
  0
ENDBLK
  5
80
330
7E
100
AcDbEntity
  8
0
100
AcDbBlockEnd
  0
BLOCK
  5
84
330
83
100
AcDbEntity
  8
0
100
AcDbBlockBegin
  2
SW_NOTE_0_3
 70
     0
 10
0.0
 20
0.0
 30
0.0
  3
SW_NOTE_0_3
  1

  0
MTEXT
  5
86
330
83
100
AcDbEntity
  8
DRAWING-SHEET
 62
     0
100
AcDbMText
 10
0.0
 20
2.7285267159
 30
0.0
 40
2.1166666667
 41
0.0
 46
0.0
 71
     1
 72
     1
  1
14 Waratah St TUMUT NSW 2720
  7
SLDTEXTSTYLE1
 73
     1
 44
1.0
  0
ENDBLK
  5
85
330
83
100
AcDbEntity
  8
0
100
AcDbBlockEnd
  0
ENDSEC
  0
SECTION
  2
ENTITIES
  0
SPLINE
  5
88
330
1F
100
AcDbEntity
  8
0
  6
Continuous
 62
     7
370
    25
100
AcDbSpline
210
0.0
220
0.0
230
1.0
 70
     8
 71
     3
 72
    19
 73
    15
 74
     0
 42
0.00000001
 43
0.00000001
 40
0.0
 40
0.0
 40
0.0
 40
0.0
 40
0.074058426273383
 40
0.1488703523168765
 40
0.2266676683691776
 40
0.3077347594511123
 40
0.3911572038059801
 40
0.4739293555425537
 40
0.5579277515150561
 40
0.6449892900513581
 40
0.7333640555176179
 40
0.8210920421841601
 40
0.9092872149973382
 40
1.0
 40
1.0
 40
1.0
 40
1.0
 10
911.7620744189414
 20
710.8243661224982
 30
0.0
 10
911.765812531165
 20
710.9096176845135
 30
0.0
 10
911.7733267886467
 20
711.0809881917115
 30
0.0
 10
911.8340886642703
 20
711.3360879021587
 30
0.0
 10
911.9331059591573
 20
711.5866400507855
 30
0.0
 10
912.0677825237589
 20
711.8314302515181
 30
0.0
 10
912.2355247320934
 20
712.0621735993172
 30
0.0
 10
912.4367739797069
 20
712.2691243336831
 30
0.0
 10
912.6667243724401
 20
712.4504077222203
 30
0.0
 10
912.924228068448
 20
712.6025818313598
 30
0.0
 10
913.2013394644106
 20
712.7264301943025
 30
0.0
 10
913.4937182618585
 20
712.8118665893167
 30
0.0
 10
913.7962702462205
 20
712.8677205703623
 30
0.0
 10
914.0022078904457
 20
712.8740443523938
 30
0.0
 10
914.1066257009927
 20
712.8772507378828
 30
0.0
  0
SPLINE
  5
89
330
1F
100
AcDbEntity
  8
0
  6
Continuous
 62
     7
370
    25
100
AcDbSpline
210
0.0
220
0.0
230
1.0
 70
     8
 71
     3
 72
    15
 73
    11
 74
     0
 42
0.00000001
 43
0.00000001
 40
0.0
 40
0.0
 40
0.0
 40
0.0
 40
0.1458600603916654
 40
0.2824259030758173
 40
0.4108504003575515
 40
0.5350294213479317
 40
0.6547010781259428
 40
0.7701334325965051
 40
0.884555844198861
 40
1.0
 40
1.0
 40
1.0
 40
1.0
 10
912.9303436497106
 20
709.1288533019855
 30
0.0
 10
912.837563364745
 20
709.1794470588308
 30
0.0
 10
912.6579147638967
 20
709.2774107332502
 30
0.0
 10
912.420041755594
 20
709.4574034328915
 30
0.0
 10
912.2157203305557
 20
709.6523470096121
 30
0.0
 10
912.050566690292
 20
709.8663579692086
 30
0.0
 10
911.9205730261272
 20
710.0927508247605
 30
0.0
 10
911.831387644306
 20
710.3301091159132
 30
0.0
 10
911.7710528237253
 20
710.5740316610685
 30
0.0
 10
911.7650760759739
 20
710.7406743961033
 30
0.0
 10
911.7620744189414
 20
710.8243661224982
 30
0.0
  0
SPLINE
  5
8A
330
1F
100
AcDbEntity
  8
0
  6
Continuous
 62
     7
370
    25
100
AcDbSpline
210
0.0
220
0.0
230
1.0
 70
     8
 71
     3
 72
    23
 73
    19
 74
     0
 42
0.00000001
 43
0.00000001
 40
0.0
 40
0.0
 40
0.0
 40
0.0
 40
0.058853586028665
 40
0.1163154589633498
 40
0.172674843411456
 40
0.2287803868808986
 40
0.2845803591252739
 40
0.340256506384544
 40
0.3966298050124578
 40
0.4535072628751914
 40
0.5123181897799947
 40
0.5726484440568312
 40
0.6360219358218004
 40
0.7023629463891923
 40
0.7714830560569291
 40
0.8441844774899001
 40
0.9200697939721565
 40
1.0
 40
1.0
 40
1.0
 40
1.0
 10
911.3518180086851
 20
706.9365456096778
 30
0.0
 10
911.3531388796079
 20
706.9926809057619
 30
0.0
 10
911.3557493867663
 20
707.1036240643468
 30
0.0
 10
911.3738176112942
 20
707.2675311004275
 30
0.0
 10
911.4028655228446
 20
707.4270651227688
 30
0.0
 10
911.4423157098013
 20
707.5828153940314
 30
0.0
 10
911.4957809131574
 20
707.7336480169358
 30
0.0
 10
911.5603343603448
 20
707.8802776710601
 30
0.0
 10
911.6356073945781
 20
708.0228698972182
 30
0.0
 10
911.7226500575541
 20
708.1622044825185
 30
0.0
 10
911.8239118266998
 20
708.2963290818999
 30
0.0
 10
911.9385715976413
 20
708.4275199267223
 30
0.0
 10
912.068921011733
 20
708.5537413373216
 30
0.0
 10
912.2135099463628
 20
708.676535451417
 30
0.0
 10
912.3706860365696
 20
708.7980805344334
 30
0.0
 10
912.5445318205359
 20
708.9118079141161
 30
0.0
 10
912.7304387183434
 20
709.0257689764316
 30
0.0
 10
912.8625653597315
 20
709.0939022917132
 30
0.0
 10
912.9303436497106
 20
709.1288533019855
 30
0.0
  0
SPLINE
  5
8B
330
1F
100
AcDbEntity
  8
0
  6
Continuous
 62
     7
370
    25
100
AcDbSpline
210
0.0
220
0.0
230
1.0
 70
     8
 71
     3
 72
    23
 73
    19
 74
     0
 42
0.00000001
 43
0.00000001
 40
0.0
 40
0.0
 40
0.0
 40
0.0
 40
0.0785564333527011
 40
0.1528628401420908
 40
0.2235596934382866
 40
0.2903749439782065
 40
0.3554030728222032
 40
0.4182911570440916
 40
0.480388563775645
 40
0.5430726152062778
 40
0.6049239444620933
 40
0.664398309113298
 40
0.7219425547367003
 40
0.7783748910546723
 40
0.8338299406509386
 40
0.8888612363188838
 40
0.9440889395778858
 40
1.0
 40
1.0
 40
1.0
 40
1.0
 10
914.0585487779158
 20
704.4669943276265
 30
0.0
 10
913.9510896039362
 20
704.4696285629514
 30
0.0
 10
913.7419849662537
 20
704.474754517328
 30
0.0
 10
913.4376241033033
 20
704.5094846466478
 30
0.0
 10
913.1539142293714
 20
704.5703483419124
 30
0.0
 10
912.889205730403
 20
704.6536503060771
 30
0.0
 10
912.6450944313415
 20
704.7620165422284
 30
0.0
 10
912.422275914375
 20
704.8968929050797
 30
0.0
 10
912.2175354063662
 20
705.0528504871621
 30
0.0
 10
912.0370863239291
 20
705.2343683801934
 30
0.0
 10
911.8768841665433
 20
705.4287863740734
 30
0.0
 10
911.7361571881033
 20
705.629361482098
 30
0.0
 10
911.6191878657542
 20
705.8361120136159
 30
0.0
 10
911.5201545049645
 20
706.0459551386123
 30
0.0
 10
911.4443418816871
 20
706.2618320623405
 30
0.0
 10
911.3918339723649
 20
706.4826320923598
 30
0.0
 10
911.3584869688373
 20
706.7079695617361
 30
0.0
 10
911.35405008906
 20
706.8600419120767
 30
0.0
 10
911.3518180086851
 20
706.9365456096778
 30
0.0
  0
SPLINE
  5
8C
330
1F
100
AcDbEntity
  8
0
  6
Continuous
 62
     7
370
    25
100
AcDbSpline
210
0.0
220
0.0
230
1.0
 70
     8
 71
     3
 72
    15
 73
    11
 74
     0
 42
0.00000001
 43
0.00000001
 40
0.0
 40
0.0
 40
0.0
 40
0.0
 40
0.1192834503733707
 40
0.2370928820686306
 40
0.3547960442151267
 40
0.4745763009408477
 40
0.5974600658149732
 40
0.724926154615612
 40
0.8588831991927642
 40
1.0
 40
1.0
 40
1.0
 40
1.0
 10
916.1819462138133
 20
705.3451994558317
 30
0.0
 10
916.1183199868319
 20
705.2752708291096
 30
0.0
 10
915.9918537798022
 20
705.1362777030998
 30
0.0
 10
915.7752070881081
 20
704.9558187088351
 30
0.0
 10
915.5374427822431
 20
704.8041629509077
 30
0.0
 10
915.279480879069
 20
704.6805700490818
 30
0.0
 10
915.0020109329986
 20
704.5843738001105
 30
0.0
 10
914.7050920653179
 20
704.5152480448801
 30
0.0
 10
914.3881454300756
 20
704.4756539209565
 30
0.0
 10
914.1703043532397
 20
704.4699305159293
 30
0.0
 10
914.0585487779158
 20
704.4669943276265
 30
0.0
  0
SPLINE
  5
8D
330
1F
100
AcDbEntity
  8
0
  6
Continuous
 62
     7
370
    25
100
AcDbSpline
210
0.0
220
0.0
230
1.0
 70
     8
 71
     3
 72
    15
 73
    11
 74
     0
 42
0.00000001
 43
0.00000001
 40
0.0
 40
0.0
 40
0.0
 40
0.0
 40
0.1281581855276733
 40
0.253673136153169
 40
0.3773253059734922
 40
0.4993845547646106
 40
0.6229183680423486
 40
0.7458393931045793
 40
0.87139528501403
 40
0.9999999999999999
 40
0.9999999999999999
 40
0.9999999999999999
 40
0.9999999999999999
 10
916.7877154445824
 20
707.002250737883
 30
0.0
 10
916.785952197635
 20
706.925227349024
 30
0.0
 10
916.7824620703276
 20
706.7727691620689
 30
0.0
 10
916.7520621068431
 20
706.547749478646
 30
0.0
 10
916.7065467274507
 20
706.3292082628094
 30
0.0
 10
916.6400792708135
 20
706.1171934266606
 30
0.0
 10
916.5538772345858
 20
705.9128748590216
 30
0.0
 10
916.4476444666319
 20
705.7160776625803
 30
0.0
 10
916.3273902834395
 20
705.5235763844688
 30
0.0
 10
916.2308137366826
 20
705.4051320379023
 30
0.0
 10
916.1819462138133
 20
705.3451994558317
 30
0.0
  0
SPLINE
  5
8E
330
1F
100
AcDbEntity
  8
0
  6
Continuous
 62
     7
370
    25
100
AcDbSpline
210
0.0
220
0.0
230
1.0
 70
     8
 71
     3
 72
    23
 73
    19
 74
     0
 42
0.00000001
 43
0.00000001
 40
0.0
 40
0.0
 40
0.0
 40
0.0
 40
0.0795248295850135
 40
0.1550999763495363
 40
0.2272198200732709
 40
0.2959105041914701
 40
0.3620558809471798
 40
0.4255201169126375
 40
0.4858127192253093
 40
0.5444947060018126
 40
0.6014596357222242
 40
0.6578405937966504
 40
0.7139744721931366
 40
0.7694679515974543
 40
0.8261299671813294
 40
0.882885359309069
 40
0.9407008816662019
 40
1.0
 40
1.0
 40
1.0
 40
1.0
 10
915.2412410856081
 20
709.1288533019855
 30
0.0
 10
915.3067234790935
 20
709.0947094026513
 30
0.0
 10
915.4344360153407
 20
709.0281173960188
 30
0.0
 10
915.6163267769639
 20
708.9208926470169
 30
0.0
 10
915.7825553512513
 20
708.807884727322
 30
0.0
 10
915.9377337781951
 20
708.6944313343789
 30
0.0
 10
916.0791357228961
 20
708.576187559753
 30
0.0
 10
916.205180095146
 20
708.452683202706
 30
0.0
 10
916.318980369244
 20
708.327001042033
 30
0.0
 10
916.4182415897911
 20
708.197012835942
 30
0.0
 10
916.5055486451491
 20
708.0630639237269
 30
0.0
 10
916.5810049541858
 20
707.9248027282016
 30
0.0
 10
916.6455014178034
 20
707.7825322510116
 30
0.0
 10
916.6966167063223
 20
707.6346994968732
 30
0.0
 10
916.7387236587585
 20
707.4834760416546
 30
0.0
 10
916.7676964702827
 20
707.3269092259924
 30
0.0
 10
916.7832779967227
 20
707.1660307325169
 30
0.0
 10
916.786223856017
 20
707.057303185811
 30
0.0
 10
916.7877154445824
 20
707.002250737883
 30
0.0
  0
SPLINE
  5
8F
330
1F
100
AcDbEntity
  8
0
  6
Continuous
 62
     7
370
    25
100
AcDbSpline
210
0.0
220
0.0
230
1.0
 70
     8
 71
     3
 72
    15
 73
    11
 74
     0
 42
0.00000001
 43
0.00000001
 40
0.0
 40
0.0
 40
0.0
 40
0.0
 40
0.1219040408698848
 40
0.2394126076020048
 40
0.3554101042801751
 40
0.4720907288033044
 40
0.5928589821563583
 40
0.7187034677136818
 40
0.8548923829515249
 40
1.0
 40
1.0
 40
1.0
 40
1.0
 10
916.377459034326
 20
710.8019302250623
 30
0.0
 10
916.3741800385947
 20
710.7151264219613
 30
0.0
 10
916.3677402773466
 20
710.5446486863428
 30
0.0
 10
916.3135689869985
 20
710.29613092525
 30
0.0
 10
916.2223385559106
 20
710.0633948362647
 30
0.0
 10
916.097780469092
 20
709.8437995170187
 30
0.0
 10
915.9354364976955
 20
709.6413275224822
 30
0.0
 10
915.7374736793029
 20
709.4534041627305
 30
0.0
 10
915.5054703004334
 20
709.27848569797
 30
0.0
 10
915.3311597033742
 20
709.1797740081944
 30
0.0
 10
915.2412410856081
 20
709.1288533019855
 30
0.0
  0
SPLINE
  5
90
330
1F
100
AcDbEntity
  8
0
  6
Continuous
 62
     7
370
    25
100
AcDbSpline
210
0.0
220
0.0
230
1.0
 70
     8
 71
     3
 72
    19
 73
    15
 74
     0
 42
0.00000001
 43
0.00000001
 40
0.0
 40
0.0
 40
0.0
 40
0.0
 40
0.0894097111101341
 40
0.1763057644831056
 40
0.2626259021834182
 40
0.349445726475654
 40
0.4354982637429561
 40
0.5189281301037153
 40
0.6013546565787415
 40
0.6842564217184167
 40
0.7658067397968328
 40
0.8448768657103897
 40
0.922279794848878
 40
1.0
 40
1.0
 40
1.0
 40
1.0
 10
914.1066257009927
 20
712.8772507378828
 30
0.0
 10
914.2083487066866
 20
712.8739448107743
 30
0.0
 10
914.4089348853207
 20
712.8674258991379
 30
0.0
 10
914.7037797483576
 20
712.813055892139
 30
0.0
 10
914.9858937539256
 20
712.7222455612907
 30
0.0
 10
915.2543040371952
 20
712.5990519079669
 30
0.0
 10
915.5042054485549
 20
712.4473103289793
 30
0.0
 10
915.7250107268492
 20
712.2635369025305
 30
0.0
 10
915.9200566284844
 20
712.0574990723117
 30
0.0
 10
916.0813923867892
 20
711.826825693309
 30
0.0
 10
916.2143361340316
 20
711.5829761078567
 30
0.0
 10
916.3069096222982
 20
711.3278389172443
 30
0.0
 10
916.3662284199494
 20
711.0669267827038
 30
0.0
 10
916.3737103951963
 20
710.8903827737747
 30
0.0
 10
916.377459034326
 20
710.8019302250623
 30
0.0
  0
LINE
  5
91
330
1F
100
AcDbEntity
  8
0
  6
Continuous
 62
     7
370
    25
100
AcDbLine
 10
930.3678436497
 20
704.6721225328
 30
0.0
 11
925.0954077523
 21
710.9541738148
 31
0.0
  0
LINE
  5
92
330
1F
100
AcDbEntity
  8
0
  6
Continuous
 62
     7
370
    25
100
AcDbLine
 10
930.5313051882
 20
704.6721225328
 30
0.0
 11
930.3678436497
 21
704.6721225328
 31
0.0
  0
LINE
  5
93
330
1F
100
AcDbEntity
  8
0
  6
Continuous
 62
     7
370
    25
100
AcDbLine
 10
930.5313051882
 20
712.6721225328
 30
0.0
 11
930.5313051882
 21
704.6721225328
 31
0.0
  0
LINE
  5
94
330
1F
100
AcDbEntity
  8
0
  6
Continuous
 62
     7
370
    25
100
AcDbLine
 10
929.8133564702
 20
712.6721225328
 30
0.0
 11
930.5313051882
 21
712.6721225328
 31
0.0
  0
LINE
  5
95
330
1F
100
AcDbEntity
  8
0
  6
Continuous
 62
     7
370
    25
100
AcDbLine
 10
929.8133564702
 20
706.3756481738
 30
0.0
 11
929.8133564702
 21
712.6721225328
 31
0.0
  0
LINE
  5
96
330
1F
100
AcDbEntity
  8
0
  6
Continuous
 62
     7
370
    25
100
AcDbLine
 10
924.52810006
 20
712.6721225328
 30
0.0
 11
929.8133564702
 21
706.3756481738
 31
0.0
  0
LINE
  5
97
330
1F
100
AcDbEntity
  8
0
  6
Continuous
 62
     7
370
    25
100
AcDbLine
 10
924.3774590343
 20
712.6721225328
 30
0.0
 11
924.52810006
 21
712.6721225328
 31
0.0
  0
LINE
  5
98
330
1F
100
AcDbEntity
  8
0
  6
Continuous
 62
     7
370
    25
100
AcDbLine
 10
924.3774590343
 20
704.6721225328
 30
0.0
 11
924.3774590343
 21
712.6721225328
 31
0.0
  0
LINE
  5
99
330
1F
100
AcDbEntity
  8
0
  6
Continuous
 62
     7
370
    25
100
AcDbLine
 10
925.0954077523
 20
704.6721225328
 30
0.0
 11
924.3774590343
 21
704.6721225328
 31
0.0
  0
LINE
  5
9A
330
1F
100
AcDbEntity
  8
0
  6
Continuous
 62
     7
370
    25
100
AcDbLine
 10
925.0954077523
 20
710.9541738148
 30
0.0
 11
925.0954077523
 21
704.6721225328
 31
0.0
  0
SPLINE
  5
9B
330
1F
100
AcDbEntity
  8
0
  6
Continuous
 62
     7
370
    25
100
AcDbSpline
210
0.0
220
0.0
230
1.0
 70
     8
 71
     3
 72
    23
 73
    19
 74
     0
 42
0.00000001
 43
0.00000001
 40
0.0
 40
0.0
 40
0.0
 40
0.0
 40
0.0611602766365183
 40
0.1203345577262035
 40
0.1781802550631263
 40
0.2352351259863653
 40
0.2926829614441808
 40
0.3511862482150805
 40
0.410456609509693
 40
0.4717198544629948
 40
0.5337612027725886
 40
0.5957390238870942
 40
0.6578875151248837
 40
0.7212951802914607
 40
0.7868225145418892
 40
0.8546861538286845
 40
0.9254779862699962
 40
1.0
 40
1.0
 40
1.0
 40
1.0
 10
937.3005359574029
 20
706.942955866088
 30
0.0
 10
937.2983031664925
 20
706.8648601583809
 30
0.0
 10
937.2939100878231
 20
706.7112046655664
 30
0.0
 10
937.2614987237163
 20
706.4854786437365
 30
0.0
 10
937.20662076488
 20
706.2697644800502
 30
0.0
 10
937.1310295731892
 20
706.0626669195834
 30
0.0
 10
937.0323728541073
 20
705.8645866122218
 30
0.0
 10
936.9123089356355
 20
705.6752991516812
 30
0.0
 10
936.7691510759261
 20
705.4967063959942
 30
0.0
 10
936.6090073754646
 20
705.3268238289016
 30
0.0
 10
936.4278367572047
 20
705.1740746006965
 30
0.0
 10
936.2323721745246
 20
705.0380386997106
 30
0.0
 10
936.0201520147676
 20
704.9261619863039
 30
0.0
 10
935.7946617427301
 20
704.8321825085831
 30
0.0
 10
935.5533718773261
 20
704.7603946263772
 30
0.0
 10
935.2973659176465
 20
704.7101716003216
 30
0.0
 10
935.0268646563095
 20
704.6763315157535
 30
0.0
 10
934.8412423680545
 20
704.6735493331364
 30
0.0
 10
934.7460487779158
 20
704.6721225327547
 30
0.0
  0
SPLINE
  5
9C
330
1F
100
AcDbEntity
  8
0
  6
Continuous
 62
     7
370
    25
100
AcDbSpline
210
0.0
220
0.0
230
1.0
 70
     8
 71
     3
 72
    19
 73
    15
 74
     0
 42
0.00000001
 43
0.00000001
 40
0.0
 40
0.0
 40
0.0
 40
0.0
 40
0.1060574933033971
 40
0.2029142570846113
 40
0.2903001653958372
 40
0.3702225656250411
 40
0.4463837207709718
 40
0.5213968999648274
 40
0.5982910828464572
 40
0.6761424688569262
 40
0.7555286995560205
 40
0.8348871724576591
 40
0.9166460487466405
 40
1.0
 40
1.0
 40
1.0
 40
1.0
 10
935.7604718548388
 20
708.9878276609599
 30
0.0
 10
935.8513528321984
 20
708.9529362348098
 30
0.0
 10
936.0252306547798
 20
708.8861802933358
 30
0.0
 10
936.2645129689099
 20
708.7681563756282
 30
0.0
 10
936.4706726146154
 20
708.6397858375908
 30
0.0
 10
936.6452946625815
 20
708.499598751548
 30
0.0
 10
936.7946378738195
 20
708.3484928983135
 30
0.0
 10
936.9250445974147
 20
708.1842526371744
 30
0.0
 10
937.0363163097825
 20
708.0047354763117
 30
0.0
 10
937.1316601350753
 20
707.8118131097691
 30
0.0
 10
937.2060572917067
 20
707.6074554678106
 30
0.0
 10
937.2617736445518
 20
707.3935794081594
 30
0.0
 10
937.2936992425764
 20
707.1709518534295
 30
0.0
 10
937.2982424226409
 20
707.0194424149415
 30
0.0
 10
937.3005359574029
 20
706.942955866088
 30
0.0
  0
SPLINE
  5
9D
330
1F
100
AcDbEntity
  8
0
  6
Continuous
 62
     7
370
    25
100
AcDbSpline
210
0.0
220
0.0
230
1.0
 70
     8
 71
     3
 72
    15
 73
    11
 74
     0
 42
0.00000001
 43
0.00000001
 40
0.0
 40
0.0
 40
0.0
 40
0.0
 40
0.1305691070873112
 40
0.2565806086940821
 40
0.380551616803683
 40
0.5036229172007108
 40
0.6257393231697905
 40
0.7475485819596281
 40
0.8717661185648706
 40
1.0
 40
1.0
 40
1.0
 40
1.0
 10
936.6851513420183
 20
710.6897507378828
 30
0.0
 10
936.6826525570068
 20
710.6014020391905
 30
0.0
 10
936.6777422088122
 20
710.4277885145709
 30
0.0
 10
936.6307873303372
 20
710.1738591219226
 30
0.0
 10
936.5572772310469
 20
709.9321420503173
 30
0.0
 10
936.4550938043864
 20
709.7035194550785
 30
0.0
 10
936.3222892416479
 20
709.4931569107458
 30
0.0
 10
936.1648987989848
 20
709.2993574454998
 30
0.0
 10
935.9750089647198
 20
709.1303264580828
 30
0.0
 10
935.8327387018902
 20
709.0358283951098
 30
0.0
 10
935.7604718548388
 20
708.9878276609599
 30
0.0
  0
SPLINE
  5
9E
330
1F
100
AcDbEntity
  8
0
  6
Continuous
 62
     7
370
    25
100
AcDbSpline
210
0.0
220
0.0
230
1.0
 70
     8
 71
     3
 72
    23
 73
    19
 74
     0
 42
0.00000001
 43
0.00000001
 40
0.0
 40
0.0
 40
0.0
 40
0.0
 40
0.0625940971873314
 40
0.1213229386347492
 40
0.176680142197766
 40
0.2283650957096756
 40
0.2768684458368066
 40
0.3218791276660452
 40
0.364098625109891
 40
0.4033556962427015
 40
0.4779679481633705
 40
0.5505354613647755
 40
0.623584456740322
 40
0.6981748822642047
 40
0.7733536703408739
 40
0.847281125497732
 40
0.9228183395566674
 40
1.0
 40
1.0
 40
1.0
 40
1.0
 10
934.1434846753517
 20
712.6721225327547
 30
0.0
 10
934.2198926254952
 20
712.6717208175507
 30
0.0
 10
934.3679902491214
 20
712.6709421935072
 30
0.0
 10
934.5833489733013
 20
712.6588664651713
 30
0.0
 10
934.7850605404797
 20
712.6424009340201
 30
0.0
 10
934.9731834487095
 20
712.6162750079762
 30
0.0
 10
935.1476307684605
 20
712.5847509459296
 30
0.0
 10
935.3089282250041
 20
712.5465753662946
 30
0.0
 10
935.4565629044746
 20
712.5008002493598
 30
0.0
 10
935.6328205876886
 20
712.4280087494
 30
0.0
 10
935.8337820982688
 20
712.3198415074577
 30
0.0
 10
936.0513784244471
 20
712.160004787117
 30
0.0
 10
936.2374452572684
 20
711.9645020142706
 30
0.0
 10
936.3978711252477
 20
711.7439702304434
 30
0.0
 10
936.525416541502
 20
711.5013741807268
 30
0.0
 10
936.6176892210807
 20
711.2424960349497
 30
0.0
 10
936.6761072219005
 20
710.9706749105621
 30
0.0
 10
936.6821150715367
 20
710.7840619325532
 30
0.0
 10
936.6851513420183
 20
710.6897507378828
 30
0.0
  0
LINE
  5
9F
330
1F
100
AcDbEntity
  8
0
  6
Continuous
 62
     7
370
    25
100
AcDbLine
 10
932.5825872395
 20
712.6721225328
 30
0.0
 11
934.1434846754
 21
712.6721225328
 31
0.0
  0
LINE
  5
A0
330
1F
100
AcDbEntity
  8
0
  6
Continuous
 62
     7
370
    25
100
AcDbLine
 10
932.5825872395
 20
704.6721225328
 30
0.0
 11
932.5825872395
 21
712.6721225328
 31
0.0
  0
LINE
  5
A1
330
1F
100
AcDbEntity
  8
0
  6
Continuous
 62
     7
370
    25
100
AcDbLine
 10
934.7460487779
 20
704.6721225328
 30
0.0
 11
932.5825872395
 21
704.6721225328
 31
0.0
  0
CIRCLE
  5
A2
330
1F
100
AcDbEntity
  8
0
  6
Continuous
 62
     7
370
    25
100
AcDbCircle
 10
951.4872798434
 20
785.6360078278
 30
0.0
 40
57.70000000000005
  0
CIRCLE
  5
A3
330
1F
100
AcDbEntity
  8
0
  6
Continuous
 62
     7
370
    25
100
AcDbCircle
 10
900.2220382074
 20
836.9012494638
 30
0.0
 40
9.499999999999886
  0
CIRCLE
  5
A4
330
1F
100
AcDbEntity
  8
0
  6
Continuous
 62
     7
370
    25
100
AcDbCircle
 10
900.2220382074
 20
734.3707661918
 30
0.0
 40
9.500000000000114
  0
CIRCLE
  5
A5
330
1F
100
AcDbEntity
  8
0
  6
Continuous
 62
     7
370
    25
100
AcDbCircle
 10
1002.7525214795
 20
734.3707661918
 30
0.0
 40
9.500000000000114
  0
CIRCLE
  5
A6
330
1F
100
AcDbEntity
  8
0
  6
Continuous
 62
     7
370
    25
100
AcDbCircle
 10
1002.7525214795
 20
836.9012494638
 30
0.0
 40
9.499999999999886
  0
ARC
  5
A7
330
1F
100
AcDbEntity
  8
0
  6
Continuous
 62
     7
370
    25
100
AcDbCircle
 10
886.4872798434
 20
690.5360078278
 30
0.0
 40
5.0
100
AcDbArc
 50
180.0
 51
270.0
  0
LINE
  5
A8
330
1F
100
AcDbEntity
  8
0
  6
Continuous
 62
     7
370
    25
100
AcDbLine
 10
881.4872798434
 20
727.3264888793
 30
0.0
 11
881.4872798434
 21
690.5360078278
 31
0.0
  0
ARC
  5
A9
330
1F
100
AcDbEntity
  8
0
  6
Continuous
 62
     7
370
    25
100
AcDbCircle
 10
876.4872798434
 20
727.3264888793
 30
0.0
 40
5.00000000000004
100
AcDbArc
 50
0.0
 51
37.8636463617
  0
ARC
  5
AA
330
1F
100
AcDbEntity
  8
0
  6
Continuous
 62
     7
370
    25
100
AcDbCircle
 10
951.4872798434
 20
785.6360078278
 30
0.0
 40
90.00000000000007
100
AcDbArc
 50
322.1363536383
 51
217.8636463617
  0
ARC
  5
AB
330
1F
100
AcDbEntity
  8
0
  6
Continuous
 62
     7
370
    25
100
AcDbCircle
 10
1026.4872798434
 20
727.3264888793
 30
0.0
 40
5.0
100
AcDbArc
 50
142.1363536383
 51
180.0
  0
LINE
  5
AC
330
1F
100
AcDbEntity
  8
0
  6
Continuous
 62
     7
370
    25
100
AcDbLine
 10
1021.4872798434
 20
690.5360078278
 30
0.0
 11
1021.4872798434
 21
727.3264888793
 31
0.0
  0
ARC
  5
AD
330
1F
100
AcDbEntity
  8
0
  6
Continuous
 62
     7
370
    25
100
AcDbCircle
 10
1016.4872798434
 20
690.5360078278
 30
0.0
 40
5.000000000000114
100
AcDbArc
 50
270.0
 51
0.0
  0
LINE
  5
AE
330
1F
100
AcDbEntity
  8
0
  6
Continuous
 62
     7
370
    25
100
AcDbLine
 10
886.4872798434
 20
685.5360078278
 30
0.0
 11
1016.4872798434
 21
685.5360078278
 31
0.0
  0
LINE
  5
AF
330
1F
100
AcDbEntity
  8
0
  6
Continuous
 62
     7
370
    25
100
AcDbLine
 10
966.2236128805
 20
708.5326994558
 30
0.0
 11
966.2236128805
 21
704.6721225328
 31
0.0
  0
LINE
  5
B0
330
1F
100
AcDbEntity
  8
0
  6
Continuous
 62
     7
370
    25
100
AcDbLine
 10
969.9335487779
 20
704.6721225328
 30
0.0
 11
966.2236128805
 21
708.5326994558
 31
0.0
  0
LINE
  5
B1
330
1F
100
AcDbEntity
  8
0
  6
Continuous
 62
     7
370
    25
100
AcDbLine
 10
970.8902795471
 20
704.6721225328
 30
0.0
 11
969.9335487779
 21
704.6721225328
 31
0.0
  0
LINE
  5
B2
330
1F
100
AcDbEntity
  8
0
  6
Continuous
 62
     7
370
    25
100
AcDbLine
 10
966.6514974959
 20
709.082378943
 30
0.0
 11
970.8902795471
 21
704.6721225328
 31
0.0
  0
LINE
  5
B3
330
1F
100
AcDbEntity
  8
0
  6
Continuous
 62
     7
370
    25
100
AcDbLine
 10
970.5825872395
 20
712.6721225328
 30
0.0
 11
966.6514974959
 21
709.082378943
 31
0.0
  0
LINE
  5
B4
330
1F
100
AcDbEntity
  8
0
  6
Continuous
 62
     7
370
    25
100
AcDbLine
 10
969.5585487779
 20
712.6721225328
 30
0.0
 11
970.5825872395
 21
712.6721225328
 31
0.0
  0
LINE
  5
B5
330
1F
100
AcDbEntity
  8
0
  6
Continuous
 62
     7
370
    25
100
AcDbLine
 10
966.2236128805
 20
709.6256481738
 30
0.0
 11
969.5585487779
 21
712.6721225328
 31
0.0
  0
LINE
  5
B6
330
1F
100
AcDbEntity
  8
0
  6
Continuous
 62
     7
370
    25
100
AcDbLine
 10
966.2236128805
 20
712.6721225328
 30
0.0
 11
966.2236128805
 21
709.6256481738
 31
0.0
  0
LINE
  5
B7
330
1F
100
AcDbEntity
  8
0
  6
Continuous
 62
     7
370
    25
100
AcDbLine
 10
965.5056641625
 20
712.6721225328
 30
0.0
 11
966.2236128805
 21
712.6721225328
 31
0.0
  0
LINE
  5
B8
330
1F
100
AcDbEntity
  8
0
  6
Continuous
 62
     7
370
    25
100
AcDbLine
 10
965.5056641625
 20
704.6721225328
 30
0.0
 11
965.5056641625
 21
712.6721225328
 31
0.0
  0
LINE
  5
B9
330
1F
100
AcDbEntity
  8
0
  6
Continuous
 62
     7
370
    25
100
AcDbLine
 10
966.2236128805
 20
704.6721225328
 30
0.0
 11
965.5056641625
 21
704.6721225328
 31
0.0
  0
SPLINE
  5
BA
330
1F
100
AcDbEntity
  8
0
  6
Continuous
 62
     7
370
    25
100
AcDbSpline
210
0.0
220
0.0
230
1.0
 70
     8
 71
     3
 72
    15
 73
    11
 74
     0
 42
0.00000001
 43
0.00000001
 40
0.0
 40
0.0
 40
0.0
 40
0.0
 40
0.1022030370352187
 40
0.2110233423738748
 40
0.3250996615652079
 40
0.4465020971348875
 40
0.5737877176488538
 40
0.7089007097660632
 40
0.8503578712934009
 40
1.0
 40
1.0
 40
1.0
 40
1.0
 10
961.3197667266338
 20
709.0823789430111
 30
0.0
 10
961.2577577465048
 20
709.081051877508
 30
0.0
 10
961.129724934334
 20
709.0783118239233
 30
0.0
 10
960.93332990181
 20
709.0581369740345
 30
0.0
 10
960.7269488207203
 20
709.0255900153415
 30
0.0
 10
960.5113728308776
 20
708.9808214496977
 30
0.0
 10
960.2859545266422
 20
708.9222361313924
 30
0.0
 10
960.051169610694
 20
708.8520315585339
 30
0.0
 10
959.8065244298957
 20
708.7680955614743
 30
0.0
 10
959.6416839169842
 20
708.704707644339
 30
0.0
 10
959.5569462138131
 20
708.6721225327547
 30
0.0
  0
SPLINE
  5
BB
330
1F
100
AcDbEntity
  8
0
  6
Continuous
 62
     7
370
    25
100
AcDbSpline
210
0.0
220
0.0
230
1.0
 70
     8
 71
     3
 72
    23
 73
    19
 74
     0
 42
0.00000001
 43
0.00000001
 40
0.0
 40
0.0
 40
0.0
 40
0.0
 40
0.0653513820265915
 40
0.1279160318306129
 40
0.1883602055716976
 40
0.2472160772654515
 40
0.3056301291974097
 40
0.3637698398318174
 40
0.4226609139127773
 40
0.4826872940903914
 40
0.543300221239559
 40
0.6041179553231024
 40
0.6649648912652834
 40
0.7274134941125644
 40
0.7914676251494224
 40
0.8580554427290993
 40
0.9270368146149471
 40
1.0
 40
1.0
 40
1.0
 40
1.0
 10
963.2492539061209
 20
707.3163533019855
 30
0.0
 10
963.247748810209
 20
707.3805264485482
 30
0.0
 10
963.2448027991132
 20
707.5061362521029
 30
0.0
 10
963.2207329241351
 20
707.6899058668258
 30
0.0
 10
963.1788655587552
 20
707.8637871063722
 30
0.0
 10
963.1207538331621
 20
708.0286196411654
 30
0.0
 10
963.0469721011996
 20
708.1845589379607
 30
0.0
 10
962.9568091016138
 20
708.3317659327042
 30
0.0
 10
962.8485727634571
 20
708.4683004086435
 30
0.0
 10
962.7249341609688
 20
708.5942262454652
 30
0.0
 10
962.5894872102417
 20
708.710443102318
 30
0.0
 10
962.4399015128769
 20
708.8095152999225
 30
0.0
 10
962.279307394488
 20
708.8928613974124
 30
0.0
 10
962.1096397385592
 20
708.9647882507672
 30
0.0
 10
961.9268628275022
 20
709.0164470973943
 30
0.0
 10
961.7345962392064
 20
709.0552308355478
 30
0.0
 10
961.5307637638991
 20
709.0776659502409
 30
0.0
 10
961.3914021910215
 20
709.0807788379569
 30
0.0
 10
961.3197667266338
 20
709.0823789430111
 30
0.0
  0
SPLINE
  5
BC
330
1F
100
AcDbEntity
  8
0
  6
Continuous
 62
     7
370
    25
100
AcDbSpline
210
0.0
220
0.0
230
1.0
 70
     8
 71
     3
 72
    23
 73
    19
 74
     0
 42
0.00000001
 43
0.00000001
 40
0.0
 40
0.0
 40
0.0
 40
0.0
 40
0.0642072952829856
 40
0.1264246897797424
 40
0.1876802842649215
 40
0.2482164244552124
 40
0.3083050600086125
 40
0.3696609913251417
 40
0.4316985517867803
 40
0.4959468922087639
 40
0.5597580239721203
 40
0.6222954078261592
 40
0.6839106352841717
 40
0.7450924080566215
 40
0.8067402253892936
 40
0.8690866181211993
 40
0.9332900029747978
 40
1.0
 40
1.0
 40
1.0
 40
1.0
 10
961.2188051881722
 20
705.2875071481393
 30
0.0
 10
961.2872816325545
 20
705.2893832119223
 30
0.0
 10
961.4221123118427
 20
705.293077196862
 30
0.0
 10
961.6205383385696
 20
705.3215092244959
 30
0.0
 10
961.8121106224602
 20
705.3652979589133
 30
0.0
 10
961.9949388664807
 20
705.4308290560191
 30
0.0
 10
962.1722223855413
 20
705.5104741267066
 30
0.0
 10
962.3394767179369
 20
705.6126800142858
 30
0.0
 10
962.5015404371156
 20
705.7303029135886
 30
0.0
 10
962.6533761708781
 20
705.8650609251164
 30
0.0
 10
962.7924377691857
 20
706.0135630842461
 30
0.0
 10
962.915308903206
 20
706.1723685549316
 30
0.0
 10
963.0176561338943
 20
706.3417784898868
 30
0.0
 10
963.1039055255966
 20
706.5188599821175
 30
0.0
 10
963.1693987800483
 20
706.7055538270968
 30
0.0
 10
963.2161210228433
 20
706.9009850846337
 30
0.0
 10
963.2435565858569
 20
707.1056364679627
 30
0.0
 10
963.2473307115072
 20
707.2452234617369
 30
0.0
 10
963.2492539061209
 20
707.3163533019855
 30
0.0
  0
SPLINE
  5
BD
330
1F
100
AcDbEntity
  8
0
  6
Continuous
 62
     7
370
    25
100
AcDbSpline
210
0.0
220
0.0
230
1.0
 70
     8
 71
     3
 72
    19
 73
    15
 74
     0
 42
0.00000001
 43
0.00000001
 40
0.0
 40
0.0
 40
0.0
 40
0.0
 40
0.0946872518675519
 40
0.1819941557072738
 40
0.2643769486105144
 40
0.3421798619477726
 40
0.418617610862147
 40
0.4965090753719077
 40
0.5773690916117316
 40
0.6615105924541967
 40
0.7467325508291952
 40
0.8312579843277427
 40
0.9152056162136546
 40
1.0
 40
1.0
 40
1.0
 40
1.0
 10
959.4543821112491
 20
706.7234045840368
 30
0.0
 10
959.4720473852838
 20
706.6471155498683
 30
0.0
 10
959.5060010228628
 20
706.5004837901611
 30
0.0
 10
959.5805284485817
 20
706.2944692956854
 30
0.0
 10
959.6716504496621
 20
706.1108824987117
 30
0.0
 10
959.7800032460445
 20
705.9472948798007
 30
0.0
 10
959.9092604585845
 20
705.8046457431784
 30
0.0
 10
960.0567562961631
 20
705.6775210301778
 30
0.0
 10
960.2221225206184
 20
705.5628350202862
 30
0.0
 10
960.4058784738069
 20
705.4672401238353
 30
0.0
 10
960.5997369408248
 20
705.3857115446351
 30
0.0
 10
960.8026334208467
 20
705.3314219561742
 30
0.0
 10
961.0090433556378
 20
705.2932484868192
 30
0.0
 10
961.1486510589441
 20
705.2894273192726
 30
0.0
 10
961.2188051881722
 20
705.2875071481393
 30
0.0
  0
LINE
  5
BE
330
1F
100
AcDbEntity
  8
0
  6
Continuous
 62
     7
370
    25
100
AcDbLine
 10
958.7364333933
 20
706.723404584
 30
0.0
 11
959.4543821112
 21
706.723404584
 31
0.0
  0
SPLINE
  5
BF
330
1F
100
AcDbEntity
  8
0
  6
Continuous
 62
     7
370
    25
100
AcDbSpline
210
0.0
220
0.0
230
1.0
 70
     8
 71
     3
 72
    23
 73
    19
 74
     0
 42
0.00000001
 43
0.00000001
 40
0.0
 40
0.0
 40
0.0
 40
0.0
 40
0.0654211437588917
 40
0.1287083718818825
 40
0.190236141863539
 40
0.2507244020335384
 40
0.310637179413444
 40
0.370766408289727
 40
0.4316147444123522
 40
0.4935229735663555
 40
0.5558834553775325
 40
0.6173423673185088
 40
0.6786680390972737
 40
0.7407113595451477
 40
0.8029853625127454
 40
0.866802580265518
 40
0.9323471713458863
 40
1.0
 40
1.0
 40
1.0
 40
1.0
 10
961.1771385215055
 20
704.4669943276265
 30
0.0
 10
961.097426108472
 20
704.468573385876
 30
0.0
 10
960.9406013525773
 20
704.4716799964415
 30
0.0
 10
960.7108400564138
 20
704.5041793913078
 30
0.0
 10
960.4897781005429
 20
704.5507254859193
 30
0.0
 10
960.2791950121832
 20
704.6207512455727
 30
0.0
 10
960.0772035522855
 20
704.7084936334361
 30
0.0
 10
959.8865230544824
 20
704.8193877397113
 30
0.0
 10
959.7022812806586
 20
704.9450542625618
 30
0.0
 10
959.5319680538026
 20
705.0933522121954
 30
0.0
 10
959.3738969373006
 20
705.2554451996984
 30
0.0
 10
959.232396345597
 20
705.4313483795058
 30
0.0
 10
959.1063767416275
 20
705.6181585328455
 30
0.0
 10
958.9978561770815
 20
705.8167828850186
 30
0.0
 10
958.9052892712156
 20
706.0266995271617
 30
0.0
 10
958.8325692980117
 20
706.2486949577718
 30
0.0
 10
958.7738759152845
 20
706.4816092524904
 30
0.0
 10
958.74904523991
 20
706.6419601334288
 30
0.0
 10
958.7364333933004
 20
706.7234045840368
 30
0.0
  0
SPLINE
  5
C0
330
1F
100
AcDbEntity
  8
0
  6
Continuous
 62
     7
370
    25
100
AcDbSpline
210
0.0
220
0.0
230
1.0
 70
     8
 71
     3
 72
    31
 73
    27
 74
     0
 42
0.00000001
 43
0.00000001
 40
0.0
 40
0.0
 40
0.0
 40
0.0
 40
0.0440144705761397
 40
0.0874341236677069
 40
0.1301183986578977
 40
0.1725536945581825
 40
0.2145547559681398
 40
0.2562980920971316
 40
0.2984382251332497
 40
0.3408490025880964
 40
0.3827151889670277
 40
0.4239240454075324
 40
0.4642462432504174
 40
0.5040736714617969
 40
0.5438619058684913
 40
0.5835667249796535
 40
0.623094318852334
 40
0.6632290607685858
 40
0.7035512586114698
 40
0.743937894686184
 40
0.7845412548000916
 40
0.8257501112405972
 40
0.8677573633885064
 40
0.9107451640323088
 40
0.9549144468914781
 40
1.0
 40
1.0
 40
1.0
 40
1.0
 10
963.9672026240696
 20
707.2859045840368
 30
0.0
 10
963.9656824520162
 20
707.2207109375179
 30
0.0
 10
963.9626626517193
 20
707.0912046802018
 30
0.0
 10
963.9473058799529
 20
706.8988750786353
 30
0.0
 10
963.917738528949
 20
706.7106171744472
 30
0.0
 10
963.878040873854
 20
706.5264059931015
 30
0.0
 10
963.8265153470758
 20
706.3465902852636
 30
0.0
 10
963.7641403667276
 20
706.170655364288
 30
0.0
 10
963.6878065895622
 20
705.9996962631608
 30
0.0
 10
963.6040777318276
 20
705.8320953602494
 30
0.0
 10
963.5098000677468
 20
705.6716416295186
 30
0.0
 10
963.4051634795435
 20
705.5215868031353
 30
0.0
 10
963.294613785321
 20
705.3796798740383
 30
0.0
 10
963.1756620471307
 20
705.2474427700173
 30
0.0
 10
963.0472026297305
 20
705.1257444434048
 30
0.0
 10
962.9107912769038
 20
705.0138626571055
 30
0.0
 10
962.7675164905513
 20
704.9099053306983
 30
0.0
 10
962.6151616509607
 20
704.8180923131544
 30
0.0
 10
962.4571216899011
 20
704.7336055562337
 30
0.0
 10
962.2911143364371
 20
704.6642946137529
 30
0.0
 10
962.1209184496771
 20
704.6023276924158
 30
0.0
 10
961.9440844483174
 20
704.5529344864465
 30
0.0
 10
961.7610128766242
 20
704.514231504688
 30
0.0
 10
961.5714019612367
 20
704.4879444175966
 30
0.0
 10
961.3762461440394
 20
704.4687982748076
 30
0.0
 10
961.2439604009998
 20
704.4675997446346
 30
0.0
 10
961.1771385215055
 20
704.4669943276265
 30
0.0
  0
SPLINE
  5
C1
330
1F
100
AcDbEntity
  8
0
  6
Continuous
 62
     7
370
    25
100
AcDbSpline
210
0.0
220
0.0
230
1.0
 70
     8
 71
     3
 72
    23
 73
    19
 74
     0
 42
0.00000001
 43
0.00000001
 40
0.0
 40
0.0
 40
0.0
 40
0.0
 40
0.0658076458106948
 40
0.1293942736680564
 40
0.1908940606321907
 40
0.2512810689298363
 40
0.310814964465275
 40
0.3703709874482468
 40
0.4307682625897287
 40
0.4928812506175035
 40
0.55510394815525
 40
0.6160670509938448
 40
0.6772560331746549
 40
0.7382598051991163
 40
0.8007621343762974
 40
0.8647775815744864
 40
0.9310452949994039
 40
1.0
 40
1.0
 40
1.0
 40
1.0
 10
961.4495744189414
 20
709.9028917635239
 30
0.0
 10
961.5389086811408
 20
709.900958196222
 30
0.0
 10
961.714562160741
 20
709.8971563198053
 30
0.0
 10
961.971565468155
 20
709.8606492353612
 30
0.0
 10
962.2168977955108
 20
709.8031865733492
 30
0.0
 10
962.4500460701996
 20
709.7229110950939
 30
0.0
 10
962.6714416145134
 20
709.620260276364
 30
0.0
 10
962.879047469326
 20
709.4920318412604
 30
0.0
 10
963.0759798418673
 20
709.3422413700612
 30
0.0
 10
963.2587057709053
 20
709.1700241998678
 30
0.0
 10
963.4244756181406
 20
708.9804890758628
 30
0.0
 10
963.5702264516651
 20
708.7766996563349
 30
0.0
 10
963.6940266580749
 20
708.5606364285987
 30
0.0
 10
963.7935940977924
 20
708.3302350371972
 30
0.0
 10
963.8731011475661
 20
708.0880426865448
 30
0.0
 10
963.9260199929232
 20
707.8315110692826
 30
0.0
 10
963.9612581848348
 20
707.5630582235377
 30
0.0
 10
963.965195067851
 20
707.3795049205041
 30
0.0
 10
963.9672026240696
 20
707.2859045840368
 30
0.0
  0
SPLINE
  5
C2
330
1F
100
AcDbEntity
  8
0
  6
Continuous
 62
     7
370
    25
100
AcDbSpline
210
0.0
220
0.0
230
1.0
 70
     8
 71
     3
 72
    11
 73
     7
 74
     0
 42
0.00000001
 43
0.00000001
 40
0.0
 40
0.0
 40
0.0
 40
0.0
 40
0.2750683690187423
 40
0.5329014600899371
 40
0.7739734595924488
 40
1.0
 40
1.0
 40
1.0
 40
1.0
 10
960.5072667266337
 20
709.7474430455752
 30
0.0
 10
960.5919658680593
 20
709.7708265239986
 30
0.0
 10
960.7560570585333
 20
709.8161283151071
 30
0.0
 10
960.9982510264504
 20
709.866427218946
 30
0.0
 10
961.2281760629554
 20
709.8967482339344
 30
0.0
 10
961.377376909608
 20
709.9008883722481
 30
0.0
 10
961.4495744189414
 20
709.9028917635239
 30
0.0
  0
LINE
  5
C3
330
1F
100
AcDbEntity
  8
0
  6
Continuous
 62
     7
370
    25
100
AcDbLine
 10
960.9383564702
 20
711.8516097122
 30
0.0
 11
960.5072667266
 21
709.7474430456
 31
0.0
  0
LINE
  5
C4
330
1F
100
AcDbEntity
  8
0
  6
Continuous
 62
     7
370
    25
100
AcDbLine
 10
963.6595103164
 20
711.8516097122
 30
0.0
 11
960.9383564702
 21
711.8516097122
 31
0.0
  0
LINE
  5
C5
330
1F
100
AcDbEntity
  8
0
  6
Continuous
 62
     7
370
    25
100
AcDbLine
 10
963.6595103164
 20
712.6721225328
 30
0.0
 11
963.6595103164
 21
711.8516097122
 31
0.0
  0
LINE
  5
C6
330
1F
100
AcDbEntity
  8
0
  6
Continuous
 62
     7
370
    25
100
AcDbLine
 10
960.3774590343
 20
712.6721225328
 30
0.0
 11
963.6595103164
 21
712.6721225328
 31
0.0
  0
LINE
  5
C7
330
1F
100
AcDbEntity
  8
0
  6
Continuous
 62
     7
370
    25
100
AcDbLine
 10
959.5569462138
 20
708.6721225328
 30
0.0
 11
960.3774590343
 21
712.6721225328
 31
0.0
  0
SPLINE
  5
C8
330
1F
100
AcDbEntity
  8
0
  6
Continuous
 62
     7
370
    25
100
AcDbSpline
210
0.0
220
0.0
230
1.0
 70
     8
 71
     3
 72
    19
 73
    15
 74
     0
 42
0.00000001
 43
0.00000001
 40
0.0
 40
0.0
 40
0.0
 40
0.0
 40
0.0969723103815145
 40
0.1877734389628681
 40
0.2723961390136929
 40
0.3513209973752901
 40
0.4243347744514652
 40
0.4919087840005268
 40
0.554233219796801
 40
0.6112676582441562
 40
0.7163478449915549
 40
0.8145400858216162
 40
0.9084954561491878
 40
1.0
 40
1.0
 40
1.0
 40
1.0
 10
955.826176983044
 20
709.2137891994214
 30
0.0
 10
955.9130019277467
 20
709.1506089490221
 30
0.0
 10
956.0811263994689
 20
709.0282691507296
 30
0.0
 10
956.320343724981
 20
708.8444618820955
 30
0.0
 10
956.5372438577692
 20
708.6646955539256
 30
0.0
 10
956.7325883230724
 20
708.4901181662775
 30
0.0
 10
956.9083069709347
 20
708.3220539536976
 30
0.0
 10
957.0624503324772
 20
708.1584809700859
 30
0.0
 10
957.1965890304135
 20
708.0005710896693
 30
0.0
 10
957.3409986726082
 20
707.7981194880895
 30
0.0
 10
957.4885594029406
 20
707.5494770097481
 30
0.0
 10
957.6152828484862
 20
707.2448410359303
 30
0.0
 10
957.695187642668
 20
706.9390208747944
 30
0.0
 10
957.7056368207981
 20
706.7334738199943
 30
0.0
 10
957.7107923676593
 20
706.6320584301906
 30
0.0
  0
SPLINE
  5
C9
330
1F
100
AcDbEntity
  8
0
  6
Continuous
 62
     7
370
    25
100
AcDbSpline
210
0.0
220
0.0
230
1.0
 70
     8
 71
     3
 72
    15
 73
    11
 74
     0
 42
0.00000001
 43
0.00000001
 40
0.0
 40
0.0
 40
0.0
 40
0.0
 40
0.0525942815291342
 40
0.1249519739750351
 40
0.2180938989285908
 40
0.3335024107325172
 40
0.4687891785044413
 40
0.6249375859645959
 40
0.8016830479282234
 40
0.9999999999999999
 40
0.9999999999999999
 40
0.9999999999999999
 40
0.9999999999999999
 10
954.7508564702235
 20
710.0102635583956
 30
0.0
 10
954.768368178584
 20
709.9946360708167
 30
0.0
 10
954.8099719891826
 20
709.9575087374926
 30
0.0
 10
954.886031248016
 20
709.8967263817356
 30
0.0
 10
954.9864719296845
 20
709.8217486164892
 30
0.0
 10
955.1086712466603
 20
709.728977607404
 30
0.0
 10
955.2548823591791
 20
709.6213628368502
 30
0.0
 10
955.4251213446526
 20
709.5002802947615
 30
0.0
 10
955.617490562561
 20
709.3617992456029
 30
0.0
 10
955.7539977989029
 20
709.2649820099232
 30
0.0
 10
955.826176983044
 20
709.2137891994214
 30
0.0
  0
SPLINE
  5
CA
330
1F
100
AcDbEntity
  8
0
  6
Continuous
 62
     7
370
    25
100
AcDbSpline
210
0.0
220
0.0
230
1.0
 70
     8
 71
     3
 72
    15
 73
    11
 74
     0
 42
0.00000001
 43
0.00000001
 40
0.0
 40
0.0
 40
0.0
 40
0.0
 40
0.1072852142689595
 40
0.2147458609696394
 40
0.3229385595552863
 40
0.4341161625174694
 40
0.5534123109627958
 40
0.6860729848107326
 40
0.8342559920595773
 40
1.0
 40
1.0
 40
1.0
 40
1.0
 10
954.2236128804799
 20
711.0439174045496
 30
0.0
 10
954.2245114556454
 20
711.0010568821714
 30
0.0
 10
954.2263100753236
 20
710.9152657520289
 30
0.0
 10
954.2513953271782
 20
710.7885196447056
 30
0.0
 10
954.2836223647961
 20
710.6620937260344
 30
0.0
 10
954.3346912373754
 20
710.5365563938419
 30
0.0
 10
954.405194788497
 20
710.4097121445797
 30
0.0
 10
954.4977780477117
 20
710.2793767444458
 30
0.0
 10
954.6143799038259
 20
710.1444014103382
 30
0.0
 10
954.7036987892005
 20
710.056613127424
 30
0.0
 10
954.7508564702235
 20
710.0102635583956
 30
0.0
  0
SPLINE
  5
CB
330
1F
100
AcDbEntity
  8
0
  6
Continuous
 62
     7
370
    25
100
AcDbSpline
210
0.0
220
0.0
230
1.0
 70
     8
 71
     3
 72
    15
 73
    11
 74
     0
 42
0.00000001
 43
0.00000001
 40
0.0
 40
0.0
 40
0.0
 40
0.0
 40
0.143073083730364
 40
0.2759029640930093
 40
0.4023708562739935
 40
0.5284136450935952
 40
0.6503563791869531
 40
0.7658950861246936
 40
0.8807741308440219
 40
1.0
 40
1.0
 40
1.0
 40
1.0
 10
955.3966898035569
 20
712.0567379173701
 30
0.0
 10
955.3140463237728
 20
712.05396831748
 30
0.0
 10
955.1546761582543
 20
712.0486274049961
 30
0.0
 10
954.928412761437
 20
711.9902960100437
 30
0.0
 10
954.7247695041497
 20
711.8984517579161
 30
0.0
 10
954.5497922125926
 20
711.7697318079832
 30
0.0
 10
954.4041076936371
 20
711.6172266818458
 30
0.0
 10
954.2987237878887
 20
711.4417321559602
 30
0.0
 10
954.2352948403412
 20
711.2479438071498
 30
0.0
 10
954.2275547725674
 20
711.1127628783917
 30
0.0
 10
954.2236128804799
 20
711.0439174045496
 30
0.0
  0
SPLINE
  5
CC
330
1F
100
AcDbEntity
  8
0
  6
Continuous
 62
     7
370
    25
100
AcDbSpline
210
0.0
220
0.0
230
1.0
 70
     8
 71
     3
 72
    19
 73
    15
 74
     0
 42
0.00000001
 43
0.00000001
 40
0.0
 40
0.0
 40
0.0
 40
0.0
 40
0.0984694310255638
 40
0.1896291011376355
 40
0.2741840894379711
 40
0.3521831609671551
 40
0.4231988731834702
 40
0.4885509460005334
 40
0.5484733460279373
 40
0.601440163617872
 40
0.701198082425766
 40
0.7995918021381874
 40
0.8985450984822276
 40
1.0
 40
1.0
 40
1.0
 40
1.0
 10
956.9591898035568
 20
711.031096891729
 30
0.0
 10
956.919999100763
 20
711.0815853269808
 30
0.0
 10
956.8445269703124
 20
711.1788142486361
 30
0.0
 10
956.7299452860598
 20
711.3149772557362
 30
0.0
 10
956.6219483765277
 20
711.4393577803805
 30
0.0
 10
956.5155474627353
 20
711.5473923587349
 30
0.0
 10
956.4163620193846
 20
711.6449972349358
 30
0.0
 10
956.3200944942486
 20
711.7285623933917
 30
0.0
 10
956.2281302628488
 20
711.7989066115176
 30
0.0
 10
956.1122058956579
 20
711.8739776057099
 30
0.0
 10
955.9665653966335
 20
711.948392470978
 30
0.0
 10
955.783743599515
 20
712.0113617922985
 30
0.0
 10
955.592689256578
 20
712.0492019338271
 30
0.0
 10
955.4625643845992
 20
712.0542051054107
 30
0.0
 10
955.3966898035569
 20
712.0567379173701
 30
0.0
  0
LINE
  5
CD
330
1F
100
AcDbEntity
  8
0
  6
Continuous
 62
     7
370
    25
100
AcDbLine
 10
957.6082282651
 20
711.5230840712
 30
0.0
 11
956.9591898036
 21
711.0310968917
 31
0.0
  0
SPLINE
  5
CE
330
1F
100
AcDbEntity
  8
0
  6
Continuous
 62
     7
370
    25
100
AcDbSpline
210
0.0
220
0.0
230
1.0
 70
     8
 71
     3
 72
    19
 73
    15
 74
     0
 42
0.00000001
 43
0.00000001
 40
0.0
 40
0.0
 40
0.0
 40
0.0
 40
0.1072327993600894
 40
0.2132518127818485
 40
0.3188304473075864
 40
0.4267935306342764
 40
0.4836459507827205
 40
0.5436038220211424
 40
0.6083076495640815
 40
0.6771267602600435
 40
0.7506856360204976
 40
0.8287134184432895
 40
0.9121903482234535
 40
1.0
 40
1.0
 40
1.0
 40
1.0
 10
955.476818008685
 20
712.8772507378828
 30
0.0
 10
955.5710902379376
 20
712.8739991913704
 30
0.0
 10
955.7585676133589
 20
712.8675329031429
 30
0.0
 10
956.0343372489464
 20
712.811309974412
 30
0.0
 10
956.299847457862
 20
712.718279867468
 30
0.0
 10
956.5134320631638
 20
712.6127057920908
 30
0.0
 10
956.6805926607908
 20
712.5072625561747
 30
0.0
 10
956.8080731926511
 20
712.4112172435374
 30
0.0
 10
956.9372559373062
 20
712.3006455667278
 30
0.0
 10
957.069182919772
 20
712.1752530042573
 30
0.0
 10
957.2016187127757
 20
712.0338890017667
 30
0.0
 10
957.3365294607623
 20
711.8775217128315
 30
0.0
 10
957.4742306466154
 20
711.7071067279985
 30
0.0
 10
957.5628154697557
 20
711.585450726274
 30
0.0
 10
957.6082282650952
 20
711.5230840712162
 30
0.0
  0
SPLINE
  5
CF
330
1F
100
AcDbEntity
  8
0
  6
Continuous
 62
     7
370
    25
100
AcDbSpline
210
0.0
220
0.0
230
1.0
 70
     8
 71
     3
 72
    19
 73
    15
 74
     0
 42
0.00000001
 43
0.00000001
 40
0.0
 40
0.0
 40
0.0
 40
0.0
 40
0.0837853706537116
 40
0.1657798879221444
 40
0.246280007893265
 40
0.3274609277363923
 40
0.4087969540320684
 40
0.4897152412309879
 40
0.571376032130052
 40
0.6555233211112774
 40
0.7410194827999741
 40
0.8265467605037614
 40
0.9119888516548341
 40
1.0
 40
1.0
 40
1.0
 40
1.0
 10
953.5056641625312
 20
711.0102635583956
 30
0.0
 10
953.5086474973732
 20
711.0949030431151
 30
0.0
 10
953.5145504003726
 20
711.2623729030809
 30
0.0
 10
953.564471582705
 20
711.5070148012343
 30
0.0
 10
953.6432667682009
 20
711.7405837548743
 30
0.0
 10
953.7536550833131
 20
711.9607673748166
 30
0.0
 10
953.895957604269
 20
712.1618324739895
 30
0.0
 10
954.0606341171039
 20
712.3460918728056
 30
0.0
 10
954.2567746570752
 20
712.5009914893105
 30
0.0
 10
954.4719806531058
 20
712.6363333370573
 30
0.0
 10
954.7075380750091
 20
712.7422668803878
 30
0.0
 10
954.9543744256323
 20
712.8221776921831
 30
0.0
 10
955.2128820188327
 20
712.8674559954768
 30
0.0
 10
955.3879748979718
 20
712.8739537438486
 30
0.0
 10
955.476818008685
 20
712.8772507378828
 30
0.0
  0
SPLINE
  5
D0
330
1F
100
AcDbEntity
  8
0
  6
Continuous
 62
     7
370
    25
100
AcDbSpline
210
0.0
220
0.0
230
1.0
 70
     8
 71
     3
 72
    15
 73
    11
 74
     0
 42
0.00000001
 43
0.00000001
 40
0.0
 40
0.0
 40
0.0
 40
0.0
 40
0.1335067689985127
 40
0.262558978730368
 40
0.3882644471488805
 40
0.5126673546814263
 40
0.6337222699657552
 40
0.7553938601370965
 40
0.877552945091281
 40
1.0
 40
1.0
 40
1.0
 40
1.0
 10
953.9527795471465
 20
709.792314840447
 30
0.0
 10
953.9174137294754
 20
709.8394029246851
 30
0.0
 10
953.8478621026975
 20
709.9320079618731
 30
0.0
 10
953.7560540902058
 20
710.0767504939137
 30
0.0
 10
953.6780217180951
 20
710.224917957706
 30
0.0
 10
953.6168506732123
 20
710.3769085052822
 30
0.0
 10
953.5653393158648
 20
710.5305883427235
 30
0.0
 10
953.5306926170813
 20
710.6879626186085
 30
0.0
 10
953.5089979955594
 20
710.8483251750987
 30
0.0
 10
953.5067763120553
 20
710.9562417479501
 30
0.0
 10
953.5056641625312
 20
711.0102635583956
 30
0.0
  0
SPLINE
  5
D1
330
1F
100
AcDbEntity
  8
0
  6
Continuous
 62
     7
370
    25
100
AcDbSpline
210
0.0
220
0.0
230
1.0
 70
     8
 71
     3
 72
    15
 73
    11
 74
     0
 42
0.00000001
 43
0.00000001
 40
0.0
 40
0.0
 40
0.0
 40
0.0
 40
0.1815353013762845
 40
0.3470816724816265
 40
0.4955678164315503
 40
0.6283573018772137
 40
0.7455196699921558
 40
0.8458307507576487
 40
0.9307818073847575
 40
1.0
 40
1.0
 40
1.0
 40
1.0
 10
955.263676983044
 20
708.704173814806
 30
0.0
 10
955.1795078489205
 20
708.7641248722216
 30
0.0
 10
955.01858287388
 20
708.8787467287812
 30
0.0
 10
954.7935346856598
 20
709.0488593779552
 30
0.0
 10
954.5922901987799
 20
709.2043882226224
 30
0.0
 10
954.4157438752981
 20
709.3467973931424
 30
0.0
 10
954.2639733682213
 20
709.4761062039536
 30
0.0
 10
954.1357827144748
 20
709.5910729219928
 30
0.0
 10
954.0344374411135
 20
709.6948067754062
 30
0.0
 10
953.9780818281797
 20
709.7621012708237
 30
0.0
 10
953.9527795471465
 20
709.792314840447
 30
0.0
  0
SPLINE
  5
D2
330
1F
100
AcDbEntity
  8
0
  6
Continuous
 62
     7
370
    25
100
AcDbSpline
210
0.0
220
0.0
230
1.0
 70
     8
 71
     3
 72
    15
 73
    11
 74
     0
 42
0.00000001
 43
0.00000001
 40
0.0
 40
0.0
 40
0.0
 40
0.0
 40
0.0902792146500128
 40
0.1895299184469584
 40
0.299197872400291
 40
0.4189258867738208
 40
0.5483762854012472
 40
0.6881363695386807
 40
0.8390835016589234
 40
0.9999999999999999
 40
0.9999999999999999
 40
0.9999999999999999
 40
0.9999999999999999
 10
956.7059846753516
 20
707.4285327891649
 30
0.0
 10
956.6701661286531
 20
707.4743541002583
 30
0.0
 10
956.5949695702762
 20
707.5705502112714
 30
0.0
 10
956.4656952557779
 20
707.7137393209297
 30
0.0
 10
956.3140012802227
 20
707.8614385642486
 30
0.0
 10
956.145078868996
 20
708.0192878372757
 30
0.0
 10
955.9527746659318
 20
708.1799456582769
 30
0.0
 10
955.7431117758674
 20
708.3510731507088
 30
0.0
 10
955.5107372410877
 20
708.5261624696726
 30
0.0
 10
955.3477669631037
 20
708.6435854766362
 30
0.0
 10
955.263676983044
 20
708.704173814806
 30
0.0
  0
SPLINE
  5
D3
330
1F
100
AcDbEntity
  8
0
  6
Continuous
 62
     7
370
    25
100
AcDbSpline
210
0.0
220
0.0
230
1.0
 70
     8
 71
     3
 72
    11
 73
     7
 74
     0
 42
0.00000001
 43
0.00000001
 40
0.0
 40
0.0
 40
0.0
 40
0.0
 40
0.2347233736739058
 40
0.4771583189289961
 40
0.7285562842030514
 40
1.0
 40
1.0
 40
1.0
 40
1.0
 10
956.9928436497106
 20
706.6432763789086
 30
0.0
 10
956.9894737966837
 20
706.7098840353827
 30
0.0
 10
956.9826233779111
 20
706.8452876677248
 30
0.0
 10
956.9247228520311
 20
707.0450583030481
 30
0.0
 10
956.8336388592461
 20
707.2427556059607
 30
0.0
 10
956.7496099593491
 20
707.3650442129956
 30
0.0
 10
956.7059846753516
 20
707.4285327891649
 30
0.0
  0
SPLINE
  5
D4
330
1F
100
AcDbEntity
  8
0
  6
Continuous
 62
     7
370
    25
100
AcDbSpline
210
0.0
220
0.0
230
1.0
 70
     8
 71
     3
 72
    19
 73
    15
 74
     0
 42
0.00000001
 43
0.00000001
 40
0.0
 40
0.0
 40
0.0
 40
0.0
 40
0.0912636048966263
 40
0.1809303110850836
 40
0.2700882198317257
 40
0.3601561333877281
 40
0.4483425324981529
 40
0.5326658421383318
 40
0.61383370410705
 40
0.6939815272835572
 40
0.7727159770890079
 40
0.8493351720622504
 40
0.923967326575232
 40
1.0
 40
1.0
 40
1.0
 40
1.0
 10
955.425535957403
 20
705.2875071481393
 30
0.0
 10
955.4956773528578
 20
705.28946068531
 30
0.0
 10
955.6347328341086
 20
705.2933335773399
 30
0.0
 10
955.8394465323055
 20
705.3305468391671
 30
0.0
 10
956.0382620803422
 20
705.3877174195409
 30
0.0
 10
956.2270818237263
 20
705.4695938344173
 30
0.0
 10
956.4033003712269
 20
705.5686532303603
 30
0.0
 10
956.5578299605677
 20
705.6883016360912
 30
0.0
 10
956.6914210764066
 20
705.8222586777225
 30
0.0
 10
956.80069905256
 20
705.9717047454754
 30
0.0
 10
956.8845391332192
 20
706.1324296565779
 30
0.0
 10
956.948978146735
 20
706.2974032596368
 30
0.0
 10
956.9847383150926
 20
706.4692171299888
 30
0.0
 10
956.9901251801364
 20
706.5848981879266
 30
0.0
 10
956.9928436497106
 20
706.6432763789086
 30
0.0
  0
SPLINE
  5
D5
330
1F
100
AcDbEntity
  8
0
  6
Continuous
 62
     7
370
    25
100
AcDbSpline
210
0.0
220
0.0
230
1.0
 70
     8
 71
     3
 72
    15
 73
    11
 74
     0
 42
0.00000001
 43
0.00000001
 40
0.0
 40
0.0
 40
0.0
 40
0.0
 40
0.1590042985173808
 40
0.3046460998968167
 40
0.4385469045795945
 40
0.5623222987759271
 40
0.6774325425257323
 40
0.7868973929387552
 40
0.8936108891042671
 40
1.0
 40
1.0
 40
1.0
 40
1.0
 10
953.6691257009927
 20
706.6208404814727
 30
0.0
 10
953.7320245289939
 20
706.5155504587364
 30
0.0
 10
953.8525362561442
 20
706.3138188383731
 30
0.0
 10
954.0535679342071
 20
706.0412290316787
 30
0.0
 10
954.2618717311577
 20
705.8095441019439
 30
0.0
 10
954.4789902078422
 20
705.6201118561386
 30
0.0
 10
954.7035980892648
 20
705.4709715435725
 30
0.0
 10
954.9371616406629
 20
705.3653664425016
 30
0.0
 10
955.1788937794319
 20
705.2995013559384
 30
0.0
 10
955.3434053713848
 20
705.2915011580993
 30
0.0
 10
955.425535957403
 20
705.2875071481393
 30
0.0
  0
LINE
  5
D6
330
1F
100
AcDbEntity
  8
0
  6
Continuous
 62
     7
370
    25
100
AcDbLine
 10
952.9928436497
 20
706.2153917635
 30
0.0
 11
953.669125701
 21
706.6208404815
 31
0.0
  0
SPLINE
  5
D7
330
1F
100
AcDbEntity
  8
0
  6
Continuous
 62
     7
370
    25
100
AcDbSpline
210
0.0
220
0.0
230
1.0
 70
     8
 71
     3
 72
    23
 73
    19
 74
     0
 42
0.00000001
 43
0.00000001
 40
0.0
 40
0.0
 40
0.0
 40
0.0
 40
0.0572082694335083
 40
0.1136960596574893
 40
0.1691779164171932
 40
0.2241592165805425
 40
0.2787198783810422
 40
0.3337942174469876
 40
0.3892414593400026
 40
0.4458220733936192
 40
0.5037042811090187
 40
0.5642938918193644
 40
0.6279754158952231
 40
0.6950382596840506
 40
0.7653727258510103
 40
0.8396114430907337
 40
0.9175377500777875
 40
0.9999999999999999
 40
0.9999999999999999
 40
0.9999999999999999
 40
0.9999999999999999
 10
955.425535957403
 20
704.4669943276265
 30
0.0
 10
955.3651123163036
 20
704.4681627427063
 30
0.0
 10
955.2450260076075
 20
704.4704848578817
 30
0.0
 10
955.0674043347545
 20
704.4910134988468
 30
0.0
 10
954.8933709880162
 20
704.5200583070553
 30
0.0
 10
954.7251097719382
 20
704.5661704670024
 30
0.0
 10
954.5604528310428
 20
704.6221178430987
 30
0.0
 10
954.4001162949835
 20
704.691005460466
 30
0.0
 10
954.2440224575986
 20
704.7735590637742
 30
0.0
 10
954.0912965538995
 20
704.8679476914969
 30
0.0
 10
953.9423270119884
 20
704.9777939647851
 30
0.0
 10
953.7985110852937
 20
705.1057333852153
 30
0.0
 10
953.6551300898349
 20
705.2482373966241
 30
0.0
 10
953.5164160410998
 20
705.409175827165
 30
0.0
 10
953.3795631398294
 20
705.5859485879828
 30
0.0
 10
953.2472696323174
 20
705.7802095786054
 30
0.0
 10
953.1167971347653
 20
705.9909006729117
 30
0.0
 10
953.034933208303
 20
706.1391637259856
 30
0.0
 10
952.9928436497106
 20
706.2153917635238
 30
0.0
  0
SPLINE
  5
D8
330
1F
100
AcDbEntity
  8
0
  6
Continuous
 62
     7
370
    25
100
AcDbSpline
210
0.0
220
0.0
230
1.0
 70
     8
 71
     3
 72
    23
 73
    19
 74
     0
 42
0.00000001
 43
0.00000001
 40
0.0
 40
0.0
 40
0.0
 40
0.0
 40
0.0614842551968907
 40
0.1217745277022116
 40
0.180919559813933
 40
0.2402561150782728
 40
0.3001144444023521
 40
0.3611459476126123
 40
0.4235005824125856
 40
0.4886693612807178
 40
0.553954104653561
 40
0.6175812610152627
 40
0.6802384268167389
 40
0.7421873887724534
 40
0.8046632117692932
 40
0.8682589893126615
 40
0.9330202571803751
 40
1.0
 40
1.0
 40
1.0
 40
1.0
 10
957.7107923676593
 20
706.6320584301906
 30
0.0
 10
957.7092903376617
 20
706.5603364528292
 30
0.0
 10
957.7063154460741
 20
706.418285290445
 30
0.0
 10
957.672119071723
 20
706.2097022575716
 30
0.0
 10
957.6220169799229
 20
706.0071174125798
 30
0.0
 10
957.5465033023216
 20
705.8130348698483
 30
0.0
 10
957.4543360834418
 20
705.6239039837146
 30
0.0
 10
957.3373846597481
 20
705.4446859256326
 30
0.0
 10
957.2018242374904
 20
705.2714141574338
 30
0.0
 10
957.0463184891375
 20
705.1087090343364
 30
0.0
 10
956.8761564266998
 20
704.9593463006554
 30
0.0
 10
956.6963079817564
 20
704.8264798744326
 30
0.0
 10
956.5064787864783
 20
704.7156951352433
 30
0.0
 10
956.3076986340595
 20
704.6252932105577
 30
0.0
 10
956.0999218644433
 20
704.5545880276406
 30
0.0
 10
955.8832183585359
 20
704.5033586124844
 30
0.0
 10
955.6572309043197
 20
704.4719169875392
 30
0.0
 10
955.5036298035827
 20
704.468653532763
 30
0.0
 10
955.425535957403
 20
704.4669943276265
 30
0.0
  0
LINE
  5
D9
330
1F
100
AcDbEntity
  8
0
  6
Continuous
 62
     7
370
    25
100
AcDbLine
 10
951.7620744189
 20
712.6721225328
 30
0.0
 11
951.7620744189
 21
704.6721225328
 31
0.0
  0
LINE
  5
DA
330
1F
100
AcDbEntity
  8
0
  6
Continuous
 62
     7
370
    25
100
AcDbLine
 10
951.044125701
 20
712.6721225328
 30
0.0
 11
951.7620744189
 21
712.6721225328
 31
0.0
  0
LINE
  5
DB
330
1F
100
AcDbEntity
  8
0
  6
Continuous
 62
     7
370
    25
100
AcDbLine
 10
951.044125701
 20
704.6721225328
 30
0.0
 11
951.044125701
 21
712.6721225328
 31
0.0
  0
LINE
  5
DC
330
1F
100
AcDbEntity
  8
0
  6
Continuous
 62
     7
370
    25
100
AcDbLine
 10
951.7620744189
 20
704.6721225328
 30
0.0
 11
951.044125701
 21
704.6721225328
 31
0.0
  0
SPLINE
  5
DD
330
1F
100
AcDbEntity
  8
0
  6
Continuous
 62
     7
370
    25
100
AcDbSpline
210
0.0
220
0.0
230
1.0
 70
     8
 71
     3
 72
    11
 73
     7
 74
     0
 42
0.00000001
 43
0.00000001
 40
0.0
 40
0.0
 40
0.0
 40
0.0
 40
0.2629516255674889
 40
0.5157066923583554
 40
0.7621092269531088
 40
1.0
 40
1.0
 40
1.0
 40
1.0
 10
946.6434846753516
 20
705.4028917635239
 30
0.0
 10
946.6875631017725
 20
705.3856130038902
 30
0.0
 10
946.7740107114604
 20
705.3517255085778
 30
0.0
 10
946.9061823221291
 20
705.3139063124382
 30
0.0
 10
947.0375995494691
 20
705.2932379469065
 30
0.0
 10
947.1247257068786
 20
705.2893948997325
 30
0.0
 10
947.1675231368902
 20
705.2875071481393
 30
0.0
  0
SPLINE
  5
DE
330
1F
100
AcDbEntity
  8
0
  6
Continuous
 62
     7
370
    25
100
AcDbSpline
210
0.0
220
0.0
230
1.0
 70
     8
 71
     3
 72
    11
 73
     7
 74
     0
 42
0.00000001
 43
0.00000001
 40
0.0
 40
0.0
 40
0.0
 40
0.0
 40
0.2991842876765383
 40
0.5648989463568057
 40
0.7985478688426153
 40
1.0
 40
1.0
 40
1.0
 40
1.0
 10
945.6210487779158
 20
706.005455866088
 30
0.0
 10
945.7186549013959
 20
705.9381475319377
 30
0.0
 10
945.9029479895792
 20
705.8110606205969
 30
0.0
 10
946.1738152830332
 20
705.6475712481601
 30
0.0
 10
946.4138087756181
 20
705.5073994411719
 30
0.0
 10
946.570798369507
 20
705.435965660391
 30
0.0
 10
946.6434846753516
 20
705.4028917635239
 30
0.0
  0
LINE
  5
DF
330
1F
100
AcDbEntity
  8
0
  6
Continuous
 62
     7
370
    25
100
AcDbLine
 10
945.1979718548
 20
705.3900712507
 30
0.0
 11
945.6210487779
 21
706.0054558661
 31
0.0
  0
SPLINE
  5
E0
330
1F
100
AcDbEntity
  8
0
  6
Continuous
 62
     7
370
    25
100
AcDbSpline
210
0.0
220
0.0
230
1.0
 70
     8
 71
     3
 72
    15
 73
    11
 74
     0
 42
0.00000001
 43
0.00000001
 40
0.0
 40
0.0
 40
0.0
 40
0.0
 40
0.1060709021051298
 40
0.213421680412451
 40
0.3216854881303239
 40
0.4338579390981579
 40
0.5540812827743554
 40
0.6875870439665618
 40
0.8364658500651128
 40
1.0
 40
1.0
 40
1.0
 40
1.0
 10
947.1274590343261
 20
704.4669943276265
 30
0.0
 10
947.0498399297237
 20
704.4694642913502
 30
0.0
 10
946.8936651503303
 20
704.4744340219547
 30
0.0
 10
946.6612292445882
 20
704.5149407946399
 30
0.0
 10
946.4294532997724
 20
704.5773774651458
 30
0.0
 10
946.1971071309947
 20
704.6688119689142
 30
0.0
 10
945.9596002936278
 20
704.7931676225934
 30
0.0
 10
945.7137160726138
 20
704.9558757747741
 30
0.0
 10
945.4562916361364
 20
705.1566335493964
 30
0.0
 10
945.2867298393211
 20
705.3098626822149
 30
0.0
 10
945.1979718548389
 20
705.3900712507034
 30
0.0
  0
SPLINE
  5
E1
330
1F
100
AcDbEntity
  8
0
  6
Continuous
 62
     7
370
    25
100
AcDbSpline
210
0.0
220
0.0
230
1.0
 70
     8
 71
     3
 72
    23
 73
    19
 74
     0
 42
0.00000001
 43
0.00000001
 40
0.0
 40
0.0
 40
0.0
 40
0.0
 40
0.0773606839426998
 40
0.1485419530250431
 40
0.2140077372521318
 40
0.2729945033606874
 40
0.3264091957674675
 40
0.3738804007298073
 40
0.4160199382657597
 40
0.452125519512631
 40
0.5180017107054534
 40
0.5823669297335137
 40
0.6470437823418058
 40
0.7133304210644735
 40
0.7809119703509667
 40
0.8503949591306439
 40
0.9229229735922768
 40
1.0
 40
1.0
 40
1.0
 40
1.0
 10
948.9928436497106
 20
707.2698789430111
 30
0.0
 10
948.9921261214093
 20
707.169981409535
 30
0.0
 10
948.9907483795151
 20
706.9781659553709
 30
0.0
 10
948.9831725840055
 20
706.7018827647614
 30
0.0
 10
948.9691532059336
 20
706.4496069105821
 30
0.0
 10
948.9487303202434
 20
706.2207647460273
 30
0.0
 10
948.9214840737894
 20
706.0160731910837
 30
0.0
 10
948.8903045809437
 20
705.8339506360785
 30
0.0
 10
948.8525610408846
 20
705.6759170764719
 30
0.0
 10
948.7957234035563
 20
705.4984648347853
 30
0.0
 10
948.7025258068795
 20
705.3038504239662
 30
0.0
 10
948.5622582911196
 20
705.0936672225814
 30
0.0
 10
948.3880118992689
 20
704.9098194268093
 30
0.0
 10
948.1861809662996
 20
704.7501560555735
 30
0.0
 10
947.9550014826887
 20
704.6229395271705
 30
0.0
 10
947.6992341246906
 20
704.5316134050909
 30
0.0
 10
947.4204533533808
 20
704.4759085899497
 30
0.0
 10
947.2270837251468
 20
704.4700253782992
 30
0.0
 10
947.1274590343261
 20
704.4669943276265
 30
0.0
  0
LINE
  5
E2
330
1F
100
AcDbEntity
  8
0
  6
Continuous
 62
     7
370
    25
100
AcDbLine
 10
948.9928436497
 20
712.6721225328
 30
0.0
 11
948.9928436497
 21
707.269878943
 31
0.0
  0
LINE
  5
E3
330
1F
100
AcDbEntity
  8
0
  6
Continuous
 62
     7
370
    25
100
AcDbLine
 10
948.2748949318
 20
712.6721225328
 30
0.0
 11
948.9928436497
 21
712.6721225328
 31
0.0
  0
LINE
  5
E4
330
1F
100
AcDbEntity
  8
0
  6
Continuous
 62
     7
370
    25
100
AcDbLine
 10
948.2748949318
 20
707.3500071481
 30
0.0
 11
948.2748949318
 21
712.6721225328
 31
0.0
  0
SPLINE
  5
E5
330
1F
100
AcDbEntity
  8
0
  6
Continuous
 62
     7
370
    25
100
AcDbSpline
210
0.0
220
0.0
230
1.0
 70
     8
 71
     3
 72
    23
 73
    19
 74
     0
 42
0.00000001
 43
0.00000001
 40
0.0
 40
0.0
 40
0.0
 40
0.0
 40
0.0623263659914403
 40
0.1231962451944467
 40
0.1840362202545535
 40
0.2469640854288938
 40
0.3106993957895715
 40
0.3732676370734425
 40
0.436587579967388
 40
0.5021247910366515
 40
0.5390047220341663
 40
0.5832553755259883
 40
0.6344465152828155
 40
0.6926760461021155
 40
0.7585704862865286
 40
0.8316586747921162
 40
0.9119171022748384
 40
1.0
 40
1.0
 40
1.0
 40
1.0
 10
947.1675231368902
 20
705.2875071481393
 30
0.0
 10
947.222798081867
 20
705.2898448279884
 30
0.0
 10
947.3320562676472
 20
705.2944655591235
 30
0.0
 10
947.4908311110944
 20
705.3352639026007
 30
0.0
 10
947.642735182431
 20
705.3975368237751
 30
0.0
 10
947.7823229714162
 20
705.4887169238127
 30
0.0
 10
947.9109752847462
 20
705.5971315996975
 30
0.0
 10
948.0171303146602
 20
705.7282310480776
 30
0.0
 10
948.1056268734828
 20
705.8735247258066
 30
0.0
 10
948.1588833154269
 20
706.0110594774457
 30
0.0
 10
948.1928142228807
 20
706.1364917752129
 30
0.0
 10
948.2143493699828
 20
706.2517675143606
 30
0.0
 10
948.2331805937343
 20
706.386536608077
 30
0.0
 10
948.2495955695091
 20
706.5409599230716
 30
0.0
 10
948.2592057879305
 20
706.7153466250871
 30
0.0
 10
948.2699881258159
 20
706.9091846660689
 30
0.0
 10
948.2738858649923
 20
707.1229627510884
 30
0.0
 10
948.2745483126943
 20
707.2720163554765
 30
0.0
 10
948.2748949317619
 20
707.3500071481393
 30
0.0
  0
LINE
  5
E6
330
1F
100
AcDbEntity
  8
0
  6
Continuous
 62
     7
370
    25
100
AcDbLine
 10
944.3774590343
 20
708.1593020199
 30
0.0
 11
944.3774590343
 21
707.3387891994
 31
0.0
  0
LINE
  5
E7
330
1F
100
AcDbEntity
  8
0
  6
Continuous
 62
     7
370
    25
100
AcDbLine
 10
941.3005359574
 20
708.1593020199
 30
0.0
 11
944.3774590343
 21
708.1593020199
 31
0.0
  0
LINE
  5
E8
330
1F
100
AcDbEntity
  8
0
  6
Continuous
 62
     7
370
    25
100
AcDbLine
 10
941.3005359574
 20
707.3387891994
 30
0.0
 11
941.3005359574
 21
708.1593020199
 31
0.0
  0
LINE
  5
E9
330
1F
100
AcDbEntity
  8
0
  6
Continuous
 62
     7
370
    25
100
AcDbLine
 10
944.3774590343
 20
707.3387891994
 30
0.0
 11
941.3005359574
 21
707.3387891994
 31
0.0
  0
SPLINE
  5
EA
330
1F
100
AcDbEntity
  8
0
  6
Continuous
 62
     7
370
    25
100
AcDbSpline
210
0.0
220
0.0
230
1.0
 70
     8
 71
     3
 72
    31
 73
    27
 74
     0
 42
0.00000001
 43
0.00000001
 40
0.0
 40
0.0
 40
0.0
 40
0.0
 40
0.0337881161627101
 40
0.0671939323738797
 40
0.0998624108568243
 40
0.1325666121262573
 40
0.1651511732547854
 40
0.197913187355792
 40
0.2313190035669613
 40
0.2650832782673723
 40
0.2992553087581143
 40
0.334398566504978
 40
0.3699428235093068
 40
0.4062835607000597
 40
0.4440638196985086
 40
0.4829977068727742
 40
0.5233544466133038
 40
0.5655365896041494
 40
0.609612924065818
 40
0.6563908113764165
 40
0.7058854949364555
 40
0.758324500261731
 40
0.8138317829411497
 40
0.8727945590393887
 40
0.9347222295400733
 40
1.0
 40
1.0
 40
1.0
 40
1.0
 10
920.1803436497107
 20
712.8772507378828
 30
0.0
 10
920.243967600532
 20
712.8761357317671
 30
0.0
 10
920.3704956208651
 20
712.8739183354145
 30
0.0
 10
920.5575593357128
 20
712.852606466764
 30
0.0
 10
920.7403014653461
 20
712.8172438996852
 30
0.0
 10
920.9179429252399
 20
712.7671388149248
 30
0.0
 10
921.0919428943091
 20
712.7049772682748
 30
0.0
 10
921.2609403974991
 20
712.6270638577396
 30
0.0
 10
921.4259851555381
 20
712.5363693038092
 30
0.0
 10
921.5844543841549
 20
712.4298004413941
 30
0.0
 10
921.7380877906602
 20
712.3109838100871
 30
0.0
 10
921.8831117060251
 20
712.1766691385367
 30
0.0
 10
922.0195393309336
 20
712.0282126373513
 30
0.0
 10
922.1490828861021
 20
711.8672026627532
 30
0.0
 10
922.2680671082718
 20
711.6905510402765
 30
0.0
 10
922.3813778105242
 20
711.5013302178443
 30
0.0
 10
922.4827996068708
 20
711.2962310983155
 30
0.0
 10
922.5804788644219
 20
711.0786757432502
 30
0.0
 10
922.6647919769688
 20
710.8426445231207
 30
0.0
 10
922.7408291090197
 20
710.5894679276507
 30
0.0
 10
922.8022667514769
 20
710.3161555005574
 30
0.0
 10
922.8534422311068
 20
710.0241412255972
 30
0.0
 10
922.893087707554
 20
709.7123526924769
 30
0.0
 10
922.9219623180192
 20
709.3814582570213
 30
0.0
 10
922.9372150838279
 20
709.0312402212711
 30
0.0
 10
922.940087543729
 20
708.7917937088662
 30
0.0
 10
922.9415615984285
 20
708.6689174045495
 30
0.0
  0
SPLINE
  5
EB
330
1F
100
AcDbEntity
  8
0
  6
Continuous
 62
     7
370
    25
100
AcDbSpline
210
0.0
220
0.0
230
1.0
 70
     8
 71
     3
 72
    31
 73
    27
 74
     0
 42
0.00000001
 43
0.00000001
 40
0.0
 40
0.0
 40
0.0
 40
0.0
 40
0.0685946222587426
 40
0.1332460424433
 40
0.1943125864682571
 40
0.2512792231169659
 40
0.3045134392563465
 40
0.3542349066533259
 40
0.4004805887739901
 40
0.4434107549384916
 40
0.4840148686163447
 40
0.5232523007732017
 40
0.5610423727283598
 40
0.5979002393643987
 40
0.6335184888561961
 40
0.6683143511696518
 40
0.7024956712863809
 40
0.7366853535134579
 40
0.7702931693607888
 40
0.8034372550192478
 40
0.8359129516660281
 40
0.8684602457892902
 40
0.9008465382431822
 40
0.9334665246307076
 40
0.9662575752981226
 40
1.0
 40
1.0
 40
1.0
 40
1.0
 10
917.5056641625312
 20
708.6689174045495
 30
0.0
 10
917.5064139183197
 20
708.797140005085
 30
0.0
 10
917.5078703297455
 20
709.0462142547935
 30
0.0
 10
917.5240724347565
 20
709.4091505795176
 30
0.0
 10
917.5509875029007
 20
709.7496312400781
 30
0.0
 10
917.5878729265586
 20
710.0676725338801
 30
0.0
 10
917.6327597384982
 20
710.3633565670635
 30
0.0
 10
917.6926808507297
 20
710.6358931548036
 30
0.0
 10
917.760824399564
 20
710.8865436842049
 30
0.0
 10
917.8398014185594
 20
711.1161255092929
 30
0.0
 10
917.9289163648871
 20
711.3277316876294
 30
0.0
 10
918.0259089608232
 20
711.5252750048721
 30
0.0
 10
918.1346284909342
 20
711.7084565645059
 30
0.0
 10
918.2488614347677
 20
711.8802000854658
 30
0.0
 10
918.3732318842026
 20
712.0376942449911
 30
0.0
 10
918.5042005481278
 20
712.1831631878906
 30
0.0
 10
918.6468791224527
 20
712.3132449032365
 30
0.0
 10
918.7964174270776
 20
712.4317507372596
 30
0.0
 10
918.9541693456873
 20
712.5356352439383
 30
0.0
 10
919.1156382968718
 20
712.6271386464886
 30
0.0
 10
919.2819356816854
 20
712.7053097716488
 30
0.0
 10
919.4535155283093
 20
712.766773625042
 30
0.0
 10
919.6288356606285
 20
712.817541274808
 30
0.0
 10
919.8085089559228
 20
712.8522588694287
 30
0.0
 10
919.9928320734916
 20
712.8741032316902
 30
0.0
 10
920.1172467816017
 20
712.8761916150963
 30
0.0
 10
920.1803436497107
 20
712.8772507378828
 30
0.0
  0
SPLINE
  5
EC
330
1F
100
AcDbEntity
  8
0
  6
Continuous
 62
     7
370
    25
100
AcDbSpline
210
0.0
220
0.0
230
1.0
 70
     8
 71
     3
 72
    31
 73
    27
 74
     0
 42
0.00000001
 43
0.00000001
 40
0.0
 40
0.0
 40
0.0
 40
0.0
 40
0.0337871463469916
 40
0.0666216577242942
 40
0.0992848780959728
 40
0.1313611650426511
 40
0.1635851875953436
 40
0.196103926987069
 40
0.2289022543238179
 40
0.2621580559050076
 40
0.2959912222583162
 40
0.3302178457247995
 40
0.3650598258919541
 40
0.4009507373401081
 40
0.4376203820767381
 40
0.4757075294370928
 40
0.5153806916250498
 40
0.556413541493165
 40
0.5997648298727323
 40
0.6464241555840875
 40
0.6964314445175676
 40
0.7497815178015587
 40
0.8065733069755331
 40
0.8674355315654004
 40
0.9318867532508747
 40
0.9999999999999999
 40
0.9999999999999999
 40
0.9999999999999999
 40
0.9999999999999999
 10
920.1803436497107
 20
704.4669943276265
 30
0.0
 10
920.11724853203
 20
704.4680602829609
 30
0.0
 10
919.9928372754231
 20
704.4701621388178
 30
0.0
 10
919.8084888744187
 20
704.4919078107908
 30
0.0
 10
919.6295575751275
 20
704.5268689609904
 30
0.0
 10
919.4551604230414
 20
704.575821198913
 30
0.0
 10
919.2844026742788
 20
704.6357408247769
 30
0.0
 10
919.1196111619226
 20
704.713806387298
 30
0.0
 10
918.9589535992011
 20
704.803712830626
 30
0.0
 10
918.8028586140169
 20
704.9061023653419
 30
0.0
 10
918.654259388783
 20
705.0234090696355
 30
0.0
 10
918.5123197194943
 20
705.1531560152046
 30
0.0
 10
918.3806053901297
 20
705.2985809553129
 30
0.0
 10
918.2580131715758
 20
705.4573876367019
 30
0.0
 10
918.1415009699856
 20
705.6281150477482
 30
0.0
 10
918.0343252595417
 20
705.8130941861378
 30
0.0
 10
917.9351918788145
 20
706.0115915815426
 30
0.0
 10
917.8445781858579
 20
706.2248896630857
 30
0.0
 10
917.7642383835381
 20
706.4561009267652
 30
0.0
 10
917.6932721935646
 20
706.707870477628
 30
0.0
 10
917.6372398336331
 20
706.9824205030316
 30
0.0
 10
917.5892787928722
 20
707.2775459135581
 30
0.0
 10
917.5505944887727
 20
707.5945148972972
 30
0.0
 10
917.5241846023307
 20
707.9334995331529
 30
0.0
 10
917.5078615965348
 20
708.294288582127
 30
0.0
 10
917.5064100070031
 20
708.5417623519936
 30
0.0
 10
917.5056641625312
 20
708.6689174045495
 30
0.0
  0
SPLINE
  5
ED
330
1F
100
AcDbEntity
  8
0
  6
Continuous
 62
     7
370
    25
100
AcDbSpline
210
0.0
220
0.0
230
1.0
 70
     8
 71
     3
 72
    31
 73
    27
 74
     0
 42
0.00000001
 43
0.00000001
 40
0.0
 40
0.0
 40
0.0
 40
0.0
 40
0.0650632896172783
 40
0.1267731664665233
 40
0.1855157632260796
 40
0.2407646791677159
 40
0.2929797960235991
 40
0.3422503727797682
 40
0.3889192861856598
 40
0.4327756640583109
 40
0.4746284326311178
 40
0.5147746906379528
 40
0.5536058934984424
 40
0.5914264064311745
 40
0.628028119946068
 40
0.6638036341103203
 40
0.6989843361316641
 40
0.7335914893067056
 40
0.7676284691511397
 40
0.8012083477865924
 40
0.8342638397266234
 40
0.8669806947287766
 40
0.8997197415181607
 40
0.9327019124985383
 40
0.9661758834327498
 40
1.0
 40
1.0
 40
1.0
 40
1.0
 10
922.9415615984285
 20
708.6689174045495
 30
0.0
 10
922.9400722623282
 20
708.5465770435418
 30
0.0
 10
922.9371703516733
 20
708.308201839293
 30
0.0
 10
922.9221333076329
 20
707.9595596099906
 30
0.0
 10
922.8925135792243
 20
707.6304212253082
 30
0.0
 10
922.8554621773757
 20
707.3199973111168
 30
0.0
 10
922.8041456905794
 20
707.0295798966415
 30
0.0
 10
922.7410481677192
 20
706.7581640144291
 30
0.0
 10
922.6709902869837
 20
706.5045775649081
 30
0.0
 10
922.58451075759
 20
706.270897995514
 30
0.0
 10
922.4898577053676
 20
706.0538654861089
 30
0.0
 10
922.3868743998239
 20
705.851197718498
 30
0.0
 10
922.276543368771
 20
705.6611033352303
 30
0.0
 10
922.1563405230497
 20
705.4851039136734
 30
0.0
 10
922.0282184357437
 20
705.3219526975067
 30
0.0
 10
921.8894349185025
 20
705.1745295600176
 30
0.0
 10
921.743902152555
 20
705.039282309816
 30
0.0
 10
921.589816630649
 20
704.9189357327598
 30
0.0
 10
921.4288759421183
 20
704.8135990364482
 30
0.0
 10
921.2643980520044
 20
704.7193959498474
 30
0.0
 10
921.0934646043534
 20
704.6434355040191
 30
0.0
 10
920.9199492838288
 20
704.5782125532129
 30
0.0
 10
920.7413701612803
 20
704.5283829489016
 30
0.0
 10
920.5579498397044
 20
704.4939284219975
 30
0.0
 10
920.3706213004389
 20
704.469764196958
 30
0.0
 10
920.2439891516817
 20
704.4679208143858
 30
0.0
 10
920.1803436497107
 20
704.4669943276265
 30
0.0
  0
SPLINE
  5
EE
330
1F
100
AcDbEntity
  8
0
  6
Continuous
 62
     7
370
    25
100
AcDbSpline
210
0.0
220
0.0
230
1.0
 70
     8
 71
     3
 72
    23
 73
    19
 74
     0
 42
0.00000001
 43
0.00000001
 40
0.0
 40
0.0
 40
0.0
 40
0.0
 40
0.072301033995505
 40
0.1397003317393865
 40
0.2022885114847732
 40
0.2605995332222013
 40
0.3131903291553325
 40
0.3617389329854284
 40
0.4057064756322233
 40
0.4455399848948723
 40
0.5188319558616096
 40
0.5897782395835771
 40
0.6588674786561479
 40
0.7284304780610658
 40
0.7972827036081005
 40
0.864815377401444
 40
0.9313637528792686
 40
1.0
 40
1.0
 40
1.0
 40
1.0
 10
933.7829077522748
 20
709.2875071481393
 30
0.0
 10
933.8534192845409
 20
709.2884212578684
 30
0.0
 10
933.9896619342608
 20
709.2901875041495
 30
0.0
 10
934.1869645549666
 20
709.2952469717196
 30
0.0
 10
934.3701074537006
 20
709.3094139281013
 30
0.0
 10
934.5387745007268
 20
709.3235768127976
 30
0.0
 10
934.6927000869363
 20
709.3466044417435
 30
0.0
 10
934.8315431989413
 20
709.3740150084002
 30
0.0
 10
934.9574828490863
 20
709.4030045057635
 30
0.0
 10
935.1027160960268
 20
709.4523061901073
 30
0.0
 10
935.267454263931
 20
709.5251694476706
 30
0.0
 10
935.4430727877126
 20
709.6382479302305
 30
0.0
 10
935.5978944324871
 20
709.7729321661142
 30
0.0
 10
935.7286308615596
 20
709.928340078697
 30
0.0
 10
935.8356285084823
 20
710.0994627892298
 30
0.0
 10
935.909945571692
 20
710.2835699445093
 30
0.0
 10
935.9603393641092
 20
710.4760731034478
 30
0.0
 10
935.9648914357829
 20
710.6082291098244
 30
0.0
 10
935.9672026240696
 20
710.6753276609597
 30
0.0
  0
LINE
  5
EF
330
1F
100
AcDbEntity
  8
0
  6
Continuous
 62
     7
370
    25
100
AcDbLine
 10
933.3005359574
 20
709.2875071481
 30
0.0
 11
933.7829077523
 21
709.2875071481
 31
0.0
  0
LINE
  5
F0
330
1F
100
AcDbEntity
  8
0
  6
Continuous
 62
     7
370
    25
100
AcDbLine
 10
933.3005359574
 20
711.8516097122
 30
0.0
 11
933.3005359574
 21
709.2875071481
 31
0.0
  0
LINE
  5
F1
330
1F
100
AcDbEntity
  8
0
  6
Continuous
 62
     7
370
    25
100
AcDbLine
 10
934.2748949318
 20
711.8516097122
 30
0.0
 11
933.3005359574
 21
711.8516097122
 31
0.0
  0
SPLINE
  5
F2
330
1F
100
AcDbEntity
  8
0
  6
Continuous
 62
     7
370
    25
100
AcDbSpline
210
0.0
220
0.0
230
1.0
 70
     8
 71
     3
 72
    23
 73
    19
 74
     0
 42
0.00000001
 43
0.00000001
 40
0.0
 40
0.0
 40
0.0
 40
0.0
 40
0.0570031325129265
 40
0.1118178691207246
 40
0.164402372218213
 40
0.2158698048987949
 40
0.2668411100818679
 40
0.3174789632053569
 40
0.3699021362727593
 40
0.4234004494436379
 40
0.4797183982994505
 40
0.5392414966442959
 40
0.6024306889434234
 40
0.6710295461473361
 40
0.7444847975608467
 40
0.8234539713786838
 40
0.908740312730665
 40
1.0
 40
1.0
 40
1.0
 40
1.0
 10
935.9672026240696
 20
710.6753276609599
 30
0.0
 10
935.9659999265067
 20
710.7197294244194
 30
0.0
 10
935.9636407039033
 20
710.8068283320824
 30
0.0
 10
935.9443188693776
 20
710.93379828444
 30
0.0
 10
935.9114786992392
 20
711.0532125758964
 30
0.0
 10
935.8692974575475
 20
711.166707685209
 30
0.0
 10
935.8103518833387
 20
711.2707347714268
 30
0.0
 10
935.7409496815055
 20
711.3688906473005
 30
0.0
 10
935.6570966751291
 20
711.4578326324363
 30
0.0
 10
935.5616513890582
 20
711.5409629143
 30
0.0
 10
935.4519173939534
 20
711.614664692124
 30
0.0
 10
935.3279601555092
 20
711.6792150079494
 30
0.0
 10
935.188102607928
 20
711.7311939260748
 30
0.0
 10
935.0347017965419
 20
711.7767165603094
 30
0.0
 10
934.8653964536879
 20
711.8086898033224
 30
0.0
 10
934.6821403316111
 20
711.8353261179673
 30
0.0
 10
934.4834324024066
 20
711.8488866711206
 30
0.0
 10
934.3459578823479
 20
711.8506817862626
 30
0.0
 10
934.274894931762
 20
711.8516097122418
 30
0.0
  0
SPLINE
  5
F3
330
1F
100
AcDbEntity
  8
0
  6
Continuous
 62
     7
370
    25
100
AcDbSpline
210
0.0
220
0.0
230
1.0
 70
     8
 71
     3
 72
    15
 73
    11
 74
     0
 42
0.00000001
 43
0.00000001
 40
0.0
 40
0.0
 40
0.0
 40
0.0
 40
0.1105883385953369
 40
0.224541754053591
 40
0.3425034940501052
 40
0.464324098417359
 40
0.5907560327017657
 40
0.7222274753555105
 40
0.8588428362087219
 40
1.0
 40
1.0
 40
1.0
 40
1.0
 10
921.9207282650952
 20
706.6609045840368
 30
0.0
 10
921.944846591481
 20
706.732286845674
 30
0.0
 10
921.9938171373838
 20
706.8772234496591
 30
0.0
 10
922.0569297642883
 20
707.1020546544146
 30
0.0
 10
922.1066335338968
 20
707.3379466862727
 30
0.0
 10
922.1513497984669
 20
707.5834898102006
 30
0.0
 10
922.1818710690894
 20
707.8404948410828
 30
0.0
 10
922.2064374994511
 20
708.1081665757473
 30
0.0
 10
922.2209076410265
 20
708.3867068322855
 30
0.0
 10
922.222701357761
 20
708.5759525264461
 30
0.0
 10
922.2236128804798
 20
708.6721225327547
 30
0.0
  0
SPLINE
  5
F4
330
1F
100
AcDbEntity
  8
0
  6
Continuous
 62
     7
370
    25
100
AcDbSpline
210
0.0
220
0.0
230
1.0
 70
     8
 71
     3
 72
    19
 73
    15
 74
     0
 42
0.00000001
 43
0.00000001
 40
0.0
 40
0.0
 40
0.0
 40
0.0
 40
0.1128134007444587
 40
0.2253938839207276
 40
0.3395948145626994
 40
0.4596754102248647
 40
0.5217351900879328
 40
0.5839258387389143
 40
0.6481741447653692
 40
0.7138810381130626
 40
0.7810044549073875
 40
0.8514509275565524
 40
0.9240506926641749
 40
1.0
 40
1.0
 40
1.0
 40
1.0
 10
920.2043821112491
 20
705.2875071481393
 30
0.0
 10
920.2929710750336
 20
705.2911592185657
 30
0.0
 10
920.4699660994559
 20
705.2984558192561
 30
0.0
 10
920.7285576312144
 20
705.3688529332544
 30
0.0
 10
920.9795982485452
 20
705.4750690234571
 30
0.0
 10
921.1763341120399
 20
705.6006633215583
 30
0.0
 10
921.326008497186
 20
705.7202709317326
 30
0.0
 10
921.4332473317137
 20
705.8222472707336
 30
0.0
 10
921.5316748709897
 20
705.936432110291
 30
0.0
 10
921.6250281849432
 20
706.0596305009536
 30
0.0
 10
921.7106489293429
 20
706.1941961790652
 30
0.0
 10
921.7885075297892
 20
706.3394820653874
 30
0.0
 10
921.859555181321
 20
706.495891614901
 30
0.0
 10
921.9000330006357
 20
706.6050795900229
 30
0.0
 10
921.9207282650952
 20
706.6609045840368
 30
0.0
  0
SPLINE
  5
F5
330
1F
100
AcDbEntity
  8
0
  6
Continuous
 62
     7
370
    25
100
AcDbSpline
210
0.0
220
0.0
230
1.0
 70
     8
 71
     3
 72
    27
 73
    23
 74
     0
 42
0.00000001
 43
0.00000001
 40
0.0
 40
0.0
 40
0.0
 40
0.0
 40
0.0729510658758663
 40
0.1415836941865471
 40
0.2059264601708679
 40
0.2653013571846065
 40
0.3205972327139291
 40
0.3718165030988106
 40
0.4187897697094522
 40
0.461698728615765
 40
0.5021335821035658
 40
0.540804315292649
 40
0.578180525327968
 40
0.6142968652075143
 40
0.649678243264788
 40
0.6842994600896384
 40
0.7183589527723611
 40
0.7520808646475976
 40
0.8176524386023875
 40
0.8797220764054381
 40
0.9399655597309875
 40
1.0
 40
1.0
 40
1.0
 40
1.0
 10
918.2236128804798
 20
708.6721225327547
 30
0.0
 10
918.2238859023485
 20
708.5652683640602
 30
0.0
 10
918.2244157841848
 20
708.3578854045193
 30
0.0
 10
918.2382585283614
 20
708.0565293794314
 30
0.0
 10
918.257116201503
 20
707.7754543421349
 30
0.0
 10
918.2814391664976
 20
707.5143034016432
 30
0.0
 10
918.3175601917
 20
707.2739605159067
 30
0.0
 10
918.358032849569
 20
707.0527726689005
 30
0.0
 10
918.4072856258414
 20
706.8519104126404
 30
0.0
 10
918.4655599523946
 20
706.6699954167443
 30
0.0
 10
918.5319350310082
 20
706.5039404030407
 30
0.0
 10
918.6044055765398
 20
706.3494233398925
 30
0.0
 10
918.6822586574654
 20
706.2046189137536
 30
0.0
 10
918.7693881444435
 20
706.0708278088985
 30
0.0
 10
918.8642797175384
 20
705.9476137195891
 30
0.0
 10
918.9647900241384
 20
705.832795817138
 30
0.0
 10
919.0746702166919
 20
705.7304027169424
 30
0.0
 10
919.2266787710763
 20
705.6075984768751
 30
0.0
 10
919.4273564269096
 20
705.4806975997789
 30
0.0
 10
919.6802031817235
 20
705.3701922515922
 30
0.0
 10
919.9400167839669
 20
705.3007466368898
 30
0.0
 10
920.1163624984513
 20
705.2919151947067
 30
0.0
 10
920.2043821112491
 20
705.2875071481393
 30
0.0
  0
SPLINE
  5
F6
330
1F
100
AcDbEntity
  8
0
  6
Continuous
 62
     7
370
    25
100
AcDbSpline
210
0.0
220
0.0
230
1.0
 70
     8
 71
     3
 72
    27
 73
    23
 74
     0
 42
0.00000001
 43
0.00000001
 40
0.0
 40
0.0
 40
0.0
 40
0.0
 40
0.0603866193110626
 40
0.1208832485859964
 40
0.1827546186251395
 40
0.2478110297583506
 40
0.2812991000432497
 40
0.3150876241506568
 40
0.3497023955502763
 40
0.3848565811185574
 40
0.4209661972261022
 40
0.4585111882611392
 40
0.4971747221273132
 40
0.5376020478662704
 40
0.580503018420013
 40
0.6274675400267059
 40
0.6783882095592453
 40
0.733983220592561
 40
0.7937467045508348
 40
0.8577136721607319
 40
0.9266978643613873
 40
1.0
 40
1.0
 40
1.0
 40
1.0
 10
920.2043821112491
 20
712.0567379173701
 30
0.0
 10
920.1159007579079
 20
712.0520946107478
 30
0.0
 10
919.9387768593818
 20
712.0427995385102
 30
0.0
 10
919.6771815342921
 20
711.9772149588722
 30
0.0
 10
919.4264287305383
 20
711.8628996081576
 30
0.0
 10
919.2270162169866
 20
711.7372941853807
 30
0.0
 10
919.0741847049693
 20
711.6176637592283
 30
0.0
 10
918.9665671201082
 20
711.5139232928091
 30
0.0
 10
918.8656615836105
 20
711.4004461399744
 30
0.0
 10
918.7727068404388
 20
711.2760989060307
 30
0.0
 10
918.6856456217137
 20
711.1424637807298
 30
0.0
 10
918.6056890215406
 20
710.998489461358
 30
0.0
 10
918.5336494108525
 20
710.8434463431283
 30
0.0
 10
918.4671704710121
 20
710.6774659193134
 30
0.0
 10
918.408718384095
 20
710.4955666177465
 30
0.0
 10
918.3605036109979
 20
710.294951775247
 30
0.0
 10
918.3159617752952
 20
710.0744674511575
 30
0.0
 10
918.284429732094
 20
709.8328228615685
 30
0.0
 10
918.2563982903529
 20
709.5716065110103
 30
0.0
 10
918.2383837807478
 20
709.289829783629
 30
0.0
 10
918.224369477961
 20
708.9879683427092
 30
0.0
 10
918.2238701308461
 20
708.7795131232746
 30
0.0
 10
918.2236128804798
 20
708.6721225327547
 30
0.0
  0
SPLINE
  5
F7
330
1F
100
AcDbEntity
  8
0
  6
Continuous
 62
     7
370
    25
100
AcDbSpline
210
0.0
220
0.0
230
1.0
 70
     8
 71
     3
 72
    27
 73
    23
 74
     0
 42
0.00000001
 43
0.00000001
 40
0.0
 40
0.0
 40
0.0
 40
0.0
 40
0.0656811979906367
 40
0.1284864641740656
 40
0.1881751303280078
 40
0.2451061306699843
 40
0.2994484245294762
 40
0.3508229360093825
 40
0.3999416805337758
 40
0.4466717436323698
 40
0.4912545333734973
 40
0.5333763442704369
 40
0.5738527549682232
 40
0.6125263117194522
 40
0.6495971364453285
 40
0.6855320415538501
 40
0.7201057860682001
 40
0.7538376629736501
 40
0.8189254160467135
 40
0.8804934616501632
 40
0.940311333846057
 40
1.0
 40
1.0
 40
1.0
 40
1.0
 10
922.2236128804798
 20
708.6721225327547
 30
0.0
 10
922.2223553050903
 20
708.7682769842245
 30
0.0
 10
922.2198952187919
 20
708.9563756465801
 30
0.0
 10
922.2104918183321
 20
709.2318457738078
 30
0.0
 10
922.1862093623505
 20
709.4934863701716
 30
0.0
 10
922.159239947803
 20
709.7424245934043
 30
0.0
 10
922.1194748710211
 20
709.9772824281575
 30
0.0
 10
922.0765998838662
 20
710.200025983029
 30
0.0
 10
922.0189971129171
 20
710.4078957540446
 30
0.0
 10
921.9574661986908
 20
710.6041462265283
 30
0.0
 10
921.8870424374761
 20
710.7865477225301
 30
0.0
 10
921.8095207591731
 20
710.9559506627861
 30
0.0
 10
921.726728167701
 20
711.1131728908016
 30
0.0
 10
921.6368030466513
 20
711.2577830429765
 30
0.0
 10
921.5408129139306
 20
711.3904288553448
 30
0.0
 10
921.4362242300506
 20
711.5084507857609
 30
0.0
 10
921.3271856636258
 20
711.6155067128662
 30
0.0
 10
921.1744606674574
 20
711.7377068708585
 30
0.0
 10
920.974519433628
 20
711.8623050319628
 30
0.0
 10
920.7257293825595
 20
711.9769696259293
 30
0.0
 10
920.4668250528426
 20
712.04281715192
 30
0.0
 10
920.291800014918
 20
712.0521010080071
 30
0.0
 10
920.2043821112491
 20
712.0567379173701
 30
0.0
  0
SPLINE
  5
F8
330
1F
100
AcDbEntity
  8
0
  6
Continuous
 62
     7
370
    25
100
AcDbSpline
210
0.0
220
0.0
230
1.0
 70
     8
 71
     3
 72
    23
 73
    19
 74
     0
 42
0.00000001
 43
0.00000001
 40
0.0
 40
0.0
 40
0.0
 40
0.0
 40
0.0712686925865607
 40
0.1398117850281252
 40
0.2064974320993718
 40
0.271535244275538
 40
0.3360818306156445
 40
0.4005283877476353
 40
0.4649838426509132
 40
0.5300503053616132
 40
0.5944234089533958
 40
0.6555827099825238
 40
0.7148491056365311
 40
0.7721150638706
 40
0.8289992113006446
 40
0.8851221627752374
 40
0.9420793532637959
 40
1.0
 40
1.0
 40
1.0
 40
1.0
 10
914.1130359574029
 20
708.6721225327547
 30
0.0
 10
914.0418913046973
 20
708.6708570667723
 30
0.0
 10
913.9023228556493
 20
708.6683745312934
 30
0.0
 10
913.6978498770297
 20
708.6407413874327
 30
0.0
 10
913.501614070202
 20
708.602274203311
 30
0.0
 10
913.3142770725094
 20
708.5439180010824
 30
0.0
 10
913.1359179942103
 20
708.468040309032
 30
0.0
 10
912.9655712911655
 20
708.3767613605787
 30
0.0
 10
912.8045401378723
 20
708.2688632047054
 30
0.0
 10
912.6550481919109
 20
708.1457166550027
 30
0.0
 10
912.5185377244876
 20
708.0130093316629
 30
0.0
 10
912.3987701817553
 20
707.8725244513538
 30
0.0
 10
912.2970615635029
 20
707.7268729477612
 30
0.0
 10
912.2151569900487
 20
707.5742049951232
 30
0.0
 10
912.1479301739145
 20
707.4177533131763
 30
0.0
 10
912.1037841687614
 20
707.2536216669055
 30
0.0
 10
912.0754831137343
 20
707.0849654081778
 30
0.0
 10
912.0716828131078
 20
706.9703137545832
 30
0.0
 10
912.0697667266337
 20
706.9125071481393
 30
0.0
  0
SPLINE
  5
F9
330
1F
100
AcDbEntity
  8
0
  6
Continuous
 62
     7
370
    25
100
AcDbSpline
210
0.0
220
0.0
230
1.0
 70
     8
 71
     3
 72
    23
 73
    19
 74
     0
 42
0.00000001
 43
0.00000001
 40
0.0
 40
0.0
 40
0.0
 40
0.0
 40
0.0765589329940465
 40
0.1491613519791136
 40
0.2188268461269936
 40
0.2855671390889789
 40
0.3503131057192103
 40
0.414125153858077
 40
0.477179161316227
 40
0.5403680185081831
 40
0.6022023899907497
 40
0.662033653731563
 40
0.7199344070495778
 40
0.7759074326823248
 40
0.8311148643832994
 40
0.8866674470119631
 40
0.9425523618334865
 40
1.0
 40
1.0
 40
1.0
 40
1.0
 10
914.0665615984286
 20
705.2875071481393
 30
0.0
 10
914.1414195822501
 20
705.2889444245232
 30
0.0
 10
914.28726693979
 20
705.2917446998171
 30
0.0
 10
914.5000348230951
 20
705.3164630868058
 30
0.0
 10
914.7008223627839
 20
705.3556622289045
 30
0.0
 10
914.8892401877187
 20
705.4126760479504
 30
0.0
 10
915.0673975357914
 20
705.4822759943648
 30
0.0
 10
915.2322737736004
 20
705.5718121806767
 30
0.0
 10
915.3881104069859
 20
705.673646061932
 30
0.0
 10
915.5272284018274
 20
705.7944647054678
 30
0.0
 10
915.6539328789532
 20
705.9235606933898
 30
0.0
 10
915.7644089760944
 20
706.0602236491467
 30
0.0
 10
915.860311950224
 20
706.2007393800596
 30
0.0
 10
915.9355827062353
 20
706.348283345061
 30
0.0
 10
915.9957570005703
 20
706.500024864142
 30
0.0
 10
916.0390108398617
 20
706.6573631756161
 30
0.0
 10
916.0656993318771
 20
706.8207808509385
 30
0.0
 10
916.0683985221559
 20
706.9316358706
 30
0.0
 10
916.0697667266338
 20
706.9878276609599
 30
0.0
  0
SPLINE
  5
FA
330
1F
100
AcDbEntity
  8
0
  6
Continuous
 62
     7
370
    25
100
AcDbSpline
210
0.0
220
0.0
230
1.0
 70
     8
 71
     3
 72
    23
 73
    19
 74
     0
 42
0.00000001
 43
0.00000001
 40
0.0
 40
0.0
 40
0.0
 40
0.0
 40
0.0573394259201604
 40
0.1130633316232403
 40
0.1691814487493793
 40
0.2257745596549423
 40
0.2838263038920825
 40
0.3434542790864908
 40
0.4059069615102767
 40
0.4713922597696836
 40
0.5380028337126933
 40
0.6030635561963483
 40
0.6676018307634227
 40
0.7322254428169056
 40
0.7970048098289841
 40
0.8630479900344334
 40
0.930356987057043
 40
1.0
 40
1.0
 40
1.0
 40
1.0
 10
916.0697667266338
 20
706.9878276609599
 30
0.0
 10
916.0676962156997
 20
707.0424044394472
 30
0.0
 10
916.0636135298232
 20
707.150020312924
 30
0.0
 10
916.0377010923963
 20
707.3094866596955
 30
0.0
 10
915.9921790875298
 20
707.4635502349909
 30
0.0
 10
915.929716466133
 20
707.6140645342422
 30
0.0
 10
915.8465599800126
 20
707.7579798502013
 30
0.0
 10
915.748628848586
 20
707.8990453846311
 30
0.0
 10
915.6304708631163
 20
708.0333458294233
 30
0.0
 10
915.4969563576292
 20
708.1619243345916
 30
0.0
 10
915.3514501617191
 20
708.2808174470789
 30
0.0
 10
915.1967824020521
 20
708.3859933067556
 30
0.0
 10
915.0341436316269
 20
708.4745695724965
 30
0.0
 10
914.8638780067482
 20
708.5466072761587
 30
0.0
 10
914.6863635931818
 20
708.6032643496602
 30
0.0
 10
914.5017309564352
 20
708.6428437672315
 30
0.0
 10
914.3097639284385
 20
708.6677571451567
 30
0.0
 10
914.1793527952444
 20
708.6706509641723
 30
0.0
 10
914.1130359574029
 20
708.6721225327547
 30
0.0
  0
SPLINE
  5
FB
330
1F
100
AcDbEntity
  8
0
  6
Continuous
 62
     7
370
    25
100
AcDbSpline
210
0.0
220
0.0
230
1.0
 70
     8
 71
     3
 72
    19
 73
    15
 74
     0
 42
0.00000001
 43
0.00000001
 40
0.0
 40
0.0
 40
0.0
 40
0.0
 40
0.0748982079275958
 40
0.1485962943439389
 40
0.2244712347857284
 40
0.3023227423595711
 40
0.3819186179896845
 40
0.4611486955215892
 40
0.542417122724153
 40
0.6267160830665701
 40
0.7145968311855377
 40
0.8049029203553207
 40
0.9001272540718589
 40
1.0
 40
1.0
 40
1.0
 40
1.0
 10
912.0697667266337
 20
706.9125071481393
 30
0.0
 10
912.0728827467046
 20
706.8406650769517
 30
0.0
 10
912.0790648577115
 20
706.6981320864857
 30
0.0
 10
912.1281086035159
 20
706.4874736378366
 30
0.0
 10
912.2068183989592
 20
706.283539798225
 30
0.0
 10
912.3165903211585
 20
706.0879924776693
 30
0.0
 10
912.4525162012508
 20
705.9052493775123
 30
0.0
 10
912.6196624137734
 20
705.7459607475738
 30
0.0
 10
912.807641471488
 20
705.6044259394292
 30
0.0
 10
913.0228137092657
 20
705.4899561487459
 30
0.0
 10
913.2578502031107
 20
705.3985393371298
 30
0.0
 10
913.5126884406358
 20
705.3355542795687
 30
0.0
 10
913.7836711119456
 20
705.2938595369524
 30
0.0
 10
913.9707787513962
 20
705.2896579800515
 30
0.0
 10
914.0665615984286
 20
705.2875071481393
 30
0.0
  0
SPLINE
  5
FC
330
1F
100
AcDbEntity
  8
0
  6
Continuous
 62
     7
370
    25
100
AcDbSpline
210
0.0
220
0.0
230
1.0
 70
     8
 71
     3
 72
    23
 73
    19
 74
     0
 42
0.00000001
 43
0.00000001
 40
0.0
 40
0.0
 40
0.0
 40
0.0
 40
0.0752433085911311
 40
0.1472088117202543
 40
0.2164470898547716
 40
0.2840250416193532
 40
0.3506554491966478
 40
0.415031317841028
 40
0.4796298309645139
 40
0.5446516341371377
 40
0.6080442396977426
 40
0.6678275650288212
 40
0.7251142466493384
 40
0.7809917079106432
 40
0.8355270040618595
 40
0.8894381545415827
 40
0.9440720891799446
 40
1.0
 40
1.0
 40
1.0
 40
1.0
 10
914.0665615984286
 20
712.0567379173701
 30
0.0
 10
914.0104454706997
 20
712.0552489103865
 30
0.0
 10
913.9006577881005
 20
712.0523357616587
 30
0.0
 10
913.7396779684015
 20
712.0371160199489
 30
0.0
 10
913.5865982716965
 20
712.0075086673072
 30
0.0
 10
913.4398192987695
 20
711.9681058980292
 30
0.0
 10
913.3013534422655
 20
711.9148762108649
 30
0.0
 10
913.1693201746729
 20
711.8522590468401
 30
0.0
 10
913.0459665979733
 20
711.7761308971388
 30
0.0
 10
912.9298036197547
 20
711.6907338733527
 30
0.0
 10
912.8252304208584
 20
711.5968072308824
 30
0.0
 10
912.732420017081
 20
711.4989473022408
 30
0.0
 10
912.6553271846257
 20
711.395232120394
 30
0.0
 10
912.5898617915327
 20
711.288241583884
 30
0.0
 10
912.5423611801579
 20
711.1748002667189
 30
0.0
 10
912.5067856284195
 20
711.0583861492269
 30
0.0
 10
912.482736733578
 20
710.9375281285031
 30
0.0
 10
912.4809346992406
 20
710.8549303901223
 30
0.0
 10
912.4800231368902
 20
710.8131481737803
 30
0.0
  0
SPLINE
  5
FD
330
1F
100
AcDbEntity
  8
0
  6
Continuous
 62
     7
370
    25
100
AcDbSpline
210
0.0
220
0.0
230
1.0
 70
     8
 71
     3
 72
    23
 73
    19
 74
     0
 42
0.00000001
 43
0.00000001
 40
0.0
 40
0.0
 40
0.0
 40
0.0
 40
0.0509024376836569
 40
0.1010340427826165
 40
0.1510838170086586
 40
0.2030619875551397
 40
0.2562484343627569
 40
0.3108467145046032
 40
0.3687690999693277
 40
0.4300150403860047
 40
0.4925196472738494
 40
0.5560487215256791
 40
0.6219956829149523
 40
0.6901923690829553
 40
0.7613848549885007
 40
0.8363562199507225
 40
0.915487005327111
 40
1.0
 40
1.0
 40
1.0
 40
1.0
 10
915.6595103163772
 20
710.8291738148059
 30
0.0
 10
915.6582945504798
 20
710.8671807540483
 30
0.0
 10
915.6558814294328
 20
710.9426190807804
 30
0.0
 10
915.6359955872431
 20
711.0540210586937
 30
0.0
 10
915.6031365403728
 20
711.1628886781742
 30
0.0
 10
915.558649500211
 20
711.2701212969349
 30
0.0
 10
915.5001128264478
 20
711.374214398846
 30
0.0
 10
915.4307089693749
 20
711.4768043142961
 30
0.0
 10
915.3464015375911
 20
711.5755832029786
 30
0.0
 10
915.2517811184133
 20
711.6728530281533
 30
0.0
 10
915.1444773272407
 20
711.7628736536883
 30
0.0
 10
915.024696956293
 20
711.8420387056393
 30
0.0
 10
914.8930540982808
 20
711.9092669491888
 30
0.0
 10
914.7495456411912
 20
711.9638698172525
 30
0.0
 10
914.5947001003908
 20
712.0048809021426
 30
0.0
 10
914.4292306730841
 20
712.0355925542115
 30
0.0
 10
914.2517576514579
 20
712.0529025232374
 30
0.0
 10
914.1296325061668
 20
712.0554317243626
 30
0.0
 10
914.0665615984286
 20
712.0567379173701
 30
0.0
  0
SPLINE
  5
FE
330
1F
100
AcDbEntity
  8
0
  6
Continuous
 62
     7
370
    25
100
AcDbSpline
210
0.0
220
0.0
230
1.0
 70
     8
 71
     3
 72
    23
 73
    19
 74
     0
 42
0.00000001
 43
0.00000001
 40
0.0
 40
0.0
 40
0.0
 40
0.0
 40
0.0545639495070586
 40
0.1078262027811416
 40
0.161923708521403
 40
0.2175097010530407
 40
0.2744983327961379
 40
0.3348147646240147
 40
0.3975549470643538
 40
0.4647545773561995
 40
0.5329012097695268
 40
0.6000972138233274
 40
0.6653541614565458
 40
0.7310836277242088
 40
0.7968834939590097
 40
0.8632915901470208
 40
0.930831217509248
 40
1.0
 40
1.0
 40
1.0
 40
1.0
 10
912.4800231368902
 20
710.8131481737803
 30
0.0
 10
912.4815942612614
 20
710.771364152009
 30
0.0
 10
912.4846990287239
 20
710.6887929223742
 30
0.0
 10
912.5087107499207
 20
710.566859514412
 30
0.0
 10
912.5444978465894
 20
710.4470386304486
 30
0.0
 10
912.6008422155633
 20
710.3321794051769
 30
0.0
 10
912.6684224631764
 20
710.218297441318
 30
0.0
 10
912.7518315513124
 20
710.1082389589999
 30
0.0
 10
912.8512350436528
 20
710.001620936456
 30
0.0
 10
912.9632977642906
 20
709.8993502136921
 30
0.0
 10
913.0853812793279
 20
709.803581612344
 30
0.0
 10
913.2147162352865
 20
709.7204429117756
 30
0.0
 10
913.3496794155618
 20
709.6508792306757
 30
0.0
 10
913.4888841451756
 20
709.592983448334
 30
0.0
 10
913.633749167803
 20
709.5479778772643
 30
0.0
 10
913.7833868214074
 20
709.5160495425479
 30
0.0
 10
913.9378222553134
 20
709.4962049783754
 30
0.0
 10
914.0424635827972
 20
709.4938346440673
 30
0.0
 10
914.0954077522747
 20
709.4926353532676
 30
0.0
  0
SPLINE
  5
FF
330
1F
100
AcDbEntity
  8
0
  6
Continuous
 62
     7
370
    25
100
AcDbSpline
210
0.0
220
0.0
230
1.0
 70
     8
 71
     3
 72
    19
 73
    15
 74
     0
 42
0.00000001
 43
0.00000001
 40
0.0
 40
0.0
 40
0.0
 40
0.0
 40
0.0896899362473954
 40
0.1784940104960779
 40
0.2668377532994894
 40
0.3565581760610191
 40
0.4453342496549791
 40
0.5308058350374921
 40
0.6140762174402872
 40
0.6977070858228032
 40
0.7791419498114599
 40
0.8553535905869738
 40
0.9285568200856574
 40
1.0
 40
1.0
 40
1.0
 40
1.0
 10
914.0954077522747
 20
709.4926353532676
 30
0.0
 10
914.1634079895208
 20
709.4946304781805
 30
0.0
 10
914.2987368298409
 20
709.4986010222802
 30
0.0
 10
914.4982324448888
 20
709.5355179908745
 30
0.0
 10
914.6922042035499
 20
709.5935886598023
 30
0.0
 10
914.8785788422715
 20
709.6730400113903
 30
0.0
 10
915.0525321799173
 20
709.7727608339019
 30
0.0
 10
915.2075951930045
 20
709.8921505895348
 30
0.0
 10
915.3424452337887
 20
710.0284525259998
 30
0.0
 10
915.4556809142999
 20
710.1795447220442
 30
0.0
 10
915.5434748489965
 20
710.3403483523481
 30
0.0
 10
915.6118218382336
 20
710.5017204502227
 30
0.0
 10
915.6517331876325
 20
710.6653826924811
 30
0.0
 10
915.6569390550321
 20
710.7750214668977
 30
0.0
 10
915.6595103163772
 20
710.8291738148059
 30
0.0
  0
LINE
  5
100
330
1F
100
AcDbEntity
  8
0
  6
Continuous
 62
     7
370
    25
100
AcDbLine
 10
933.3005359574
 20
708.4669943276
 30
0.0
 11
933.3005359574
 21
705.4926353533
 31
0.0
  0
SPLINE
  5
101
330
1F
100
AcDbEntity
  8
0
  6
Continuous
 62
     7
370
    25
100
AcDbSpline
210
0.0
220
0.0
230
1.0
 70
     8
 71
     3
 72
    23
 73
    19
 74
     0
 42
0.00000001
 43
0.00000001
 40
0.0
 40
0.0
 40
0.0
 40
0.0
 40
0.0725024889330335
 40
0.1397389892678939
 40
0.2017951348259223
 40
0.2598219344148623
 40
0.3122059893845968
 40
0.3607734341243385
 40
0.4045403426007482
 40
0.4436980985527629
 40
0.5168407942439696
 40
0.5878743359442823
 40
0.6579654175616315
 40
0.7289693886473124
 40
0.799307719954883
 40
0.8666357778344734
 40
0.9331163290572758
 40
1.0
 40
1.0
 40
1.0
 40
1.0
 10
934.3229718548388
 20
705.4926353532676
 30
0.0
 10
934.3961579712114
 20
705.4935124901743
 30
0.0
 10
934.5372145622451
 20
705.4952030559276
 30
0.0
 10
934.7408745168073
 20
705.5007220377809
 30
0.0
 10
934.929635896924
 20
705.5132758108074
 30
0.0
 10
935.1026373500199
 20
705.5330377528959
 30
0.0
 10
935.2617469560329
 20
705.5544742081465
 30
0.0
 10
935.4050559915274
 20
705.5832999931104
 30
0.0
 10
935.5337261480109
 20
705.616326188597
 30
0.0
 10
935.6829245657009
 20
705.6673757251343
 30
0.0
 10
935.8509325846287
 20
705.7466819443737
 30
0.0
 10
936.031985970653
 20
705.8662573190439
 30
0.0
 10
936.1929601835536
 20
706.0087105939533
 30
0.0
 10
936.329657918883
 20
706.1735812549216
 30
0.0
 10
936.4416876069881
 20
706.3528528593291
 30
0.0
 10
936.5231857900362
 20
706.5428993735065
 30
0.0
 10
936.5734506053942
 20
706.7405805790345
 30
0.0
 10
936.5795355637712
 20
706.8753616362756
 30
0.0
 10
936.5825872394543
 20
706.942955866088
 30
0.0
  0
SPLINE
  5
102
330
1F
100
AcDbEntity
  8
0
  6
Continuous
 62
     7
370
    25
100
AcDbSpline
210
0.0
220
0.0
230
1.0
 70
     8
 71
     3
 72
    19
 73
    15
 74
     0
 42
0.00000001
 43
0.00000001
 40
0.0
 40
0.0
 40
0.0
 40
0.0
 40
0.0602873979279692
 40
0.1196023547075218
 40
0.1775033710185431
 40
0.2351426637323316
 40
0.2921325932269365
 40
0.3508712086415661
 40
0.4100978625665964
 40
0.4707315215304502
 40
0.5948287040804169
 40
0.722578824094291
 40
0.8566913895440182
 40
1.0
 40
1.0
 40
1.0
 40
1.0
 10
936.5825872394543
 20
706.942955866088
 30
0.0
 10
936.5819561438259
 20
706.9852263586939
 30
0.0
 10
936.5807041321983
 20
707.0690855170599
 30
0.0
 10
936.5618227266585
 20
707.1923216752036
 30
0.0
 10
936.5343624528442
 20
707.3116950999106
 30
0.0
 10
936.4988620325413
 20
707.4275299353043
 30
0.0
 10
936.447160393476
 20
707.537731938385
 30
0.0
 10
936.386802576294
 20
707.6444806458975
 30
0.0
 10
936.3160336582491
 20
707.7479171702947
 30
0.0
 10
936.2057612791232
 20
707.8786880353218
 30
0.0
 10
936.0453681716489
 20
708.0293554933869
 30
0.0
 10
935.8174669706365
 20
708.176869784282
 30
0.0
 10
935.558330289564
 20
708.295836200482
 30
0.0
 10
935.3703817343729
 20
708.3463492892555
 30
0.0
 10
935.2732923676593
 20
708.3724430455752
 30
0.0
  0
SPLINE
  5
103
330
1F
100
AcDbEntity
  8
0
  6
Continuous
 62
     7
370
    25
100
AcDbSpline
210
0.0
220
0.0
230
1.0
 70
     8
 71
     3
 72
    15
 73
    11
 74
     0
 42
0.00000001
 43
0.00000001
 40
0.0
 40
0.0
 40
0.0
 40
0.0
 40
0.0793064855229995
 40
0.1719528189279318
 40
0.2770565073915908
 40
0.394730575864477
 40
0.5261773212767582
 40
0.6713447665976136
 40
0.8292852571892513
 40
1.0
 40
1.0
 40
1.0
 40
1.0
 10
935.2732923676593
 20
708.3724430455752
 30
0.0
 10
935.234368719997
 20
708.3803403803305
 30
0.0
 10
935.1499742231994
 20
708.3974634310397
 30
0.0
 10
935.012356896505
 20
708.415538181644
 30
0.0
 10
934.8552463390141
 20
708.4316411756831
 30
0.0
 10
934.6782797624973
 20
708.4435523932002
 30
0.0
 10
934.4812332685232
 20
708.4558644927386
 30
0.0
 10
934.2636860258132
 20
708.4606526553038
 30
0.0
 10
934.0265264494493
 20
708.466365249803
 30
0.0
 10
933.8619724553928
 20
708.4667792709272
 30
0.0
 10
933.7764974958644
 20
708.4669943276265
 30
0.0
  0
LINE
  5
104
330
1F
100
AcDbEntity
  8
0
  6
Continuous
 62
     7
370
    25
100
AcDbLine
 10
933.7764974959
 20
708.4669943276
 30
0.0
 11
933.3005359574
 21
708.4669943276
 31
0.0
  0
LINE
  5
105
330
1F
100
AcDbEntity
  8
0
  6
Continuous
 62
     7
370
    25
100
AcDbLine
 10
933.3005359574
 20
705.4926353533
 30
0.0
 11
934.3229718548
 21
705.4926353533
 31
0.0
  0
CIRCLE
  5
106
330
1F
100
AcDbEntity
  8
0
  6
Continuous
 62
     7
370
    25
100
AcDbCircle
 10
951.4872798434
 20
785.6360078278
 30
0.0
 40
45.0
  0
CIRCLE
  5
107
330
1F
100
AcDbEntity
  8
0
  6
Continuous
 62
     7
370
    25
100
AcDbCircle
 10
951.4872798434
 20
785.6360078278
 30
0.0
 40
57.50000000000011
  0
ENDSEC
  0
SECTION
  2
OBJECTS
  0
DICTIONARY
  5
C
330
0
100
AcDbDictionary
281
     1
  3
ACAD_DETAILVIEWSTYLE
350
10F
  3
ACAD_GROUP
350
D
  3
ACAD_LAYOUT
350
1A
  3
ACAD_MATERIAL
350
43
  3
ACAD_MLEADERSTYLE
350
5B
  3
ACAD_MLINESTYLE
350
17
  3
ACAD_PLOTSETTINGS
350
19
  3
ACAD_PLOTSTYLENAME
350
E
  3
ACAD_SCALELIST
350
47
  3
ACAD_SECTIONVIEWSTYLE
350
110
  3
ACAD_TABLESTYLE
350
59
  3
ACAD_VISUALSTYLE
350
2A
  3
ACDB_RECOMPOSE_DATA
350
10C
  3
AcDbVariableDictionary
350
108
  0
SUN
  5
5D
330
29
100
AcDbSun
 90
        1
290
     0
 63
     7
421
 16777215
 40
1.0
291
     1
 91
  2455826
 92
 54000000
292
     0
 70
     2
 71
   256
280
     1
  0
DICTIONARY
  5
10F
102
{ACAD_REACTORS
330
C
102
}
330
C
100
AcDbDictionary
281
     1
  0
DICTIONARY
  5
D
102
{ACAD_REACTORS
330
C
102
}
330
C
100
AcDbDictionary
281
     1
  0
DICTIONARY
  5
1A
102
{ACAD_REACTORS
330
C
102
}
330
C
100
AcDbDictionary
281
     1
  3
Layout1
350
1E
  3
Layout2
350
26
  3
Model
350
22
  0
DICTIONARY
  5
43
102
{ACAD_REACTORS
330
C
102
}
330
C
100
AcDbDictionary
281
     1
  3
ByBlock
350
45
  3
ByLayer
350
44
  3
Global
350
46
  0
DICTIONARY
  5
5B
102
{ACAD_REACTORS
330
C
102
}
330
C
100
AcDbDictionary
281
     1
  3
Standard
350
5C
  0
DICTIONARY
  5
17
102
{ACAD_REACTORS
330
C
102
}
330
C
100
AcDbDictionary
281
     1
  3
Standard
350
18
  0
DICTIONARY
  5
19
102
{ACAD_REACTORS
330
C
102
}
330
C
100
AcDbDictionary
281
     1
  0
ACDBDICTIONARYWDFLT
  5
E
102
{ACAD_REACTORS
330
C
102
}
330
C
100
AcDbDictionary
281
     1
  3
Normal
350
F
100
AcDbDictionaryWithDefault
340
F
  0
DICTIONARY
  5
47
102
{ACAD_REACTORS
330
C
102
}
330
C
100
AcDbDictionary
281
     1
  3
A0
350
48
  3
A1
350
49
  3
A2
350
4A
  3
A3
350
4B
  3
A4
350
4C
  3
A5
350
4D
  3
A6
350
4E
  3
A7
350
4F
  3
A8
350
50
  3
A9
350
51
  3
B0
350
52
  3
B1
350
53
  3
B2
350
54
  3
B3
350
55
  3
B4
350
56
  3
B5
350
57
  3
B6
350
58
  0
DICTIONARY
  5
110
102
{ACAD_REACTORS
330
C
102
}
330
C
100
AcDbDictionary
281
     1
  0
DICTIONARY
  5
59
102
{ACAD_REACTORS
330
C
102
}
330
C
100
AcDbDictionary
281
     1
  3
Standard
350
5A
  0
DICTIONARY
  5
2A
102
{ACAD_REACTORS
330
C
102
}
330
C
100
AcDbDictionary
281
     1
  3
2dWireframe
350
2F
  3
Basic
350
32
  3
Brighten
350
36
  3
ColorChange
350
3A
  3
Conceptual
350
34
  3
Dim
350
35
  3
EdgeColorOff
350
3D
  3
Facepattern
350
39
  3
Flat
350
2B
  3
FlatWithEdges
350
2C
  3
Gouraud
350
2D
  3
GouraudWithEdges
350
2E
  3
Hidden
350
31
  3
JitterOff
350
3B
  3
Linepattern
350
38
  3
OverhangOff
350
3C
  3
Realistic
350
33
  3
Shaded
350
42
  3
Shaded with edges
350
41
  3
Shades of Gray
350
3E
  3
Sketchy
350
3F
  3
Thicken
350
37
  3
Wireframe
350
30
  3
X-Ray
350
40
  0
XRECORD
  5
10C
102
{ACAD_REACTORS
330
C
102
}
330
C
100
AcDbXrecord
280
     1
 90
        1
330
5A
  0
DICTIONARY
  5
108
102
{ACAD_REACTORS
330
C
102
}
330
C
100
AcDbDictionary
281
     1
  3
CANNOSCALE
350
109
  3
CENTEREXE
350
111
  3
CENTERLTYPEFILE
350
112
  3
CMLEADERSTYLE
350
10E
  3
CTABLESTYLE
350
10D
  0
LAYOUT
  5
1E
102
{ACAD_REACTORS
330
1A
102
}
330
1A
100
AcDbPlotSettings
  1

  2
none_device
  4

  6

 40
0.0
 41
0.0
 42
0.0
 43
0.0
 44
0.0
 45
0.0
 46
0.0
 47
0.0
 48
0.0
 49
0.0
140
0.0
141
0.0
142
1.0
143
1.0
 70
   688
 72
     1
 73
     0
 74
     5
  7

 75
    16
 76
     0
 77
     2
 78
   300
147
1.0
148
0.0
149
0.0
100
AcDbLayout
  1
Layout1
 70
     1
 71
     1
 10
0.0
 20
0.0
 11
420.0
 21
297.0
 12
0.0
 22
0.0
 32
0.0
 14
1.0000000000E+20
 24
1.0000000000E+20
 34
1.0000000000E+20
 15
-1.0000000000E+20
 25
-1.0000000000E+20
 35
-1.0000000000E+20
146
0.0
 13
0.0
 23
0.0
 33
0.0
 16
1.0
 26
0.0
 36
0.0
 17
0.0
 27
1.0
 37
0.0
 76
     0
330
1B
  0
LAYOUT
  5
26
102
{ACAD_REACTORS
330
1A
102
}
330
1A
100
AcDbPlotSettings
  1

  2
none_device
  4

  6

 40
0.0
 41
0.0
 42
0.0
 43
0.0
 44
0.0
 45
0.0
 46
0.0
 47
0.0
 48
0.0
 49
0.0
140
0.0
141
0.0
142
1.0
143
1.0
 70
   688
 72
     1
 73
     0
 74
     5
  7

 75
    16
 76
     0
 77
     2
 78
   300
147
1.0
148
0.0
149
0.0
100
AcDbLayout
  1
Layout2
 70
     1
 71
     2
 10
0.0
 20
0.0
 11
0.0
 21
0.0
 12
0.0
 22
0.0
 32
0.0
 14
0.0
 24
0.0
 34
0.0
 15
0.0
 25
0.0
 35
0.0
146
0.0
 13
0.0
 23
0.0
 33
0.0
 16
1.0
 26
0.0
 36
0.0
 17
0.0
 27
1.0
 37
0.0
 76
     0
330
23
  0
LAYOUT
  5
22
102
{ACAD_REACTORS
330
1A
102
}
330
1A
100
AcDbPlotSettings
  1

  2
none_device
  4
Letter_(8.50_x_11.00_Inches)
  6

 40
6.35
 41
6.35
 42
6.35000508
 43
6.35000508
 44
215.9
 45
279.4
 46
0.0
 47
0.0
 48
0.0
 49
0.0
140
0.0
141
0.0
142
1.0
143
1.0
 70
  1712
 72
     1
 73
     0
 74
     0
  7

 75
     0
 76
     0
 77
     2
 78
   300
147
1.0
148
0.0
149
0.0
100
AcDbLayout
  1
Model
 70
     1
 71
     0
 10
0.0
 20
0.0
 11
420.0
 21
297.0
 12
0.0
 22
0.0
 32
0.0
 14
0.0
 24
0.0
 34
0.0
 15
420.0
 25
297.0
 35
0.0
146
0.0
 13
0.0
 23
0.0
 33
0.0
 16
1.0
 26
0.0
 36
0.0
 17
0.0
 27
1.0
 37
0.0
 76
     0
330
1F
331
29
  0
MATERIAL
  5
45
102
{ACAD_REACTORS
330
43
102
}
330
43
100
AcDbMaterial
  1
ByBlock
 72
     1
 94
      127
  0
MATERIAL
  5
44
102
{ACAD_REACTORS
330
43
102
}
330
43
100
AcDbMaterial
  1
ByLayer
 72
     1
 94
      127
  0
MATERIAL
  5
46
102
{ACAD_REACTORS
330
43
102
}
330
43
100
AcDbMaterial
  1
Global
 72
     1
 94
      127
  0
MLEADERSTYLE
  5
5C
102
{ACAD_REACTORS
330
5B
102
}
330
5B
100
AcDbMLeaderStyle
179
     2
170
     2
171
     1
172
     0
 90
        2
 40
0.0
 41
0.0
173
     1
 91
-1056964608
340
14
 92
       -2
290
     1
 42
2.0
291
     1
 43
8.0
  3
Standard
341
0
 44
4.0
300

342
11
174
     1
178
     6
175
     1
176
     0
 93
-1056964608
 45
4.0
292
     0
297
     0
 46
4.0
343
0
 94
-1056964608
 47
1.0
 49
1.0
140
1.0
293
     1
141
0.0
294
     1
177
     0
142
1.0
295
     0
296
     0
143
3.75
271
     0
272
     9
273
     9
298
     0
  0
MLINESTYLE
  5
18
102
{ACAD_REACTORS
330
17
102
}
330
17
100
AcDbMlineStyle
  2
Standard
 70
     0
  3

 62
   256
 51
90.0
 52
90.0
 71
     2
 49
0.5
 62
   256
  6
BYLAYER
 49
-0.5
 62
   256
  6
BYLAYER
  0
ACDBPLACEHOLDER
  5
F
102
{ACAD_REACTORS
330
E
102
}
330
E
  0
SCALE
  5
48
102
{ACAD_REACTORS
330
47
102
}
330
47
100
AcDbScale
 70
     0
300
1:1
140
1.0
141
1.0
290
     1
  0
SCALE
  5
49
102
{ACAD_REACTORS
330
47
102
}
330
47
100
AcDbScale
 70
     0
300
1:2
140
1.0
141
2.0
290
     0
  0
SCALE
  5
4A
102
{ACAD_REACTORS
330
47
102
}
330
47
100
AcDbScale
 70
     0
300
1:4
140
1.0
141
4.0
290
     0
  0
SCALE
  5
4B
102
{ACAD_REACTORS
330
47
102
}
330
47
100
AcDbScale
 70
     0
300
1:5
140
1.0
141
5.0
290
     0
  0
SCALE
  5
4C
102
{ACAD_REACTORS
330
47
102
}
330
47
100
AcDbScale
 70
     0
300
1:8
140
1.0
141
8.0
290
     0
  0
SCALE
  5
4D
102
{ACAD_REACTORS
330
47
102
}
330
47
100
AcDbScale
 70
     0
300
1:10
140
1.0
141
10.0
290
     0
  0
SCALE
  5
4E
102
{ACAD_REACTORS
330
47
102
}
330
47
100
AcDbScale
 70
     0
300
1:16
140
1.0
141
16.0
290
     0
  0
SCALE
  5
4F
102
{ACAD_REACTORS
330
47
102
}
330
47
100
AcDbScale
 70
     0
300
1:20
140
1.0
141
20.0
290
     0
  0
SCALE
  5
50
102
{ACAD_REACTORS
330
47
102
}
330
47
100
AcDbScale
 70
     0
300
1:30
140
1.0
141
30.0
290
     0
  0
SCALE
  5
51
102
{ACAD_REACTORS
330
47
102
}
330
47
100
AcDbScale
 70
     0
300
1:40
140
1.0
141
40.0
290
     0
  0
SCALE
  5
52
102
{ACAD_REACTORS
330
47
102
}
330
47
100
AcDbScale
 70
     0
300
1:50
140
1.0
141
50.0
290
     0
  0
SCALE
  5
53
102
{ACAD_REACTORS
330
47
102
}
330
47
100
AcDbScale
 70
     0
300
1:100
140
1.0
141
100.0
290
     0
  0
SCALE
  5
54
102
{ACAD_REACTORS
330
47
102
}
330
47
100
AcDbScale
 70
     0
300
2:1
140
2.0
141
1.0
290
     0
  0
SCALE
  5
55
102
{ACAD_REACTORS
330
47
102
}
330
47
100
AcDbScale
 70
     0
300
4:1
140
4.0
141
1.0
290
     0
  0
SCALE
  5
56
102
{ACAD_REACTORS
330
47
102
}
330
47
100
AcDbScale
 70
     0
300
8:1
140
8.0
141
1.0
290
     0
  0
SCALE
  5
57
102
{ACAD_REACTORS
330
47
102
}
330
47
100
AcDbScale
 70
     0
300
10:1
140
10.0
141
1.0
290
     0
  0
SCALE
  5
58
102
{ACAD_REACTORS
330
47
102
}
330
47
100
AcDbScale
 70
     0
300
100:1
140
100.0
141
1.0
290
     0
  0
TABLESTYLE
  5
5A
102
{ACAD_REACTORS
330
59
102
}
102
{ACAD_XDICTIONARY
360
10A
102
}
330
59
100
AcDbTableStyle
  3
Standard
 70
     0
 71
     0
 40
0.06
 41
0.06
280
     0
281
     0
  7
Standard
140
4.5
170
     2
 62
     0
 63
   257
283
     0
 90
        4
 91
        0
  1

274
    -2
284
     1
 64
     0
275
    -2
285
     1
 65
     0
276
    -2
286
     1
 66
     0
277
    -2
287
     1
 67
     0
278
    -2
288
     1
 68
     0
279
    -2
289
     1
 69
     0
  7
Standard
140
6.0
170
     5
 62
     0
 63
   257
283
     0
 90
        4
 91
        0
  1

274
    -2
284
     1
 64
     0
275
    -2
285
     1
 65
     0
276
    -2
286
     1
 66
     0
277
    -2
287
     1
 67
     0
278
    -2
288
     1
 68
     0
279
    -2
289
     1
 69
     0
  7
Standard
140
4.5
170
     5
 62
     0
 63
   257
283
     0
 90
        4
 91
        0
  1

274
    -2
284
     1
 64
     0
275
    -2
285
     1
 65
     0
276
    -2
286
     1
 66
     0
277
    -2
287
     1
 67
     0
278
    -2
288
     1
 68
     0
279
    -2
289
     1
 69
     0
  0
VISUALSTYLE
  5
2F
102
{ACAD_REACTORS
330
2A
102
}
330
2A
100
AcDbVisualStyle
  2
2dWireframe
 70
     4
177
     3
291
     0
 70
    58
 90
        0
176
     1
 90
        2
176
     1
 90
        0
176
     1
 90
        0
176
     1
 40
0.6
176
     1
 40
30.0
176
     1
 62
     7
420
 16777215
176
     1
 90
        1
176
     1
 90
        4
176
     1
 62
     7
176
     1
 62
   257
176
     1
 90
        1
176
     1
 90
        1
176
     1
 40
1.0
176
     1
 90
        0
176
     1
 62
   257
176
     1
 40
1.0
176
     1
 90
        1
176
     1
 90
        6
176
     1
 90
        2
176
     1
 62
     7
176
     1
 90
        5
176
     1
 90
        0
176
     1
 90
        0
176
     1
290
     0
176
     1
 90
        1
176
     1
 40
0.0
176
     1
 90
        0
176
     1
290
     1
176
     1
290
     1
176
     1
290
     0
176
     1
290
     0
176
     1
290
     0
176
     1
290
     0
176
     1
290
     0
176
     1
290
     0
176
     1
290
     0
176
     1
 90
       50
176
     1
 40
0.0
176
     1
 40
1.0
176
     1
 90
        0
176
     1
 62
    18
420
        0
176
     1
 90
       50
176
     1
 90
        3
176
     1
 62
     5
420
      255
176
     1
290
     0
176
     1
 90
       50
176
     1
 90
       50
176
     1
 90
       50
176
     1
290
     0
176
     1
 90
       50
176
     1
 62
   256
176
     0
 40
1.0
176
     0
 90
        2
176
     1
  1
strokes_ogs.tif
176
     1
290
     0
176
     1
 40
1.0
176
     1
 40
1.0
176
     1
  0
VISUALSTYLE
  5
32
102
{ACAD_REACTORS
330
2A
102
}
330
2A
100
AcDbVisualStyle
  2
Basic
 70
     7
177
     3
291
     1
 70
    58
 90
        1
176
     1
 90
        0
176
     1
 90
        1
176
     1
 90
        0
176
     1
 40
0.6
176
     1
 40
30.0
176
     1
 62
     7
420
 16777215
176
     1
 90
        0
176
     1
 90
        4
176
     1
 62
     7
176
     1
 62
   257
176
     1
 90
        1
176
     1
 90
        1
176
     1
 40
1.0
176
     1
 90
        8
176
     1
 62
     7
176
     1
 40
1.0
176
     1
 90
        1
176
     1
 90
        6
176
     1
 90
        2
176
     1
 62
     7
176
     1
 90
        5
176
     1
 90
        0
176
     1
 90
        0
176
     1
290
     0
176
     1
 90
        1
176
     1
 40
0.0
176
     1
 90
        0
176
     1
290
     0
176
     1
290
     1
176
     1
290
     1
176
     1
290
     0
176
     1
290
     0
176
     1
290
     0
176
     1
290
     0
176
     1
290
     0
176
     1
290
     0
176
     1
 90
       50
176
     1
 40
0.0
176
     1
 40
1.0
176
     1
 90
        0
176
     1
 62
    18
420
        0
176
     1
 90
       50
176
     1
 90
        3
176
     1
 62
     5
420
      255
176
     1
290
     0
176
     1
 90
       50
176
     1
 90
       50
176
     1
 90
       50
176
     1
290
     0
176
     1
 90
       50
176
     1
 62
   256
176
     0
 40
1.0
176
     0
 90
        2
176
     1
  1
strokes_ogs.tif
176
     1
290
     0
176
     1
 40
1.0
176
     1
 40
1.0
176
     1
  0
VISUALSTYLE
  5
36
102
{ACAD_REACTORS
330
2A
102
}
330
2A
100
AcDbVisualStyle
  2
Brighten
 70
    12
177
     3
291
     1
 70
    58
 90
        2
176
     1
 90
        2
176
     1
 90
        0
176
     1
 90
        0
176
     1
 40
0.6
176
     1
 40
30.0
176
     1
 62
     7
420
 16777215
176
     1
 90
        1
176
     1
 90
        4
176
     1
 62
     7
176
     1
 62
   257
176
     1
 90
        1
176
     1
 90
        1
176
     1
 40
1.0
176
     1
 90
        8
176
     1
 62
     7
176
     1
 40
1.0
176
     1
 90
        1
176
     1
 90
        6
176
     1
 90
        2
176
     1
 62
     7
176
     1
 90
        5
176
     1
 90
        0
176
     1
 90
        0
176
     1
290
     0
176
     1
 90
        1
176
     1
 40
50.0
176
     1
 90
        0
176
     1
290
     0
176
     1
290
     1
176
     1
290
     1
176
     1
290
     0
176
     1
290
     0
176
     1
290
     0
176
     1
290
     0
176
     1
290
     0
176
     1
290
     0
176
     1
 90
       50
176
     1
 40
0.0
176
     1
 40
1.0
176
     1
 90
        0
176
     1
 62
    18
420
        0
176
     1
 90
       50
176
     1
 90
        3
176
     1
 62
     5
420
      255
176
     1
290
     0
176
     1
 90
       50
176
     1
 90
       50
176
     1
 90
       50
176
     1
290
     0
176
     1
 90
       50
176
     1
 62
   256
176
     0
 40
1.0
176
     0
 90
        2
176
     1
  1
strokes_ogs.tif
176
     1
290
     0
176
     1
 40
1.0
176
     1
 40
1.0
176
     1
  0
VISUALSTYLE
  5
3A
102
{ACAD_REACTORS
330
2A
102
}
330
2A
100
AcDbVisualStyle
  2
ColorChange
 70
    16
177
     3
291
     1
 70
    58
 90
        2
176
     1
 90
        2
176
     1
 90
        3
176
     1
 90
        0
176
     1
 40
0.6
176
     1
 40
30.0
176
     1
 62
     8
420
  8421504
176
     1
 90
        1
176
     1
 90
        4
176
     1
 62
     7
176
     1
 62
   257
176
     1
 90
        1
176
     1
 90
        1
176
     1
 40
1.0
176
     1
 90
        8
176
     1
 62
     8
420
  8421504
176
     1
 40
1.0
176
     1
 90
        1
176
     1
 90
        6
176
     1
 90
        2
176
     1
 62
     7
176
     1
 90
        5
176
     1
 90
        0
176
     1
 90
        0
176
     1
290
     0
176
     1
 90
        1
176
     1
 40
0.0
176
     1
 90
        0
176
     1
290
     0
176
     1
290
     1
176
     1
290
     1
176
     1
290
     0
176
     1
290
     0
176
     1
290
     0
176
     1
290
     0
176
     1
290
     0
176
     1
290
     0
176
     1
 90
       50
176
     1
 40
0.0
176
     1
 40
1.0
176
     1
 90
        0
176
     1
 62
    18
420
        0
176
     1
 90
       50
176
     1
 90
        3
176
     1
 62
     5
420
      255
176
     1
290
     0
176
     1
 90
       50
176
     1
 90
       50
176
     1
 90
       50
176
     1
290
     0
176
     1
 90
       50
176
     1
 62
   256
176
     0
 40
1.0
176
     0
 90
        2
176
     1
  1
strokes_ogs.tif
176
     1
290
     0
176
     1
 40
1.0
176
     1
 40
1.0
176
     1
  0
VISUALSTYLE
  5
34
102
{ACAD_REACTORS
330
2A
102
}
330
2A
100
AcDbVisualStyle
  2
Conceptual
 70
     9
177
     3
291
     0
 70
    58
 90
        3
176
     1
 90
        2
176
     1
 90
        0
176
     1
 90
        0
176
     1
 40
0.6
176
     1
 40
30.0
176
     1
 62
     7
420
 16777215
176
     1
 90
        2
176
     1
 90
        2
176
     1
 62
     7
176
     1
 62
   257
176
     1
 90
        1
176
     1
 90
        1
176
     1
 40
179.0
176
     1
 90
        8
176
     1
 62
     7
176
     1
 40
1.0
176
     1
 90
        1
176
     1
 90
        6
176
     1
 90
        2
176
     1
 62
     7
176
     1
 90
        3
176
     1
 90
        0
176
     1
 90
        0
176
     1
290
     0
176
     1
 90
        1
176
     1
 40
0.0
176
     1
 90
        0
176
     1
290
     0
176
     1
290
     1
176
     1
290
     1
176
     1
290
     0
176
     1
290
     0
176
     1
290
     0
176
     1
290
     0
176
     1
290
     0
176
     1
290
     0
176
     1
 90
       50
176
     1
 40
0.0
176
     1
 40
1.0
176
     1
 90
        0
176
     1
 62
    18
420
        0
176
     1
 90
       50
176
     1
 90
        3
176
     1
 62
     5
420
      255
176
     1
290
     0
176
     1
 90
       50
176
     1
 90
       50
176
     1
 90
       50
176
     1
290
     0
176
     1
 90
       50
176
     1
 62
   256
176
     0
 40
1.0
176
     0
 90
        2
176
     1
  1
strokes_ogs.tif
176
     1
290
     0
176
     1
 40
1.0
176
     1
 40
1.0
176
     1
  0
VISUALSTYLE
  5
35
102
{ACAD_REACTORS
330
2A
102
}
330
2A
100
AcDbVisualStyle
  2
Dim
 70
    11
177
     3
291
     1
 70
    58
 90
        2
176
     1
 90
        2
176
     1
 90
        0
176
     1
 90
        0
176
     1
 40
0.6
176
     1
 40
30.0
176
     1
 62
     7
420
 16777215
176
     1
 90
        1
176
     1
 90
        4
176
     1
 62
     7
176
     1
 62
   257
176
     1
 90
        1
176
     1
 90
        1
176
     1
 40
1.0
176
     1
 90
        8
176
     1
 62
     7
176
     1
 40
1.0
176
     1
 90
        1
176
     1
 90
        6
176
     1
 90
        2
176
     1
 62
     7
176
     1
 90
        5
176
     1
 90
        0
176
     1
 90
        0
176
     1
290
     0
176
     1
 90
        1
176
     1
 40
-50.0
176
     1
 90
        0
176
     1
290
     0
176
     1
290
     1
176
     1
290
     1
176
     1
290
     0
176
     1
290
     0
176
     1
290
     0
176
     1
290
     0
176
     1
290
     0
176
     1
290
     0
176
     1
 90
       50
176
     1
 40
0.0
176
     1
 40
1.0
176
     1
 90
        0
176
     1
 62
    18
420
        0
176
     1
 90
       50
176
     1
 90
        3
176
     1
 62
     5
420
      255
176
     1
290
     0
176
     1
 90
       50
176
     1
 90
       50
176
     1
 90
       50
176
     1
290
     0
176
     1
 90
       50
176
     1
 62
   256
176
     0
 40
1.0
176
     0
 90
        2
176
     1
  1
strokes_ogs.tif
176
     1
290
     0
176
     1
 40
1.0
176
     1
 40
1.0
176
     1
  0
VISUALSTYLE
  5
3D
102
{ACAD_REACTORS
330
2A
102
}
330
2A
100
AcDbVisualStyle
  2
EdgeColorOff
 70
    22
177
     3
291
     1
 70
    58
 90
        2
176
     0
 90
        2
176
     0
 90
        0
176
     0
 90
        0
176
     0
 40
0.6
176
     0
 40
30.0
176
     0
 62
     7
420
 16777215
176
     0
 90
        1
176
     0
 90
        4
176
     0
 62
     7
176
     0
 62
   257
176
     0
 90
        1
176
     0
 90
        1
176
     0
 40
1.0
176
     0
 90
        8
176
     2
 62
     7
176
     0
 40
1.0
176
     0
 90
        1
176
     0
 90
        6
176
     0
 90
        2
176
     0
 62
     7
176
     0
 90
        5
176
     0
 90
        0
176
     0
 90
        0
176
     0
290
     0
176
     0
 90
        1
176
     0
 40
0.0
176
     0
 90
        0
176
     0
290
     0
176
     0
290
     1
176
     0
290
     1
176
     0
290
     0
176
     0
290
     0
176
     0
290
     0
176
     0
290
     0
176
     0
290
     0
176
     0
290
     0
176
     0
 90
       50
176
     0
 40
0.0
176
     0
 40
1.0
176
     0
 90
        0
176
     0
 62
    18
420
        0
176
     0
 90
       50
176
     0
 90
        3
176
     0
 62
     5
420
      255
176
     0
290
     0
176
     0
 90
       50
176
     0
 90
       50
176
     0
 90
       50
176
     0
290
     0
176
     0
 90
       50
176
     0
 62
   256
176
     0
 40
1.0
176
     0
 90
        2
176
     0
  1
strokes_ogs.tif
176
     0
290
     0
176
     0
 40
1.0
176
     0
 40
1.0
176
     0
  0
VISUALSTYLE
  5
39
102
{ACAD_REACTORS
330
2A
102
}
330
2A
100
AcDbVisualStyle
  2
Facepattern
 70
    15
177
     3
291
     1
 70
    58
 90
        2
176
     1
 90
        2
176
     1
 90
        0
176
     1
 90
        0
176
     1
 40
0.6
176
     1
 40
30.0
176
     1
 62
     7
420
 16777215
176
     1
 90
        1
176
     1
 90
        4
176
     1
 62
     7
176
     1
 62
   257
176
     1
 90
        1
176
     1
 90
        1
176
     1
 40
1.0
176
     1
 90
        8
176
     1
 62
     7
176
     1
 40
1.0
176
     1
 90
        1
176
     1
 90
        6
176
     1
 90
        2
176
     1
 62
     7
176
     1
 90
        5
176
     1
 90
        0
176
     1
 90
        0
176
     1
290
     0
176
     1
 90
        1
176
     1
 40
0.0
176
     1
 90
        0
176
     1
290
     0
176
     1
290
     1
176
     1
290
     1
176
     1
290
     0
176
     1
290
     0
176
     1
290
     0
176
     1
290
     0
176
     1
290
     0
176
     1
290
     0
176
     1
 90
       50
176
     1
 40
0.0
176
     1
 40
1.0
176
     1
 90
        0
176
     1
 62
    18
420
        0
176
     1
 90
       50
176
     1
 90
        3
176
     1
 62
     5
420
      255
176
     1
290
     0
176
     1
 90
       50
176
     1
 90
       50
176
     1
 90
       50
176
     1
290
     0
176
     1
 90
       50
176
     1
 62
   256
176
     0
 40
1.0
176
     0
 90
        2
176
     1
  1
strokes_ogs.tif
176
     1
290
     0
176
     1
 40
1.0
176
     1
 40
1.0
176
     1
  0
VISUALSTYLE
  5
2B
102
{ACAD_REACTORS
330
2A
102
}
330
2A
100
AcDbVisualStyle
  2
Flat
 70
     0
177
     3
291
     1
 70
    58
 90
        2
176
     1
 90
        1
176
     1
 90
        1
176
     1
 90
        2
176
     1
 40
0.6
176
     1
 40
30.0
176
     1
 62
     7
420
 16777215
176
     1
 90
        0
176
     1
 90
        0
176
     1
 62
     7
176
     1
 62
   257
176
     1
 90
        1
176
     1
 90
        1
176
     1
 40
1.0
176
     1
 90
        8
176
     1
 62
     7
176
     1
 40
1.0
176
     1
 90
        1
176
     1
 90
        6
176
     1
 90
        2
176
     1
 62
     7
176
     1
 90
        5
176
     1
 90
        0
176
     1
 90
        0
176
     1
290
     0
176
     1
 90
       13
176
     1
 40
0.0
176
     1
 90
        0
176
     1
290
     0
176
     1
290
     1
176
     1
290
     1
176
     1
290
     0
176
     1
290
     0
176
     1
290
     0
176
     1
290
     0
176
     1
290
     0
176
     1
290
     0
176
     1
 90
       50
176
     1
 40
0.0
176
     1
 40
1.0
176
     1
 90
        0
176
     1
 62
    18
420
        0
176
     1
 90
       50
176
     1
 90
        3
176
     1
 62
     5
420
      255
176
     1
290
     0
176
     1
 90
       50
176
     1
 90
       50
176
     1
 90
       50
176
     1
290
     0
176
     1
 90
       50
176
     1
 62
   256
176
     0
 40
1.0
176
     0
 90
        2
176
     1
  1
strokes_ogs.tif
176
     1
290
     0
176
     1
 40
1.0
176
     1
 40
1.0
176
     1
  0
VISUALSTYLE
  5
2C
102
{ACAD_REACTORS
330
2A
102
}
330
2A
100
AcDbVisualStyle
  2
FlatWithEdges
 70
     1
177
     3
291
     1
 70
    58
 90
        2
176
     1
 90
        1
176
     1
 90
        1
176
     1
 90
        2
176
     1
 40
0.6
176
     1
 40
30.0
176
     1
 62
     7
420
 16777215
176
     1
 90
        1
176
     1
 90
        0
176
     1
 62
     7
176
     1
 62
   257
176
     1
 90
        1
176
     1
 90
        1
176
     1
 40
1.0
176
     1
 90
        0
176
     1
 62
   257
176
     1
 40
1.0
176
     1
 90
        1
176
     1
 90
        6
176
     1
 90
        2
176
     1
 62
     7
176
     1
 90
        5
176
     1
 90
        0
176
     1
 90
        0
176
     1
290
     0
176
     1
 90
       13
176
     1
 40
0.0
176
     1
 90
        0
176
     1
290
     0
176
     1
290
     1
176
     1
290
     1
176
     1
290
     0
176
     1
290
     0
176
     1
290
     0
176
     1
290
     0
176
     1
290
     0
176
     1
290
     0
176
     1
 90
       50
176
     1
 40
0.0
176
     1
 40
1.0
176
     1
 90
        0
176
     1
 62
    18
420
        0
176
     1
 90
       50
176
     1
 90
        3
176
     1
 62
     5
420
      255
176
     1
290
     0
176
     1
 90
       50
176
     1
 90
       50
176
     1
 90
       50
176
     1
290
     0
176
     1
 90
       50
176
     1
 62
   256
176
     0
 40
1.0
176
     0
 90
        2
176
     1
  1
strokes_ogs.tif
176
     1
290
     0
176
     1
 40
1.0
176
     1
 40
1.0
176
     1
  0
VISUALSTYLE
  5
2D
102
{ACAD_REACTORS
330
2A
102
}
330
2A
100
AcDbVisualStyle
  2
Gouraud
 70
     2
177
     3
291
     1
 70
    58
 90
        2
176
     1
 90
        2
176
     1
 90
        1
176
     1
 90
        2
176
     1
 40
0.6
176
     1
 40
30.0
176
     1
 62
     7
420
 16777215
176
     1
 90
        0
176
     1
 90
        0
176
     1
 62
     7
176
     1
 62
   257
176
     1
 90
        1
176
     1
 90
        1
176
     1
 40
1.0
176
     1
 90
        0
176
     1
 62
     7
176
     1
 40
1.0
176
     1
 90
        1
176
     1
 90
        6
176
     1
 90
        2
176
     1
 62
     7
176
     1
 90
        5
176
     1
 90
        0
176
     1
 90
        0
176
     1
290
     0
176
     1
 90
       13
176
     1
 40
0.0
176
     1
 90
        0
176
     1
290
     0
176
     1
290
     1
176
     1
290
     1
176
     1
290
     0
176
     1
290
     0
176
     1
290
     0
176
     1
290
     0
176
     1
290
     0
176
     1
290
     0
176
     1
 90
       50
176
     1
 40
0.0
176
     1
 40
1.0
176
     1
 90
        0
176
     1
 62
    18
420
        0
176
     1
 90
       50
176
     1
 90
        3
176
     1
 62
     5
420
      255
176
     1
290
     0
176
     1
 90
       50
176
     1
 90
       50
176
     1
 90
       50
176
     1
290
     0
176
     1
 90
       50
176
     1
 62
   256
176
     0
 40
1.0
176
     0
 90
        2
176
     1
  1
strokes_ogs.tif
176
     1
290
     0
176
     1
 40
1.0
176
     1
 40
1.0
176
     1
  0
VISUALSTYLE
  5
2E
102
{ACAD_REACTORS
330
2A
102
}
330
2A
100
AcDbVisualStyle
  2
GouraudWithEdges
 70
     3
177
     3
291
     1
 70
    58
 90
        2
176
     1
 90
        2
176
     1
 90
        1
176
     1
 90
        2
176
     1
 40
0.6
176
     1
 40
30.0
176
     1
 62
     7
420
 16777215
176
     1
 90
        1
176
     1
 90
        0
176
     1
 62
     7
176
     1
 62
   257
176
     1
 90
        1
176
     1
 90
        1
176
     1
 40
1.0
176
     1
 90
        0
176
     1
 62
   257
176
     1
 40
1.0
176
     1
 90
        1
176
     1
 90
        6
176
     1
 90
        2
176
     1
 62
     7
176
     1
 90
        5
176
     1
 90
        0
176
     1
 90
        0
176
     1
290
     0
176
     1
 90
       13
176
     1
 40
0.0
176
     1
 90
        0
176
     1
290
     0
176
     1
290
     1
176
     1
290
     1
176
     1
290
     0
176
     1
290
     0
176
     1
290
     0
176
     1
290
     0
176
     1
290
     0
176
     1
290
     0
176
     1
 90
       50
176
     1
 40
0.0
176
     1
 40
1.0
176
     1
 90
        0
176
     1
 62
    18
420
        0
176
     1
 90
       50
176
     1
 90
        3
176
     1
 62
     5
420
      255
176
     1
290
     0
176
     1
 90
       50
176
     1
 90
       50
176
     1
 90
       50
176
     1
290
     0
176
     1
 90
       50
176
     1
 62
   256
176
     0
 40
1.0
176
     0
 90
        2
176
     1
  1
strokes_ogs.tif
176
     1
290
     0
176
     1
 40
1.0
176
     1
 40
1.0
176
     1
  0
VISUALSTYLE
  5
31
102
{ACAD_REACTORS
330
2A
102
}
330
2A
100
AcDbVisualStyle
  2
Hidden
 70
     6
177
     3
291
     0
 70
    58
 90
        1
176
     1
 90
        2
176
     1
 90
        2
176
     1
 90
        0
176
     1
 40
0.6
176
     1
 40
30.0
176
     1
 62
     7
420
 16777215
176
     1
 90
        2
176
     1
 90
        2
176
     1
 62
     7
176
     1
 62
   257
176
     1
 90
        2
176
     1
 90
        1
176
     1
 40
40.0
176
     1
 90
        0
176
     1
 62
   257
176
     1
 40
1.0
176
     1
 90
        1
176
     1
 90
        6
176
     1
 90
        2
176
     1
 62
     7
176
     1
 90
        3
176
     1
 90
        0
176
     1
 90
        0
176
     1
290
     0
176
     1
 90
        1
176
     1
 40
0.0
176
     1
 90
        0
176
     1
290
     0
176
     1
290
     1
176
     1
290
     1
176
     1
290
     0
176
     1
290
     0
176
     1
290
     0
176
     1
290
     0
176
     1
290
     0
176
     1
290
     0
176
     1
 90
       50
176
     1
 40
0.0
176
     1
 40
1.0
176
     1
 90
        0
176
     1
 62
    18
420
        0
176
     1
 90
       50
176
     1
 90
        3
176
     1
 62
     5
420
      255
176
     1
290
     0
176
     1
 90
       50
176
     1
 90
       50
176
     1
 90
       50
176
     1
290
     0
176
     1
 90
       50
176
     1
 62
   256
176
     0
 40
1.0
176
     0
 90
        2
176
     1
  1
strokes_ogs.tif
176
     1
290
     0
176
     1
 40
1.0
176
     1
 40
1.0
176
     1
  0
VISUALSTYLE
  5
3B
102
{ACAD_REACTORS
330
2A
102
}
330
2A
100
AcDbVisualStyle
  2
JitterOff
 70
    20
177
     3
291
     1
 70
    58
 90
        2
176
     0
 90
        2
176
     0
 90
        0
176
     0
 90
        0
176
     0
 40
0.6
176
     0
 40
30.0
176
     0
 62
     7
420
 16777215
176
     0
 90
        1
176
     0
 90
        4
176
     0
 62
     7
176
     0
 62
   257
176
     0
 90
        1
176
     0
 90
        1
176
     0
 40
1.0
176
     0
 90
       10
176
     2
 62
     7
176
     0
 40
1.0
176
     0
 90
        1
176
     0
 90
        6
176
     0
 90
        2
176
     0
 62
     7
176
     0
 90
        5
176
     0
 90
        0
176
     0
 90
        0
176
     0
290
     0
176
     0
 90
        1
176
     0
 40
0.0
176
     0
 90
        0
176
     0
290
     0
176
     0
290
     1
176
     0
290
     1
176
     0
290
     0
176
     0
290
     0
176
     0
290
     0
176
     0
290
     0
176
     0
290
     0
176
     0
290
     0
176
     0
 90
       50
176
     0
 40
0.0
176
     0
 40
1.0
176
     0
 90
        0
176
     0
 62
    18
420
        0
176
     0
 90
       50
176
     0
 90
        3
176
     0
 62
     5
420
      255
176
     0
290
     0
176
     0
 90
       50
176
     0
 90
       50
176
     0
 90
       50
176
     0
290
     0
176
     0
 90
       50
176
     0
 62
   256
176
     0
 40
1.0
176
     0
 90
        2
176
     0
  1
strokes_ogs.tif
176
     0
290
     0
176
     0
 40
1.0
176
     0
 40
1.0
176
     0
  0
VISUALSTYLE
  5
38
102
{ACAD_REACTORS
330
2A
102
}
330
2A
100
AcDbVisualStyle
  2
Linepattern
 70
    14
177
     3
291
     1
 70
    58
 90
        2
176
     1
 90
        2
176
     1
 90
        0
176
     1
 90
        0
176
     1
 40
0.6
176
     1
 40
30.0
176
     1
 62
     7
420
 16777215
176
     1
 90
        1
176
     1
 90
        4
176
     1
 62
     7
176
     1
 62
   257
176
     1
 90
        7
176
     1
 90
        7
176
     1
 40
1.0
176
     1
 90
        8
176
     1
 62
     7
176
     1
 40
1.0
176
     1
 90
        1
176
     1
 90
        6
176
     1
 90
        2
176
     1
 62
     7
176
     1
 90
        5
176
     1
 90
        0
176
     1
 90
        0
176
     1
290
     0
176
     1
 90
        1
176
     1
 40
0.0
176
     1
 90
        0
176
     1
290
     0
176
     1
290
     1
176
     1
290
     1
176
     1
290
     0
176
     1
290
     0
176
     1
290
     0
176
     1
290
     0
176
     1
290
     0
176
     1
290
     0
176
     1
 90
       50
176
     1
 40
0.0
176
     1
 40
1.0
176
     1
 90
        0
176
     1
 62
    18
420
        0
176
     1
 90
       50
176
     1
 90
        3
176
     1
 62
     5
420
      255
176
     1
290
     0
176
     1
 90
       50
176
     1
 90
       50
176
     1
 90
       50
176
     1
290
     0
176
     1
 90
       50
176
     1
 62
   256
176
     0
 40
1.0
176
     0
 90
        2
176
     1
  1
strokes_ogs.tif
176
     1
290
     0
176
     1
 40
1.0
176
     1
 40
1.0
176
     1
  0
VISUALSTYLE
  5
3C
102
{ACAD_REACTORS
330
2A
102
}
330
2A
100
AcDbVisualStyle
  2
OverhangOff
 70
    21
177
     3
291
     1
 70
    58
 90
        2
176
     0
 90
        2
176
     0
 90
        0
176
     0
 90
        0
176
     0
 40
0.6
176
     0
 40
30.0
176
     0
 62
     7
420
 16777215
176
     0
 90
        1
176
     0
 90
        4
176
     0
 62
     7
176
     0
 62
   257
176
     0
 90
        1
176
     0
 90
        1
176
     0
 40
1.0
176
     0
 90
        9
176
     2
 62
     7
176
     0
 40
1.0
176
     0
 90
        1
176
     0
 90
        6
176
     0
 90
        2
176
     0
 62
     7
176
     0
 90
        5
176
     0
 90
        0
176
     0
 90
        0
176
     0
290
     0
176
     0
 90
        1
176
     0
 40
0.0
176
     0
 90
        0
176
     0
290
     0
176
     0
290
     1
176
     0
290
     1
176
     0
290
     0
176
     0
290
     0
176
     0
290
     0
176
     0
290
     0
176
     0
290
     0
176
     0
290
     0
176
     0
 90
       50
176
     0
 40
0.0
176
     0
 40
1.0
176
     0
 90
        0
176
     0
 62
    18
420
        0
176
     0
 90
       50
176
     0
 90
        3
176
     0
 62
     5
420
      255
176
     0
290
     0
176
     0
 90
       50
176
     0
 90
       50
176
     0
 90
       50
176
     0
290
     0
176
     0
 90
       50
176
     0
 62
   256
176
     0
 40
1.0
176
     0
 90
        2
176
     0
  1
strokes_ogs.tif
176
     0
290
     0
176
     0
 40
1.0
176
     0
 40
1.0
176
     0
  0
VISUALSTYLE
  5
33
102
{ACAD_REACTORS
330
2A
102
}
330
2A
100
AcDbVisualStyle
  2
Realistic
 70
     8
177
     3
291
     0
 70
    58
 90
        2
176
     1
 90
        3
176
     1
 90
        0
176
     1
 90
        2
176
     1
 40
0.6
176
     1
 40
30.0
176
     1
 62
     7
420
 16777215
176
     1
 90
        0
176
     1
 90
        0
176
     1
 62
     7
176
     1
 62
   257
176
     1
 90
        1
176
     1
 90
        1
176
     1
 40
1.0
176
     1
 90
        8
176
     1
 62
   257
176
     1
 40
1.0
176
     1
 90
        1
176
     1
 90
        6
176
     1
 90
        2
176
     1
 62
     7
176
     1
 90
        3
176
     1
 90
        0
176
     1
 90
        0
176
     1
290
     0
176
     1
 90
       13
176
     1
 40
0.0
176
     1
 90
        0
176
     1
290
     0
176
     1
290
     1
176
     1
290
     1
176
     1
290
     0
176
     1
290
     0
176
     1
290
     0
176
     1
290
     0
176
     1
290
     0
176
     1
290
     0
176
     1
 90
       50
176
     1
 40
0.0
176
     1
 40
1.0
176
     1
 90
        0
176
     1
 62
    18
420
        0
176
     1
 90
       50
176
     1
 90
        3
176
     1
 62
     5
420
      255
176
     1
290
     0
176
     1
 90
       50
176
     1
 90
       50
176
     1
 90
       50
176
     1
290
     0
176
     1
 90
       50
176
     1
 62
   256
176
     0
 40
1.0
176
     0
 90
        2
176
     1
  1
strokes_ogs.tif
176
     1
290
     0
176
     1
 40
1.0
176
     1
 40
1.0
176
     1
  0
VISUALSTYLE
  5
42
102
{ACAD_REACTORS
330
2A
102
}
330
2A
100
AcDbVisualStyle
  2
Shaded
 70
    27
177
     3
291
     0
 70
    58
 90
        2
176
     1
 90
        2
176
     1
 90
        1
176
     1
 90
        2
176
     1
 40
0.6
176
     1
 40
30.0
176
     1
 62
     7
420
 16777215
176
     1
 90
        0
176
     1
 90
        4
176
     1
 62
     7
176
     1
 62
   257
176
     1
 90
        1
176
     1
 90
        1
176
     1
 40
1.0
176
     1
 90
        8
176
     1
 62
   257
176
     1
 40
1.0
176
     1
 90
        1
176
     1
 90
        6
176
     1
 90
        2
176
     1
 62
     8
420
  7895160
176
     1
 90
        3
176
     1
 90
        0
176
     1
 90
        0
176
     1
290
     0
176
     1
 90
        5
176
     1
 40
0.0
176
     1
 90
        0
176
     1
290
     0
176
     1
290
     1
176
     1
290
     1
176
     1
290
     0
176
     1
290
     0
176
     1
290
     0
176
     1
290
     0
176
     1
290
     0
176
     1
290
     0
176
     1
 90
       50
176
     1
 40
0.0
176
     1
 40
1.0
176
     1
 90
        0
176
     1
 62
    18
420
        0
176
     1
 90
       50
176
     1
 90
        3
176
     1
 62
     5
420
      255
176
     1
290
     0
176
     1
 90
       50
176
     1
 90
       50
176
     1
 90
       50
176
     1
290
     0
176
     1
 90
       50
176
     1
 62
   256
176
     0
 40
1.0
176
     0
 90
        2
176
     1
  1
strokes_ogs.tif
176
     1
290
     0
176
     1
 40
1.0
176
     1
 40
1.0
176
     1
  0
VISUALSTYLE
  5
41
102
{ACAD_REACTORS
330
2A
102
}
330
2A
100
AcDbVisualStyle
  2
Shaded with edges
 70
    26
177
     3
291
     0
 70
    58
 90
        2
176
     1
 90
        2
176
     1
 90
        1
176
     1
 90
        2
176
     1
 40
0.6
176
     1
 40
30.0
176
     1
 62
     7
420
 16777215
176
     1
 90
        1
176
     1
 90
       10
176
     1
 62
     7
176
     1
 62
   257
176
     1
 90
        2
176
     1
 90
        1
176
     1
 40
1.0
176
     1
 90
        8
176
     1
 62
   257
176
     1
 40
1.0
176
     1
 90
        1
176
     1
 90
        6
176
     1
 90
        2
176
     1
 62
     7
176
     1
 90
        3
176
     1
 90
        0
176
     1
 90
        0
176
     1
290
     0
176
     1
 90
        5
176
     1
 40
0.0
176
     1
 90
        0
176
     1
290
     0
176
     1
290
     1
176
     1
290
     1
176
     1
290
     0
176
     1
290
     0
176
     1
290
     0
176
     1
290
     0
176
     1
290
     0
176
     1
290
     0
176
     1
 90
       50
176
     1
 40
0.0
176
     1
 40
1.0
176
     1
 90
        0
176
     1
 62
    18
420
        0
176
     1
 90
       50
176
     1
 90
        3
176
     1
 62
     5
420
      255
176
     1
290
     0
176
     1
 90
       50
176
     1
 90
       50
176
     1
 90
       50
176
     1
290
     0
176
     1
 90
       50
176
     1
 62
   256
176
     0
 40
1.0
176
     0
 90
        2
176
     1
  1
strokes_ogs.tif
176
     1
290
     0
176
     1
 40
1.0
176
     1
 40
1.0
176
     1
  0
VISUALSTYLE
  5
3E
102
{ACAD_REACTORS
330
2A
102
}
330
2A
100
AcDbVisualStyle
  2
Shades of Gray
 70
    23
177
     3
291
     0
 70
    58
 90
        2
176
     1
 90
        2
176
     1
 90
        3
176
     1
 90
        0
176
     1
 40
0.6
176
     1
 40
30.0
176
     1
 62
     7
420
 16777215
176
     1
 90
        2
176
     1
 90
        2
176
     1
 62
     7
176
     1
 62
     7
176
     1
 90
        1
176
     1
 90
        1
176
     1
 40
40.0
176
     1
 90
        8
176
     1
 62
     7
176
     1
 40
1.0
176
     1
 90
        1
176
     1
 90
        6
176
     1
 90
        2
176
     1
 62
     7
176
     1
 90
        3
176
     1
 90
        0
176
     1
 90
        0
176
     1
290
     0
176
     1
 90
        1
176
     1
 40
0.0
176
     1
 90
        0
176
     1
290
     0
176
     1
290
     1
176
     1
290
     1
176
     1
290
     0
176
     1
290
     0
176
     1
290
     0
176
     1
290
     0
176
     1
290
     0
176
     1
290
     0
176
     1
 90
       50
176
     1
 40
0.0
176
     1
 40
1.0
176
     1
 90
        0
176
     1
 62
    18
420
        0
176
     1
 90
       50
176
     1
 90
        3
176
     1
 62
     5
420
      255
176
     1
290
     0
176
     1
 90
       50
176
     1
 90
       50
176
     1
 90
       50
176
     1
290
     0
176
     1
 90
       50
176
     1
 62
   256
176
     0
 40
1.0
176
     0
 90
        2
176
     1
  1
strokes_ogs.tif
176
     1
290
     0
176
     1
 40
1.0
176
     1
 40
1.0
176
     1
  0
VISUALSTYLE
  5
3F
102
{ACAD_REACTORS
330
2A
102
}
330
2A
100
AcDbVisualStyle
  2
Sketchy
 70
    24
177
     3
291
     0
 70
    58
 90
        1
176
     1
 90
        2
176
     1
 90
        2
176
     1
 90
        0
176
     1
 40
0.6
176
     1
 40
30.0
176
     1
 62
     7
420
 16777215
176
     1
 90
        2
176
     1
 90
        2
176
     1
 62
     7
176
     1
 62
     7
176
     1
 90
        1
176
     1
 90
        1
176
     1
 40
40.0
176
     1
 90
       11
176
     1
 62
     7
176
     1
 40
1.0
176
     1
 90
        1
176
     1
 90
        6
176
     1
 90
        2
176
     1
 62
     7
176
     1
 90
        6
176
     1
 90
        0
176
     1
 90
        0
176
     1
290
     0
176
     1
 90
        1
176
     1
 40
0.0
176
     1
 90
        0
176
     1
290
     0
176
     1
290
     1
176
     1
290
     1
176
     1
290
     0
176
     1
290
     0
176
     1
290
     0
176
     1
290
     0
176
     1
290
     0
176
     1
290
     0
176
     1
 90
       50
176
     1
 40
0.0
176
     1
 40
1.0
176
     1
 90
        0
176
     1
 62
    18
420
        0
176
     1
 90
       50
176
     1
 90
        3
176
     1
 62
     5
420
      255
176
     1
290
     0
176
     1
 90
       50
176
     1
 90
       50
176
     1
 90
       50
176
     1
290
     0
176
     1
 90
       50
176
     1
 62
   256
176
     0
 40
1.0
176
     0
 90
        2
176
     1
  1
strokes_ogs.tif
176
     1
290
     0
176
     1
 40
1.0
176
     1
 40
1.0
176
     1
  0
VISUALSTYLE
  5
37
102
{ACAD_REACTORS
330
2A
102
}
330
2A
100
AcDbVisualStyle
  2
Thicken
 70
    13
177
     3
291
     1
 70
    58
 90
        2
176
     1
 90
        2
176
     1
 90
        0
176
     1
 90
        0
176
     1
 40
0.6
176
     1
 40
30.0
176
     1
 62
     7
420
 16777215
176
     1
 90
        1
176
     1
 90
        4
176
     1
 62
     7
176
     1
 62
   257
176
     1
 90
        1
176
     1
 90
        1
176
     1
 40
1.0
176
     1
 90
       12
176
     1
 62
     7
176
     1
 40
1.0
176
     1
 90
        1
176
     1
 90
        6
176
     1
 90
        2
176
     1
 62
     7
176
     1
 90
        5
176
     1
 90
        0
176
     1
 90
        0
176
     1
290
     0
176
     1
 90
        1
176
     1
 40
0.0
176
     1
 90
        0
176
     1
290
     0
176
     1
290
     1
176
     1
290
     1
176
     1
290
     0
176
     1
290
     0
176
     1
290
     0
176
     1
290
     0
176
     1
290
     0
176
     1
290
     0
176
     1
 90
       50
176
     1
 40
0.0
176
     1
 40
1.0
176
     1
 90
        0
176
     1
 62
    18
420
        0
176
     1
 90
       50
176
     1
 90
        3
176
     1
 62
     5
420
      255
176
     1
290
     0
176
     1
 90
       50
176
     1
 90
       50
176
     1
 90
       50
176
     1
290
     0
176
     1
 90
       50
176
     1
 62
   256
176
     0
 40
1.0
176
     0
 90
        2
176
     1
  1
strokes_ogs.tif
176
     1
290
     0
176
     1
 40
1.0
176
     1
 40
1.0
176
     1
  0
VISUALSTYLE
  5
30
102
{ACAD_REACTORS
330
2A
102
}
330
2A
100
AcDbVisualStyle
  2
Wireframe
 70
     5
177
     3
291
     0
 70
    58
 90
        0
176
     1
 90
        2
176
     1
 90
        0
176
     1
 90
        0
176
     1
 40
0.6
176
     1
 40
30.0
176
     1
 62
     7
420
 16777215
176
     1
 90
        1
176
     1
 90
        4
176
     1
 62
     7
176
     1
 62
   257
176
     1
 90
        1
176
     1
 90
        1
176
     1
 40
1.0
176
     1
 90
        0
176
     1
 62
   257
176
     1
 40
1.0
176
     1
 90
        1
176
     1
 90
        6
176
     1
 90
        2
176
     1
 62
     7
176
     1
 90
        3
176
     1
 90
        0
176
     1
 90
        0
176
     1
290
     0
176
     1
 90
        1
176
     1
 40
0.0
176
     1
 90
        0
176
     1
290
     0
176
     1
290
     1
176
     1
290
     1
176
     1
290
     0
176
     1
290
     0
176
     1
290
     0
176
     1
290
     0
176
     1
290
     0
176
     1
290
     0
176
     1
 90
       50
176
     1
 40
0.0
176
     1
 40
1.0
176
     1
 90
        0
176
     1
 62
    18
420
        0
176
     1
 90
       50
176
     1
 90
        3
176
     1
 62
     5
420
      255
176
     1
290
     0
176
     1
 90
       50
176
     1
 90
       50
176
     1
 90
       50
176
     1
290
     0
176
     1
 90
       50
176
     1
 62
   256
176
     0
 40
1.0
176
     0
 90
        2
176
     1
  1
strokes_ogs.tif
176
     1
290
     0
176
     1
 40
1.0
176
     1
 40
1.0
176
     1
  0
VISUALSTYLE
  5
40
102
{ACAD_REACTORS
330
2A
102
}
330
2A
100
AcDbVisualStyle
  2
X-Ray
 70
    25
177
     3
291
     0
 70
    58
 90
        2
176
     1
 90
        2
176
     1
 90
        1
176
     1
 90
        1
176
     1
 40
0.5
176
     1
 40
30.0
176
     1
 62
     7
420
 16777215
176
     1
 90
        1
176
     1
 90
        0
176
     1
 62
     7
176
     1
 62
   257
176
     1
 90
        1
176
     1
 90
        1
176
     1
 40
1.0
176
     1
 90
        8
176
     1
 62
     7
176
     1
 40
1.0
176
     1
 90
        1
176
     1
 90
        6
176
     1
 90
        2
176
     1
 62
     7
176
     1
 90
        3
176
     1
 90
        0
176
     1
 90
        0
176
     1
290
     0
176
     1
 90
       13
176
     1
 40
0.0
176
     1
 90
        0
176
     1
290
     0
176
     1
290
     1
176
     1
290
     1
176
     1
290
     0
176
     1
290
     0
176
     1
290
     0
176
     1
290
     0
176
     1
290
     0
176
     1
290
     0
176
     1
 90
       50
176
     1
 40
0.0
176
     1
 40
1.0
176
     1
 90
        0
176
     1
 62
    18
420
        0
176
     1
 90
       50
176
     1
 90
        3
176
     1
 62
     5
420
      255
176
     1
290
     0
176
     1
 90
       50
176
     1
 90
       50
176
     1
 90
       50
176
     1
290
     0
176
     1
 90
       50
176
     1
 62
   256
176
     0
 40
1.0
176
     0
 90
        2
176
     1
  1
strokes_ogs.tif
176
     1
290
     0
176
     1
 40
1.0
176
     1
 40
1.0
176
     1
  0
DICTIONARYVAR
  5
109
102
{ACAD_REACTORS
330
108
102
}
330
108
100
DictionaryVariables
280
     0
  1
1:1
  0
DICTIONARYVAR
  5
111
102
{ACAD_REACTORS
330
108
102
}
330
108
100
DictionaryVariables
280
     0
  1
3.500000
  0
DICTIONARYVAR
  5
112
102
{ACAD_REACTORS
330
108
102
}
330
108
100
DictionaryVariables
280
     0
  1
acadiso.lin
  0
DICTIONARYVAR
  5
10E
102
{ACAD_REACTORS
330
108
102
}
330
108
100
DictionaryVariables
280
     0
  1
Standard
  0
DICTIONARYVAR
  5
10D
102
{ACAD_REACTORS
330
108
102
}
330
108
100
DictionaryVariables
280
     0
  1
Standard
  0
DICTIONARY
  5
10A
330
5A
100
AcDbDictionary
280
     1
281
     1
  3
ACAD_ROUNDTRIP_2008_TABLESTYLE_CELLSTYLEMAP
360
10B
  0
CELLSTYLEMAP
  5
10B
102
{ACAD_REACTORS
330
10A
102
}
330
10A
100
AcDbCellStyleMap
 90
        3
300
CELLSTYLE
  1
TABLEFORMAT_BEGIN
 90
        5
170
     1
 91
        0
 92
    32768
 62
   257
 93
        1
300
CONTENTFORMAT
  1
CONTENTFORMAT_BEGIN
 90
        0
 91
        0
 92
        4
 93
        0
300

 40
0.0
140
1.0
 94
        5
 62
     0
340
11
144
6.0
309
CONTENTFORMAT_END
171
     1
301
MARGIN
  1
CELLMARGIN_BEGIN
 40
1.5
 40
1.5
 40
1.5
 40
1.5
 40
1.5
 40
1.5
309
CELLMARGIN_END
 94
        6
 95
        1
302
GRIDFORMAT
  1
GRIDFORMAT_BEGIN
 90
        0
 91
        1
 62
     0
 92
       -2
340
14
 93
        0
 40
0.045
309
GRIDFORMAT_END
 95
        2
302
GRIDFORMAT
  1
GRIDFORMAT_BEGIN
 90
        0
 91
        1
 62
     0
 92
       -2
340
14
 93
        0
 40
0.045
309
GRIDFORMAT_END
 95
        4
302
GRIDFORMAT
  1
GRIDFORMAT_BEGIN
 90
        0
 91
        1
 62
     0
 92
       -2
340
14
 93
        0
 40
0.045
309
GRIDFORMAT_END
 95
        8
302
GRIDFORMAT
  1
GRIDFORMAT_BEGIN
 90
        0
 91
        1
 62
     0
 92
       -2
340
14
 93
        0
 40
0.045
309
GRIDFORMAT_END
 95
       16
302
GRIDFORMAT
  1
GRIDFORMAT_BEGIN
 90
        0
 91
        1
 62
     0
 92
       -2
340
14
 93
        0
 40
0.045
309
GRIDFORMAT_END
 95
       32
302
GRIDFORMAT
  1
GRIDFORMAT_BEGIN
 90
        0
 91
        1
 62
     0
 92
       -2
340
14
 93
        0
 40
0.045
309
GRIDFORMAT_END
309
TABLEFORMAT_END
  1
CELLSTYLE_BEGIN
 90
        1
 91
        1
300
_TITLE
309
CELLSTYLE_END
300
CELLSTYLE
  1
TABLEFORMAT_BEGIN
 90
        5
170
     1
 91
        0
 92
        0
 62
   257
 93
        1
300
CONTENTFORMAT
  1
CONTENTFORMAT_BEGIN
 90
        0
 91
        0
 92
        4
 93
        0
300

 40
0.0
140
1.0
 94
        5
 62
     0
340
11
144
4.5
309
CONTENTFORMAT_END
171
     1
301
MARGIN
  1
CELLMARGIN_BEGIN
 40
1.5
 40
1.5
 40
1.5
 40
1.5
 40
1.5
 40
1.5
309
CELLMARGIN_END
 94
        6
 95
        1
302
GRIDFORMAT
  1
GRIDFORMAT_BEGIN
 90
        0
 91
        1
 62
     0
 92
       -2
340
14
 93
        0
 40
0.045
309
GRIDFORMAT_END
 95
        2
302
GRIDFORMAT
  1
GRIDFORMAT_BEGIN
 90
        0
 91
        1
 62
     0
 92
       -2
340
14
 93
        0
 40
0.045
309
GRIDFORMAT_END
 95
        4
302
GRIDFORMAT
  1
GRIDFORMAT_BEGIN
 90
        0
 91
        1
 62
     0
 92
       -2
340
14
 93
        0
 40
0.045
309
GRIDFORMAT_END
 95
        8
302
GRIDFORMAT
  1
GRIDFORMAT_BEGIN
 90
        0
 91
        1
 62
     0
 92
       -2
340
14
 93
        0
 40
0.045
309
GRIDFORMAT_END
 95
       16
302
GRIDFORMAT
  1
GRIDFORMAT_BEGIN
 90
        0
 91
        1
 62
     0
 92
       -2
340
14
 93
        0
 40
0.045
309
GRIDFORMAT_END
 95
       32
302
GRIDFORMAT
  1
GRIDFORMAT_BEGIN
 90
        0
 91
        1
 62
     0
 92
       -2
340
14
 93
        0
 40
0.045
309
GRIDFORMAT_END
309
TABLEFORMAT_END
  1
CELLSTYLE_BEGIN
 90
        2
 91
        1
300
_HEADER
309
CELLSTYLE_END
300
CELLSTYLE
  1
TABLEFORMAT_BEGIN
 90
        5
170
     1
 91
        0
 92
        0
 62
   257
 93
        1
300
CONTENTFORMAT
  1
CONTENTFORMAT_BEGIN
 90
        0
 91
        0
 92
        4
 93
        0
300

 40
0.0
140
1.0
 94
        2
 62
     0
340
11
144
4.5
309
CONTENTFORMAT_END
171
     1
301
MARGIN
  1
CELLMARGIN_BEGIN
 40
1.5
 40
1.5
 40
1.5
 40
1.5
 40
1.5
 40
1.5
309
CELLMARGIN_END
 94
        6
 95
        1
302
GRIDFORMAT
  1
GRIDFORMAT_BEGIN
 90
        0
 91
        1
 62
     0
 92
       -2
340
14
 93
        0
 40
0.045
309
GRIDFORMAT_END
 95
        2
302
GRIDFORMAT
  1
GRIDFORMAT_BEGIN
 90
        0
 91
        1
 62
     0
 92
       -2
340
14
 93
        0
 40
0.045
309
GRIDFORMAT_END
 95
        4
302
GRIDFORMAT
  1
GRIDFORMAT_BEGIN
 90
        0
 91
        1
 62
     0
 92
       -2
340
14
 93
        0
 40
0.045
309
GRIDFORMAT_END
 95
        8
302
GRIDFORMAT
  1
GRIDFORMAT_BEGIN
 90
        0
 91
        1
 62
     0
 92
       -2
340
14
 93
        0
 40
0.045
309
GRIDFORMAT_END
 95
       16
302
GRIDFORMAT
  1
GRIDFORMAT_BEGIN
 90
        0
 91
        1
 62
     0
 92
       -2
340
14
 93
        0
 40
0.045
309
GRIDFORMAT_END
 95
       32
302
GRIDFORMAT
  1
GRIDFORMAT_BEGIN
 90
        0
 91
        1
 62
     0
 92
       -2
340
14
 93
        0
 40
0.045
309
GRIDFORMAT_END
309
TABLEFORMAT_END
  1
CELLSTYLE_BEGIN
 90
        3
 91
        2
300
_DATA
309
CELLSTYLE_END
  0
ENDSEC
  0
EOF
