  0
SECTION
  2
HEADER
  9
$ACADVER
  1
AC1027
  9
$ACADMAINTVER
 70
   105
  9
$DWGCODEPAGE
  3
ANSI_1252
  9
$LASTSAVEDBY
  1
Nick
  9
$REQUIREDVERSIONS
160
                 0
  9
$INSBASE
 10
0.0
 20
0.0
 30
0.0
  9
$EXTMIN
 10
0.0
 20
0.0
 30
0.0
  9
$EXTMAX
 10
420.0
 20
297.0
 30
0.0
  9
$LIMMIN
 10
0.0
 20
0.0
  9
$LIMMAX
 10
420.0
 20
297.0
  9
$ORTHOMODE
 70
     0
  9
$REGENMODE
 70
     1
  9
$FILLMODE
 70
     1
  9
$QTEXTMODE
 70
     0
  9
$MIRRTEXT
 70
     1
  9
$LTSCALE
 40
1.0
  9
$ATTMODE
 70
     1
  9
$TEXTSIZE
 40
4.2333333333
  9
$TRACEWID
 40
1.0
  9
$TEXTSTYLE
  7
Standard
  9
$CLAYER
  8
0
  9
$CELTYPE
  6
ByLayer
  9
$CECOLOR
 62
   256
  9
$CELTSCALE
 40
1.0
  9
$DISPSILH
 70
     0
  9
$DIMSCALE
 40
1.0
  9
$DIMASZ
 40
3.302
  9
$DIMEXO
 40
1.0
  9
$DIMDLI
 40
3.75
  9
$DIMRND
 40
0.0
  9
$DIMDLE
 40
0.0
  9
$DIMEXE
 40
1.0
  9
$DIMTP
 40
0.0
  9
$DIMTM
 40
0.0
  9
$DIMTXT
 40
4.2333333333
  9
$DIMCEN
 40
2.5
  9
$DIMTSZ
 40
0.0
  9
$DIMTOL
 70
     0
  9
$DIMLIM
 70
     0
  9
$DIMTIH
 70
     1
  9
$DIMTOH
 70
     1
  9
$DIMSE1
 70
     0
  9
$DIMSE2
 70
     0
  9
$DIMTAD
 70
     1
  9
$DIMZIN
 70
     1
  9
$DIMBLK
  1

  9
$DIMASO
 70
     1
  9
$DIMSHO
 70
     1
  9
$DIMPOST
  1

  9
$DIMAPOST
  1

  9
$DIMALT
 70
     0
  9
$DIMALTD
 70
     3
  9
$DIMALTF
 40
0.0393700787
  9
$DIMLFAC
 40
1.0
  9
$DIMTOFL
 70
     1
  9
$DIMTVP
 40
0.0
  9
$DIMTIX
 70
     0
  9
$DIMSOXD
 70
     0
  9
$DIMSAH
 70
     0
  9
$DIMBLK1
  1

  9
$DIMBLK2
  1

  9
$DIMSTYLE
  2
ISO-25
  9
$DIMCLRD
 70
     0
  9
$DIMCLRE
 70
     0
  9
$DIMCLRT
 70
     0
  9
$DIMTFAC
 40
1.0
  9
$DIMGAP
 40
1.524
  9
$DIMJUST
 70
     0
  9
$DIMSD1
 70
     0
  9
$DIMSD2
 70
     0
  9
$DIMTOLJ
 70
     0
  9
$DIMTZIN
 70
     1
  9
$DIMALTZ
 70
     0
  9
$DIMALTTZ
 70
     0
  9
$DIMUPT
 70
     0
  9
$DIMDEC
 70
     0
  9
$DIMTDEC
 70
     0
  9
$DIMALTU
 70
     2
  9
$DIMALTTD
 70
     3
  9
$DIMTXSTY
  7
Standard
  9
$DIMAUNIT
 70
     0
  9
$DIMADEC
 70
     2
  9
$DIMALTRND
 40
0.0
  9
$DIMAZIN
 70
     0
  9
$DIMDSEP
 70
    44
  9
$DIMATFIT
 70
     3
  9
$DIMFRAC
 70
     0
  9
$DIMLDRBLK
  1

  9
$DIMLUNIT
 70
     2
  9
$DIMLWD
 70
    -2
  9
$DIMLWE
 70
    -2
  9
$DIMTMOVE
 70
     0
  9
$DIMFXL
 40
1.0
  9
$DIMFXLON
 70
     0
  9
$DIMJOGANG
 40
0.7853981634
  9
$DIMTFILL
 70
     0
  9
$DIMTFILLCLR
 70
     0
  9
$DIMARCSYM
 70
     0
  9
$DIMLTYPE
  6

  9
$DIMLTEX1
  6

  9
$DIMLTEX2
  6

  9
$DIMTXTDIRECTION
 70
     0
  9
$LUNITS
 70
     2
  9
$LUPREC
 70
     0
  9
$SKETCHINC
 40
1.0
  9
$FILLETRAD
 40
0.0
  9
$AUNITS
 70
     0
  9
$AUPREC
 70
     2
  9
$MENU
  1
.
  9
$ELEVATION
 40
0.0
  9
$PELEVATION
 40
0.0
  9
$THICKNESS
 40
0.0
  9
$LIMCHECK
 70
     0
  9
$CHAMFERA
 40
0.0
  9
$CHAMFERB
 40
0.0
  9
$CHAMFERC
 40
0.0
  9
$CHAMFERD
 40
0.0
  9
$SKPOLY
 70
     0
  9
$TDCREATE
 40
2460934.443536528
  9
$TDUCREATE
 40
2460934.026869861
  9
$TDUPDATE
 40
2460934.443536736
  9
$TDUUPDATE
 40
2460934.02687007
  9
$TDINDWG
 40
0.0000000116
  9
$TDUSRTIMER
 40
0.0000000116
  9
$USRTIMER
 70
     1
  9
$ANGBASE
 50
0.0
  9
$ANGDIR
 70
     0
  9
$PDMODE
 70
     0
  9
$PDSIZE
 40
-1.0
  9
$PLINEWID
 40
0.0
  9
$SPLFRAME
 70
     0
  9
$SPLINETYPE
 70
     6
  9
$SPLINESEGS
 70
     8
  9
$HANDSEED
  5
10A
  9
$SURFTAB1
 70
     6
  9
$SURFTAB2
 70
     6
  9
$SURFTYPE
 70
     6
  9
$SURFU
 70
     6
  9
$SURFV
 70
     6
  9
$UCSBASE
  2

  9
$UCSNAME
  2

  9
$UCSORG
 10
0.0
 20
0.0
 30
0.0
  9
$UCSXDIR
 10
1.0
 20
0.0
 30
0.0
  9
$UCSYDIR
 10
0.0
 20
1.0
 30
0.0
  9
$UCSORTHOREF
  2

  9
$UCSORTHOVIEW
 70
     0
  9
$UCSORGTOP
 10
0.0
 20
0.0
 30
0.0
  9
$UCSORGBOTTOM
 10
0.0
 20
0.0
 30
0.0
  9
$UCSORGLEFT
 10
0.0
 20
0.0
 30
0.0
  9
$UCSORGRIGHT
 10
0.0
 20
0.0
 30
0.0
  9
$UCSORGFRONT
 10
0.0
 20
0.0
 30
0.0
  9
$UCSORGBACK
 10
0.0
 20
0.0
 30
0.0
  9
$PUCSBASE
  2

  9
$PUCSNAME
  2

  9
$PUCSORG
 10
0.0
 20
0.0
 30
0.0
  9
$PUCSXDIR
 10
1.0
 20
0.0
 30
0.0
  9
$PUCSYDIR
 10
0.0
 20
1.0
 30
0.0
  9
$PUCSORTHOREF
  2

  9
$PUCSORTHOVIEW
 70
     0
  9
$PUCSORGTOP
 10
0.0
 20
0.0
 30
0.0
  9
$PUCSORGBOTTOM
 10
0.0
 20
0.0
 30
0.0
  9
$PUCSORGLEFT
 10
0.0
 20
0.0
 30
0.0
  9
$PUCSORGRIGHT
 10
0.0
 20
0.0
 30
0.0
  9
$PUCSORGFRONT
 10
0.0
 20
0.0
 30
0.0
  9
$PUCSORGBACK
 10
0.0
 20
0.0
 30
0.0
  9
$USERI1
 70
     0
  9
$USERI2
 70
     0
  9
$USERI3
 70
     0
  9
$USERI4
 70
     0
  9
$USERI5
 70
     0
  9
$USERR1
 40
0.0
  9
$USERR2
 40
0.0
  9
$USERR3
 40
0.0
  9
$USERR4
 40
0.0
  9
$USERR5
 40
0.0
  9
$WORLDVIEW
 70
     1
  9
$SHADEDGE
 70
     3
  9
$SHADEDIF
 70
    70
  9
$TILEMODE
 70
     1
  9
$MAXACTVP
 70
    64
  9
$PINSBASE
 10
0.0
 20
0.0
 30
0.0
  9
$PLIMCHECK
 70
     0
  9
$PEXTMIN
 10
1.0000000000E+20
 20
1.0000000000E+20
 30
1.0000000000E+20
  9
$PEXTMAX
 10
-1.0000000000E+20
 20
-1.0000000000E+20
 30
-1.0000000000E+20
  9
$PLIMMIN
 10
0.0
 20
0.0
  9
$PLIMMAX
 10
420.0
 20
297.0
  9
$UNITMODE
 70
     0
  9
$VISRETAIN
 70
     1
  9
$PLINEGEN
 70
     0
  9
$PSLTSCALE
 70
     1
  9
$TREEDEPTH
 70
  3020
  9
$CMLSTYLE
  2
Standard
  9
$CMLJUST
 70
     0
  9
$CMLSCALE
 40
20.0
  9
$PROXYGRAPHICS
 70
     1
  9
$MEASUREMENT
 70
     1
  9
$CELWEIGHT
370
    -1
  9
$ENDCAPS
280
     0
  9
$JOINSTYLE
280
     0
  9
$LWDISPLAY
290
     1
  9
$INSUNITS
 70
     4
  9
$HYPERLINKBASE
  1

  9
$STYLESHEET
  1

  9
$XEDIT
290
     1
  9
$CEPSNTYPE
380
     0
  9
$PSTYLEMODE
290
     1
  9
$FINGERPRINTGUID
  2
{238f6049-01ed-4af1-aa1e-29ebb3bd81c4}
  9
$VERSIONGUID
  2
{FAEB1C32-E019-11D5-929B-00C0DF256EC4}
  9
$EXTNAMES
290
     1
  9
$PSVPSCALE
 40
0.0
  9
$OLESTARTUP
290
     0
  9
$SORTENTS
280
   127
  9
$INDEXCTL
280
     0
  9
$HIDETEXT
280
     1
  9
$XCLIPFRAME
280
     2
  9
$HALOGAP
280
     0
  9
$OBSCOLOR
 70
   257
  9
$OBSLTYPE
280
     0
  9
$INTERSECTIONDISPLAY
280
     0
  9
$INTERSECTIONCOLOR
 70
   257
  9
$DIMASSOC
280
     2
  9
$PROJECTNAME
  1

  9
$CAMERADISPLAY
290
     0
  9
$LENSLENGTH
 40
50.0
  9
$CAMERAHEIGHT
 40
0.0
  9
$STEPSPERSEC
 40
2.0
  9
$STEPSIZE
 40
6.0
  9
$3DDWFPREC
 40
2.0
  9
$PSOLWIDTH
 40
5.0
  9
$PSOLHEIGHT
 40
80.0
  9
$LOFTANG1
 40
1.5707963268
  9
$LOFTANG2
 40
1.5707963268
  9
$LOFTMAG1
 40
0.0
  9
$LOFTMAG2
 40
0.0
  9
$LOFTPARAM
 70
     7
  9
$LOFTNORMALS
280
     1
  9
$LATITUDE
 40
37.795
  9
$LONGITUDE
 40
-122.394
  9
$NORTHDIRECTION
 40
0.0
  9
$TIMEZONE
 70
 -8000
  9
$LIGHTGLYPHDISPLAY
280
     1
  9
$TILEMODELIGHTSYNCH
280
     1
  9
$CMATERIAL
347
44
  9
$SOLIDHIST
280
     0
  9
$SHOWHIST
280
     1
  9
$DWFFRAME
280
     2
  9
$DGNFRAME
280
     2
  9
$REALWORLDSCALE
290
     1
  9
$INTERFERECOLOR
 62
   256
  9
$CSHADOW
280
     0
  9
$SHADOWPLANELOCATION
 40
0.0
  0
ENDSEC
  0
SECTION
  2
CLASSES
  0
CLASS
  1
ACDBDICTIONARYWDFLT
  2
AcDbDictionaryWithDefault
  3
ObjectDBX Classes
 90
        0
 91
        3
280
     0
281
     0
  0
CLASS
  1
VISUALSTYLE
  2
AcDbVisualStyle
  3
ObjectDBX Classes
 90
     4095
 91
        3
280
     0
281
     0
  0
CLASS
  1
MATERIAL
  2
AcDbMaterial
  3
ObjectDBX Classes
 90
     1153
 91
        3
280
     0
281
     0
  0
CLASS
  1
SCALE
  2
AcDbScale
  3
ObjectDBX Classes
 90
     1153
 91
        3
280
     0
281
     0
  0
CLASS
  1
TABLESTYLE
  2
AcDbTableStyle
  3
ObjectDBX Classes
 90
     4095
 91
        3
280
     0
281
     0
  0
CLASS
  1
MLEADERSTYLE
  2
AcDbMLeaderStyle
  3
ACDB_MLEADERSTYLE_CLASS
 90
     4095
 91
        3
280
     0
281
     0
  0
CLASS
  1
SUN
  2
AcDbSun
  3
SCENEOE
 90
     1153
 91
        3
280
     0
281
     0
  0
CLASS
  1
DICTIONARYVAR
  2
AcDbDictionaryVar
  3
ObjectDBX Classes
 90
        0
 91
        3
280
     0
281
     0
  0
CLASS
  1
CELLSTYLEMAP
  2
AcDbCellStyleMap
  3
ObjectDBX Classes
 90
     1152
 91
        3
280
     0
281
     0
  0
ENDSEC
  0
SECTION
  2
TABLES
  0
TABLE
  2
VPORT
  5
8
330
0
100
AcDbSymbolTable
 70
     1
  0
VPORT
  5
29
330
8
100
AcDbSymbolTableRecord
100
AcDbViewportTableRecord
  2
*Active
 70
     0
 10
0.0
 20
0.0
 11
1.0
 21
1.0
 12
210.0
 22
148.5
 13
0.0
 23
0.0
 14
10.0
 24
10.0
 15
10.0
 25
10.0
 16
0.0
 26
0.0
 36
1.0
 17
0.0
 27
0.0
 37
0.0
 40
297.0
 41
1.4141414141
 42
50.0
 43
0.0
 44
0.0
 50
0.0
 51
0.0
 71
     0
 72
  2000
 73
     1
 74
     3
 75
     0
 76
     0
 77
     0
 78
     0
281
     0
 65
     1
110
0.0
120
0.0
130
0.0
111
1.0
121
0.0
131
0.0
112
0.0
122
1.0
132
0.0
 79
     0
146
0.0
348
2F
 60
     3
 61
     5
292
     1
282
     1
141
0.0
142
0.0
 63
   250
361
5D
  0
ENDTAB
  0
TABLE
  2
LTYPE
  5
5
330
0
100
AcDbSymbolTable
 70
     6
  0
LTYPE
  5
14
330
5
100
AcDbSymbolTableRecord
100
AcDbLinetypeTableRecord
  2
ByBlock
 70
     0
  3

 72
    65
 73
     0
 40
0.0
  0
LTYPE
  5
15
330
5
100
AcDbSymbolTableRecord
100
AcDbLinetypeTableRecord
  2
ByLayer
 70
     0
  3

 72
    65
 73
     0
 40
0.0
  0
LTYPE
  5
16
330
5
100
AcDbSymbolTableRecord
100
AcDbLinetypeTableRecord
  2
Continuous
 70
     0
  3
Solid line
 72
    65
 73
     0
 40
0.0
  0
LTYPE
  5
5E
330
5
100
AcDbSymbolTableRecord
100
AcDbLinetypeTableRecord
  2
HIDDEN
 70
     0
  3
Hidden __ __ __ __ __ __ __ __ __ __ __ __ __ __
 72
    65
 73
     2
 40
1.905
 49
1.27
 74
     0
 49
-0.635
 74
     0
  0
LTYPE
  5
5F
330
5
100
AcDbSymbolTableRecord
100
AcDbLinetypeTableRecord
  2
PHANTOM
 70
     0
  3
Phantom ______  __  __  ______  __  __  ______
 72
    65
 73
     6
 40
12.7
 49
6.35
 74
     0
 49
-1.27
 74
     0
 49
1.27
 74
     0
 49
-1.27
 74
     0
 49
1.27
 74
     0
 49
-1.27
 74
     0
  0
LTYPE
  5
60
330
5
100
AcDbSymbolTableRecord
100
AcDbLinetypeTableRecord
  2
CENTER
 70
     0
  3
Center ____ _ ____ _ ____ _ ____ _ ____ _ ____
 72
    65
 73
     4
 40
10.16
 49
6.35
 74
     0
 49
-1.27
 74
     0
 49
1.27
 74
     0
 49
-1.27
 74
     0
  0
LTYPE
  5
61
330
5
100
AcDbSymbolTableRecord
100
AcDbLinetypeTableRecord
  2
CENTERX2
 70
     0
  3
Center (2x) ________  __  ________  __  _____
 72
    65
 73
     4
 40
20.32
 49
12.7
 74
     0
 49
-2.54
 74
     0
 49
2.54
 74
     0
 49
-2.54
 74
     0
  0
LTYPE
  5
62
330
5
100
AcDbSymbolTableRecord
100
AcDbLinetypeTableRecord
  2
DOT2
 70
     0
  3
Dot (.5x) ........................................
 72
    65
 73
     2
 40
0.635
 49
0.0
 74
     0
 49
-0.635
 74
     0
  0
ENDTAB
  0
TABLE
  2
LAYER
  5
2
330
0
100
AcDbSymbolTable
 70
    13
  0
LAYER
  5
10
330
2
100
AcDbSymbolTableRecord
100
AcDbLayerTableRecord
  2
0
 70
     0
 62
     7
  6
Continuous
370
    -3
390
F
347
46
348
0
  0
LAYER
  5
63
330
2
100
AcDbSymbolTableRecord
100
AcDbLayerTableRecord
  2
DRAWING-SHEET
 70
     0
 62
   179
  6
Continuous
370
    -3
390
F
347
46
348
0
  0
LAYER
  5
64
330
2
100
AcDbSymbolTableRecord
100
AcDbLayerTableRecord
  2
BORDER
 70
     0
 62
   179
  6
Continuous
370
    -3
390
F
347
46
348
0
  0
LAYER
  5
65
330
2
100
AcDbSymbolTableRecord
100
AcDbLayerTableRecord
  2
DIMENSIONS
 70
     0
 62
     7
  6
Continuous
370
    -3
390
F
347
46
348
0
  0
LAYER
  5
66
330
2
100
AcDbSymbolTableRecord
100
AcDbLayerTableRecord
  2
CENTRE_LINES
 70
     0
 62
     7
  6
Continuous
370
    -3
390
F
347
46
348
0
  0
LAYER
  5
67
330
2
100
AcDbSymbolTableRecord
100
AcDbLayerTableRecord
  2
FORMAT
 70
     0
 62
     7
  6
Continuous
370
    -3
390
F
347
46
348
0
  0
LAYER
  5
68
330
2
100
AcDbSymbolTableRecord
100
AcDbLayerTableRecord
  2
SLD-0
 70
     0
 62
   179
  6
Continuous
370
    -3
390
F
347
46
348
0
  0
LAYER
  5
69
330
2
100
AcDbSymbolTableRecord
100
AcDbLayerTableRecord
  2
OUTLINE
 70
     0
 62
     4
  6
Continuous
370
    -3
390
F
347
46
348
0
  0
LAYER
  5
6A
330
2
100
AcDbSymbolTableRecord
100
AcDbLayerTableRecord
  2
4
 70
     0
 62
     7
  6
Continuous
370
    70
390
F
347
46
348
0
  0
LAYER
  5
6B
330
2
100
AcDbSymbolTableRecord
100
AcDbLayerTableRecord
  2
TEXT25
 70
     0
 62
   179
  6
Continuous
370
    -3
390
F
347
46
348
0
  0
LAYER
  5
6C
330
2
100
AcDbSymbolTableRecord
100
AcDbLayerTableRecord
  2
TEXT35
 70
     0
 62
     7
  6
Continuous
370
    -3
390
F
347
46
348
0
  0
LAYER
  5
6D
330
2
100
AcDbSymbolTableRecord
100
AcDbLayerTableRecord
  2
TEXT5
 70
     0
 62
     7
  6
Continuous
370
    -3
390
F
347
46
348
0
  0
LAYER
  5
6E
330
2
100
AcDbSymbolTableRecord
100
AcDbLayerTableRecord
  2
5
 70
     0
 62
     7
  6
Continuous
370
    35
390
F
347
46
348
0
  0
ENDTAB
  0
TABLE
  2
STYLE
  5
3
330
0
100
AcDbSymbolTable
 70
     3
  0
STYLE
  5
11
330
3
100
AcDbSymbolTableRecord
100
AcDbTextStyleTableRecord
  2
Standard
 70
     0
 40
0.0
 41
1.0
 50
0.0
 71
     0
 42
4.2333333333
  3
txt
  4

  0
STYLE
  5
75
330
3
100
AcDbSymbolTableRecord
100
AcDbTextStyleTableRecord
  2
SLDTEXTSTYLE0
 70
     0
 40
0.0
 41
0.75
 50
0.0
 71
     0
 42
4.2333333333
  3
TXT
  4

  0
STYLE
  5
7B
330
3
100
AcDbSymbolTableRecord
100
AcDbTextStyleTableRecord
  2
SLDTEXTSTYLE1
 70
     0
 40
0.0
 41
0.6
 50
0.0
 71
     0
 42
4.2333333333
  3
TXT
  4

  0
ENDTAB
  0
TABLE
  2
VIEW
  5
6
330
0
100
AcDbSymbolTable
 70
     0
  0
ENDTAB
  0
TABLE
  2
UCS
  5
7
330
0
100
AcDbSymbolTable
 70
     0
  0
ENDTAB
  0
TABLE
  2
APPID
  5
9
330
0
100
AcDbSymbolTable
 70
     1
  0
APPID
  5
12
330
9
100
AcDbSymbolTableRecord
100
AcDbRegAppTableRecord
  2
ACAD
 70
     0
  0
ENDTAB
  0
TABLE
  2
DIMSTYLE
  5
A
330
0
100
AcDbSymbolTable
 70
     1
100
AcDbDimStyleTable
  0
DIMSTYLE
105
27
330
A
100
AcDbSymbolTableRecord
100
AcDbDimStyleTableRecord
  2
ISO-25
 70
     0
 41
2.5
 42
0.625
 43
3.75
 44
1.25
 73
     0
 74
     0
 77
     1
 78
     8
140
2.5
141
2.5
143
0.0393700787
147
0.625
171
     3
172
     1
178
     0
271
     2
272
     2
274
     3
278
    44
283
     0
284
     8
340
11
  0
ENDTAB
  0
TABLE
  2
BLOCK_RECORD
  5
1
330
0
100
AcDbSymbolTable
 70
     6
  0
BLOCK_RECORD
  5
1F
330
1
100
AcDbSymbolTableRecord
100
AcDbBlockTableRecord
  2
*Model_Space
340
22
 70
     0
280
     1
281
     0
  0
BLOCK_RECORD
  5
1B
330
1
100
AcDbSymbolTableRecord
100
AcDbBlockTableRecord
  2
*Paper_Space
340
1E
 70
     0
280
     1
281
     0
  0
BLOCK_RECORD
  5
23
330
1
100
AcDbSymbolTableRecord
100
AcDbBlockTableRecord
  2
*Paper_Space0
340
26
 70
     0
280
     1
281
     0
  0
BLOCK_RECORD
  5
6F
330
1
100
AcDbSymbolTableRecord
100
AcDbBlockTableRecord
  2
Block1
340
0
 70
     0
280
     1
281
     0
  0
BLOCK_RECORD
  5
72
330
1
100
AcDbSymbolTableRecord
100
AcDbBlockTableRecord
  2
SW_NOTE_0
340
0
102
{BLKREFS
331
77
102
}
 70
     0
280
     1
281
     0
  0
BLOCK_RECORD
  5
78
330
1
100
AcDbSymbolTableRecord
100
AcDbBlockTableRecord
  2
SW_NOTE_0_1
340
0
102
{BLKREFS
331
7D
102
}
 70
     0
280
     1
281
     0
  0
BLOCK_RECORD
  5
7E
330
1
100
AcDbSymbolTableRecord
100
AcDbBlockTableRecord
  2
SW_NOTE_0_2
340
0
102
{BLKREFS
331
82
102
}
 70
     0
280
     1
281
     0
  0
BLOCK_RECORD
  5
83
330
1
100
AcDbSymbolTableRecord
100
AcDbBlockTableRecord
  2
SW_NOTE_0_3
340
0
102
{BLKREFS
331
87
102
}
 70
     0
280
     1
281
     0
  0
ENDTAB
  0
ENDSEC
  0
SECTION
  2
BLOCKS
  0
BLOCK
  5
20
330
1F
100
AcDbEntity
  8
0
100
AcDbBlockBegin
  2
*Model_Space
 70
     0
 10
0.0
 20
0.0
 30
0.0
  3
*Model_Space
  1

  0
ENDBLK
  5
21
330
1F
100
AcDbEntity
  8
0
100
AcDbBlockEnd
  0
BLOCK
  5
1C
330
1B
100
AcDbEntity
 67
     1
  8
0
100
AcDbBlockBegin
  2
*Paper_Space
 70
     0
 10
0.0
 20
0.0
 30
0.0
  3
*Paper_Space
  1

  0
ENDBLK
  5
1D
330
1B
100
AcDbEntity
 67
     1
  8
0
100
AcDbBlockEnd
  0
BLOCK
  5
24
330
23
100
AcDbEntity
  8
0
100
AcDbBlockBegin
  2
*Paper_Space0
 70
     0
 10
0.0
 20
0.0
 30
0.0
  3
*Paper_Space0
  1

  0
ENDBLK
  5
25
330
23
100
AcDbEntity
  8
0
100
AcDbBlockEnd
  0
BLOCK
  5
70
330
6F
100
AcDbEntity
  8
0
100
AcDbBlockBegin
  2
Block1
 70
     0
 10
0.0
 20
0.0
 30
0.0
  3
Block1
  1

  0
INSERT
  5
77
330
6F
100
AcDbEntity
  8
0
  6
Continuous
 62
     7
370
     0
100
AcDbBlockReference
  2
SW_NOTE_0
 10
40.5248655077
 20
20.5912386523
 30
0.0
  0
INSERT
  5
7D
330
6F
100
AcDbEntity
  8
DRAWING-SHEET
 62
     7
100
AcDbBlockReference
  2
SW_NOTE_0_1
 10
3.556761253
 20
-0.3611706024
 30
0.0
  0
INSERT
  5
82
330
6F
100
AcDbEntity
  8
DRAWING-SHEET
 62
     7
100
AcDbBlockReference
  2
SW_NOTE_0_2
 10
7.9590819428
 20
3.0109637777
 30
0.0
  0
INSERT
  5
87
330
6F
100
AcDbEntity
  8
DRAWING-SHEET
 62
     7
100
AcDbBlockReference
  2
SW_NOTE_0_3
 10
0.0721004934
 20
6.5234823937
 30
0.0
  0
ENDBLK
  5
71
330
6F
100
AcDbEntity
  8
0
100
AcDbBlockEnd
  0
BLOCK
  5
73
330
72
100
AcDbEntity
  8
0
100
AcDbBlockBegin
  2
SW_NOTE_0
 70
     0
 10
0.0
 20
0.0
 30
0.0
  3
SW_NOTE_0
  1

  0
MTEXT
  5
76
330
72
100
AcDbEntity
  8
0
  6
Continuous
 62
     0
370
     0
100
AcDbMText
 10
0.0
 20
1.9336016097
 30
0.0
 40
1.5
 41
0.0
 46
0.0
 71
     1
 72
     1
  1
TITLE:
  7
SLDTEXTSTYLE0
 73
     1
 44
1.0
  0
ENDBLK
  5
74
330
72
100
AcDbEntity
  8
0
100
AcDbBlockEnd
  0
BLOCK
  5
79
330
78
100
AcDbEntity
  8
0
100
AcDbBlockBegin
  2
SW_NOTE_0_1
 70
     0
 10
0.0
 20
0.0
 30
0.0
  3
SW_NOTE_0_1
  1

  0
MTEXT
  5
7C
330
78
100
AcDbEntity
  8
DRAWING-SHEET
 62
     0
100
AcDbMText
 10
0.0
 20
2.7285267159
 30
0.0
 40
2.1166666667
 41
0.0
 46
0.0
 71
     1
 72
     1
  1
Email: roddyeng.com.au
  7
SLDTEXTSTYLE1
 73
     1
 44
1.0
  0
ENDBLK
  5
7A
330
78
100
AcDbEntity
  8
0
100
AcDbBlockEnd
  0
BLOCK
  5
7F
330
7E
100
AcDbEntity
  8
0
100
AcDbBlockBegin
  2
SW_NOTE_0_2
 70
     0
 10
0.0
 20
0.0
 30
0.0
  3
SW_NOTE_0_2
  1

  0
MTEXT
  5
81
330
7E
100
AcDbEntity
  8
DRAWING-SHEET
 62
     0
100
AcDbMText
 10
0.0
 20
2.7285267159
 30
0.0
 40
2.1166666667
 41
0.0
 46
0.0
 71
     1
 72
     1
  1
Ph: - 02 6947 4039
  7
SLDTEXTSTYLE1
 73
     1
 44
1.0
  0
ENDBLK
  5
80
330
7E
100
AcDbEntity
  8
0
100
AcDbBlockEnd
  0
BLOCK
  5
84
330
83
100
AcDbEntity
  8
0
100
AcDbBlockBegin
  2
SW_NOTE_0_3
 70
     0
 10
0.0
 20
0.0
 30
0.0
  3
SW_NOTE_0_3
  1

  0
MTEXT
  5
86
330
83
100
AcDbEntity
  8
DRAWING-SHEET
 62
     0
100
AcDbMText
 10
0.0
 20
2.7285267159
 30
0.0
 40
2.1166666667
 41
0.0
 46
0.0
 71
     1
 72
     1
  1
14 Waratah St TUMUT NSW 2720
  7
SLDTEXTSTYLE1
 73
     1
 44
1.0
  0
ENDBLK
  5
85
330
83
100
AcDbEntity
  8
0
100
AcDbBlockEnd
  0
ENDSEC
  0
SECTION
  2
ENTITIES
  0
SPLINE
  5
88
330
1F
100
AcDbEntity
  8
0
  6
Continuous
 62
     7
370
    25
100
AcDbSpline
210
0.0
220
0.0
230
1.0
 70
     8
 71
     3
 72
    19
 73
    15
 74
     0
 42
0.00000001
 43
0.00000001
 40
0.0
 40
0.0
 40
0.0
 40
0.0
 40
0.0742601353668708
 40
0.1497687865939219
 40
0.2274267473861385
 40
0.3089097820232599
 40
0.3922465724611012
 40
0.474898720417555
 40
0.5590857004879187
 40
0.6461021925592936
 40
0.7341659987415051
 40
0.8214748072655063
 40
0.909815398006447
 40
1.0
 40
1.0
 40
1.0
 40
1.0
 10
878.4942521226957
 20
796.461246886472
 30
0.0
 10
878.5793323871172
 20
796.4480192783182
 30
0.0
 10
878.7509233477659
 20
796.4213416697607
 30
0.0
 10
878.9989139371299
 20
796.328983997931
 30
0.0
 10
879.2401676669099
 20
796.2032598834422
 30
0.0
 10
879.4689895793073
 20
796.0395545409501
 30
0.0
 10
879.681411039328
 20
795.8464380146885
 30
0.0
 10
879.8659323483247
 20
795.6222167504832
 30
0.0
 10
880.0211546742215
 20
795.3718103122452
 30
0.0
 10
880.1424744724931
 20
795.096662990664
 30
0.0
 10
880.2342882529061
 20
794.8066012665341
 30
0.0
 10
880.2888407313269
 20
794.5057069591376
 30
0.0
 10
880.3076080057965
 20
794.1977035842859
 30
0.0
 10
880.2910687215503
 20
793.9916300073644
 30
0.0
 10
880.2827136611573
 20
793.887528937754
 30
0.0
  0
SPLINE
  5
89
330
1F
100
AcDbEntity
  8
0
  6
Continuous
 62
     7
370
    25
100
AcDbSpline
210
0.0
220
0.0
230
1.0
 70
     8
 71
     3
 72
    15
 73
    11
 74
     0
 42
0.00000001
 43
0.00000001
 40
0.0
 40
0.0
 40
0.0
 40
0.0
 40
0.1454482261684395
 40
0.2806726730674347
 40
0.4092941759992059
 40
0.533259703041803
 40
0.6535707315384104
 40
0.7698572630897698
 40
0.8844387723171561
 40
1.0
 40
1.0
 40
1.0
 40
1.0
 10
876.662521353465
 20
795.5013109890361
 30
0.0
 10
876.7240303579017
 20
795.5873707755297
 30
0.0
 10
876.8427248043571
 20
795.7534410739107
 30
0.0
 10
877.0493609876937
 20
795.9686037517899
 30
0.0
 10
877.2678567119639
 20
796.1477525342461
 30
0.0
 10
877.5019816190951
 20
796.2860555653228
 30
0.0
 10
877.7443900414545
 20
796.3873940254224
 30
0.0
 10
877.9917637978754
 20
796.4527794884118
 30
0.0
 10
878.2434054631153
 20
796.4801780111936
 30
0.0
 10
878.410399604616
 20
796.4675751448616
 30
0.0
 10
878.4942521226957
 20
796.461246886472
 30
0.0
  0
SPLINE
  5
8A
330
1F
100
AcDbEntity
  8
0
  6
Continuous
 62
     7
370
    25
100
AcDbSpline
210
0.0
220
0.0
230
1.0
 70
     8
 71
     3
 72
    23
 73
    19
 74
     0
 42
0.00000001
 43
0.00000001
 40
0.0
 40
0.0
 40
0.0
 40
0.0
 40
0.0584620995087021
 40
0.1159687515502169
 40
0.1721256461049246
 40
0.2279488106553732
 40
0.2837778473106662
 40
0.3391706668807086
 40
0.3952282358405808
 40
0.4519225291905443
 40
0.5098523118560996
 40
0.5702423852399947
 40
0.6334647643141025
 40
0.6998438610020864
 40
0.7693707284076859
 40
0.8418342927261636
 40
0.9189782144484455
 40
1.0
 40
1.0
 40
1.0
 40
1.0
 10
874.7122008406445
 20
797.2785545787797
 30
0.0
 10
874.7663025799388
 20
797.271401770868
 30
0.0
 10
874.87362187253
 20
797.2572130535524
 30
0.0
 10
875.0303034201564
 20
797.2210852842043
 30
0.0
 10
875.1821305078837
 20
797.1765271468338
 30
0.0
 10
875.3284187133884
 20
797.1201858426869
 30
0.0
 10
875.4690843371532
 20
797.0527913422579
 30
0.0
 10
875.6049298571572
 20
796.9756031579393
 30
0.0
 10
875.7343718086815
 20
796.8867628210544
 30
0.0
 10
875.8605767988029
 20
796.7893993255402
 30
0.0
 10
875.9798178371608
 20
796.6774930233108
 30
0.0
 10
876.0937923731587
 20
796.551983462743
 30
0.0
 10
876.2027148767636
 20
796.4119482508717
 30
0.0
 10
876.3070305744122
 20
796.258044309325
 30
0.0
 10
876.4043964578972
 20
796.0895851969874
 30
0.0
 10
876.4957161269009
 20
795.9065989879696
 30
0.0
 10
876.5844920448088
 20
795.7104496751971
 30
0.0
 10
876.6360898965438
 20
795.5721541154074
 30
0.0
 10
876.662521353465
 20
795.5013109890361
 30
0.0
  0
SPLINE
  5
8B
330
1F
100
AcDbEntity
  8
0
  6
Continuous
 62
     7
370
    25
100
AcDbSpline
210
0.0
220
0.0
230
1.0
 70
     8
 71
     3
 72
    23
 73
    19
 74
     0
 42
0.00000001
 43
0.00000001
 40
0.0
 40
0.0
 40
0.0
 40
0.0
 40
0.079182043642294
 40
0.1538790530323204
 40
0.2247493195294689
 40
0.2921668580307663
 40
0.3571807876692582
 40
0.420124140180962
 40
0.482510650457872
 40
0.5449414356500712
 40
0.606327819322952
 40
0.6657258998503806
 40
0.7233811985600841
 40
0.7794242090681718
 40
0.8344637054475161
 40
0.8893696437334863
 40
0.944228112277851
 40
1.0
 40
1.0
 40
1.0
 40
1.0
 10
872.0102777637214
 20
794.8987468864719
 30
0.0
 10
872.024596446827
 20
795.0042686866792
 30
0.0
 10
872.052422773297
 20
795.2093353147079
 30
0.0
 10
872.1213114978079
 20
795.5041018038492
 30
0.0
 10
872.2131573551877
 20
795.7756625348061
 30
0.0
 10
872.3230207521226
 20
796.0264233360515
 30
0.0
 10
872.4563143624447
 20
796.2535392882187
 30
0.0
 10
872.6119548663355
 20
796.4573317080868
 30
0.0
 10
872.7870844812365
 20
796.6399975106051
 30
0.0
 10
872.9827565840507
 20
796.7970951110648
 30
0.0
 10
873.1891709125946
 20
796.931905467812
 30
0.0
 10
873.399122315518
 20
797.0485011628089
 30
0.0
 10
873.612739680544
 20
797.1417515627057
 30
0.0
 10
873.8285826393228
 20
797.2125193038811
 30
0.0
 10
874.0463348226386
 20
797.2627854442585
 30
0.0
 10
874.2662815875835
 20
797.2917458698131
 30
0.0
 10
874.4892736114467
 20
797.2992319895845
 30
0.0
 10
874.6374838650856
 20
797.2854848833606
 30
0.0
 10
874.7122008406445
 20
797.2785545787797
 30
0.0
  0
SPLINE
  5
8C
330
1F
100
AcDbEntity
  8
0
  6
Continuous
 62
     7
370
    25
100
AcDbSpline
210
0.0
220
0.0
230
1.0
 70
     8
 71
     3
 72
    15
 73
    11
 74
     0
 42
0.00000001
 43
0.00000001
 40
0.0
 40
0.0
 40
0.0
 40
0.0
 40
0.1190701394591649
 40
0.2365805827544493
 40
0.3537957732130759
 40
0.4738996561886711
 40
0.5964428374828625
 40
0.7245312662965676
 40
0.8586610184612475
 40
1.0
 40
1.0
 40
1.0
 40
1.0
 10
872.6208546867983
 20
792.7160545787797
 30
0.0
 10
872.5594991941722
 20
792.7860715298671
 30
0.0
 10
872.4375919026664
 20
792.9251882821119
 30
0.0
 10
872.2917809598989
 20
793.1609358365246
 30
0.0
 10
872.1689155293058
 20
793.4096607799654
 30
0.0
 10
872.0780351841021
 20
793.676389902964
 30
0.0
 10
872.0177386681996
 20
793.9599625101995
 30
0.0
 10
871.9837871053248
 20
794.258875442317
 30
0.0
 10
871.9812274208224
 20
794.5745450020626
 30
0.0
 10
872.0004268283175
 20
794.7888104278132
 30
0.0
 10
872.0102777637214
 20
794.8987468864719
 30
0.0
  0
SPLINE
  5
8D
330
1F
100
AcDbEntity
  8
0
  6
Continuous
 62
     7
370
    25
100
AcDbSpline
210
0.0
220
0.0
230
1.0
 70
     8
 71
     3
 72
    15
 73
    11
 74
     0
 42
0.00000001
 43
0.00000001
 40
0.0
 40
0.0
 40
0.0
 40
0.0
 40
0.1279246831762582
 40
0.2533708557134224
 40
0.3764061355441844
 40
0.4988827272447906
 40
0.6214402506227454
 40
0.7449882285419316
 40
0.8708027228313038
 40
1.0
 40
1.0
 40
1.0
 40
1.0
 10
874.1593162252599
 20
791.9356058608311
 30
0.0
 10
874.0848292813006
 20
791.9460534113433
 30
0.0
 10
873.9372985603964
 20
791.9667460935348
 30
0.0
 10
873.7222330859889
 20
792.0202956146411
 30
0.0
 10
873.515907304421
 20
792.0912764936205
 30
0.0
 10
873.31770370406
 20
792.1788749798269
 30
0.0
 10
873.1302140964688
 20
792.2879393258531
 30
0.0
 10
872.9492819945527
 20
792.4109485684995
 30
0.0
 10
872.778730570997
 20
792.5545277178363
 30
0.0
 10
872.6739433228988
 20
792.6617382353774
 30
0.0
 10
872.6208546867983
 20
792.7160545787797
 30
0.0
  0
SPLINE
  5
8E
330
1F
100
AcDbEntity
  8
0
  6
Continuous
 62
     7
370
    25
100
AcDbSpline
210
0.0
220
0.0
230
1.0
 70
     8
 71
     3
 72
    19
 73
    15
 74
     0
 42
0.00000001
 43
0.00000001
 40
0.0
 40
0.0
 40
0.0
 40
0.0
 40
0.0806432639366247
 40
0.1568402364197394
 40
0.2297076153898082
 40
0.2985472845941148
 40
0.3648860329597612
 40
0.4277936861683933
 40
0.4883318172359707
 40
0.5461938181657907
 40
0.6584795372854496
 40
0.7699070565601914
 40
0.8825190916846338
 40
1.0
 40
1.0
 40
1.0
 40
1.0
 10
876.3948931483368
 20
793.185605860831
 30
0.0
 10
876.3544371467696
 20
793.1247628125967
 30
0.0
 10
876.2757556978714
 20
793.006431316527
 30
0.0
 10
876.149276435952
 20
792.8410974982531
 30
0.0
 10
876.0239959975546
 20
792.6884609943883
 30
0.0
 10
875.8944601629789
 20
792.5514402996988
 30
0.0
 10
875.764260307984
 20
792.4277444797608
 30
0.0
 10
875.6298893646047
 20
792.3203305574015
 30
0.0
 10
875.4961655536507
 20
792.2246808926734
 30
0.0
 10
875.3145292018306
 20
792.1208746829576
 30
0.0
 10
875.0792368429078
 20
792.0196336230013
 30
0.0
 10
874.7830550033107
 20
791.944221954165
 30
0.0
 10
874.4737662454282
 20
791.9116699726112
 30
0.0
 10
874.2656011883048
 20
791.9275154654367
 30
0.0
 10
874.1593162252599
 20
791.9356058608311
 30
0.0
  0
SPLINE
  5
8F
330
1F
100
AcDbEntity
  8
0
  6
Continuous
 62
     7
370
    25
100
AcDbSpline
210
0.0
220
0.0
230
1.0
 70
     8
 71
     3
 72
    15
 73
    11
 74
     0
 42
0.00000001
 43
0.00000001
 40
0.0
 40
0.0
 40
0.0
 40
0.0
 40
0.1224124614864473
 40
0.2405963165288384
 40
0.3569411039158977
 40
0.4735544976999471
 40
0.5935329405745585
 40
0.7204560183612855
 40
0.8551835396926901
 40
1.0
 40
1.0
 40
1.0
 40
1.0
 10
877.9413675073112
 20
791.8666956044207
 30
0.0
 10
877.8548412573916
 20
791.8803154367844
 30
0.0
 10
877.6847777135262
 20
791.9070846190937
 30
0.0
 10
877.4414512260885
 20
791.9881619699136
 30
0.0
 10
877.2184250190928
 20
792.1051912958364
 30
0.0
 10
877.0138211974776
 20
792.254304191523
 30
0.0
 10
876.8291492242367
 20
792.4384889931621
 30
0.0
 10
876.6648853928825
 20
792.6569919432044
 30
0.0
 10
876.5156256186599
 20
792.9071030140341
 30
0.0
 10
876.4360940880761
 20
793.0905644939361
 30
0.0
 10
876.3948931483368
 20
793.185605860831
 30
0.0
  0
SPLINE
  5
90
330
1F
100
AcDbEntity
  8
0
  6
Continuous
 62
     7
370
    25
100
AcDbSpline
210
0.0
220
0.0
230
1.0
 70
     8
 71
     3
 72
    19
 73
    15
 74
     0
 42
0.00000001
 43
0.00000001
 40
0.0
 40
0.0
 40
0.0
 40
0.0
 40
0.0886963516032364
 40
0.1755809880683299
 40
0.2617089950042418
 40
0.3487065583316668
 40
0.4344944480361866
 40
0.5180730797499498
 40
0.6005639079901595
 40
0.6835452237076508
 40
0.7651706071276914
 40
0.8444736034933689
 40
0.92190573331527
 40
1.0
 40
1.0
 40
1.0
 40
1.0
 10
880.2827136611573
 20
793.887528937754
 30
0.0
 10
880.2675567624902
 20
793.7871233159016
 30
0.0
 10
880.2375525605597
 20
793.5883629613459
 30
0.0
 10
880.1495259063465
 20
793.3010841640021
 30
0.0
 10
880.0264301663303
 20
793.0296110859736
 30
0.0
 10
879.8715489221714
 20
792.7764641167159
 30
0.0
 10
879.6902271148525
 20
792.5449664973733
 30
0.0
 10
879.481316769593
 20
792.3454394823948
 30
0.0
 10
879.2522910270366
 20
792.1747189225837
 30
0.0
 10
879.0029358018319
 20
792.0398455090591
 30
0.0
 10
878.7421762500007
 20
791.9386337963225
 30
0.0
 10
878.4766893030562
 20
791.8739722794056
 30
0.0
 10
878.2081899938248
 20
791.8456841016648
 30
0.0
 10
878.0305604157406
 20
791.8596719196265
 30
0.0
 10
877.9413675073112
 20
791.8666956044207
 30
0.0
  0
LINE
  5
91
330
1F
100
AcDbEntity
  8
0
  6
Continuous
 62
     7
370
    25
100
AcDbLine
 10
871.9680727236
 20
778.602740526
 30
0.0
 11
877.7164701595
 21
784.1524200132
 31
0.0
  0
LINE
  5
92
330
1F
100
AcDbEntity
  8
0
  6
Continuous
 62
     7
370
    25
100
AcDbLine
 10
871.9760855441
 20
778.4232533466
 30
0.0
 11
871.9680727236
 21
778.602740526
 31
0.0
  0
LINE
  5
93
330
1F
100
AcDbEntity
  8
0
  6
Continuous
 62
     7
370
    25
100
AcDbLine
 10
879.9328163133
 20
778.8270995004
 30
0.0
 11
871.9760855441
 21
778.4232533466
 31
0.0
  0
LINE
  5
94
330
1F
100
AcDbEntity
  8
0
  6
Continuous
 62
     7
370
    25
100
AcDbLine
 10
879.8943547749
 20
779.6123559107
 30
0.0
 11
879.9328163133
 21
778.8270995004
 31
0.0
  0
LINE
  5
95
330
1F
100
AcDbEntity
  8
0
  6
Continuous
 62
     7
370
    25
100
AcDbLine
 10
873.803008621
 20
779.3030610389
 30
0.0
 11
879.8943547749
 21
779.6123559107
 31
0.0
  0
LINE
  5
96
330
1F
100
AcDbEntity
  8
0
  6
Continuous
 62
     7
370
    25
100
AcDbLine
 10
879.6251240056
 20
784.9008174491
 30
0.0
 11
873.803008621
 21
779.3030610389
 31
0.0
  0
LINE
  5
97
330
1F
100
AcDbEntity
  8
0
  6
Continuous
 62
     7
370
    25
100
AcDbLine
 10
879.6171111851
 20
785.0738943722
 30
0.0
 11
879.6251240056
 21
784.9008174491
 31
0.0
  0
LINE
  5
98
330
1F
100
AcDbEntity
  8
0
  6
Continuous
 62
     7
370
    25
100
AcDbLine
 10
871.6603804159
 20
784.6700482184
 30
0.0
 11
879.6171111851
 21
785.0738943722
 31
0.0
  0
LINE
  5
99
330
1F
100
AcDbEntity
  8
0
  6
Continuous
 62
     7
370
    25
100
AcDbLine
 10
871.7020470826
 20
783.8479328337
 30
0.0
 11
871.6603804159
 21
784.6700482184
 31
0.0
  0
LINE
  5
9A
330
1F
100
AcDbEntity
  8
0
  6
Continuous
 62
     7
370
    25
100
AcDbLine
 10
877.7164701595
 20
784.1524200132
 30
0.0
 11
871.7020470826
 21
783.8479328337
 31
0.0
  0
SPLINE
  5
9B
330
1F
100
AcDbEntity
  8
0
  6
Continuous
 62
     7
370
    25
100
AcDbSpline
210
0.0
220
0.0
230
1.0
 70
     8
 71
     3
 72
    31
 73
    27
 74
     0
 42
0.00000001
 43
0.00000001
 40
0.0
 40
0.0
 40
0.0
 40
0.0
 40
0.0339976539348124
 40
0.0673968359241916
 40
0.1001519552366615
 40
0.1330368962348029
 40
0.1656243420180341
 40
0.1984944722027849
 40
0.2318644824722169
 40
0.2657760904632631
 40
0.3003548215784803
 40
0.3352047442458583
 40
0.3705541008046328
 40
0.4070199793364634
 40
0.4447976037453566
 40
0.4838127797261529
 40
0.5243430444711944
 40
0.5662941269322789
 40
0.6103476342101264
 40
0.6570550853941949
 40
0.7066153706350716
 40
0.7589505735830738
 40
0.8144548646568947
 40
0.8729249079064021
 40
0.9347467066376508
 40
1.0
 40
1.0
 40
1.0
 40
1.0
 10
879.8883489123295
 20
788.4540344165688
 30
0.0
 10
879.8844394944545
 20
788.3903845460544
 30
0.0
 10
879.8766894774801
 20
788.2642052547457
 30
0.0
 10
879.849435582391
 20
788.0781300904968
 30
0.0
 10
879.8073422983235
 20
787.8970495057393
 30
0.0
 10
879.7512798361385
 20
787.7214062042648
 30
0.0
 10
879.6821470619157
 20
787.5502512066167
 30
0.0
 10
879.5984784227575
 20
787.3846338721293
 30
0.0
 10
879.5000614596767
 20
787.2245042066542
 30
0.0
 10
879.3897008572995
 20
787.0684136013336
 30
0.0
 10
879.2649675847337
 20
786.9198145599812
 30
0.0
 10
879.1266593917397
 20
786.7799692117183
 30
0.0
 10
878.9748227756095
 20
786.6494686920691
 30
0.0
 10
878.8092149518326
 20
786.5274645520474
 30
0.0
 10
878.6293799010016
 20
786.4142328240965
 30
0.0
 10
878.4367226148657
 20
786.3077035922014
 30
0.0
 10
878.22970642736
 20
786.2121587069983
 30
0.0
 10
878.0088340219136
 20
786.1252080974566
 30
0.0
 10
877.7722659202011
 20
786.047379985123
 30
0.0
 10
877.5167046635544
 20
785.98382152063
 30
0.0
 10
877.2425279311846
 20
785.93339439163
 30
0.0
 10
876.9500021332273
 20
785.8934997002838
 30
0.0
 10
876.6393772680851
 20
785.8646991636626
 30
0.0
 10
876.3100101962688
 20
785.8491051304386
 30
0.0
 10
875.962009234808
 20
785.8461465403204
 30
0.0
 10
875.7238071475887
 20
785.8528405962753
 30
0.0
 10
875.6014899379707
 20
785.8562780063124
 30
0.0
  0
SPLINE
  5
9C
330
1F
100
AcDbEntity
  8
0
  6
Continuous
 62
     7
370
    25
100
AcDbSpline
210
0.0
220
0.0
230
1.0
 70
     8
 71
     3
 72
    31
 73
    27
 74
     0
 42
0.00000001
 43
0.00000001
 40
0.0
 40
0.0
 40
0.0
 40
0.0
 40
0.0683770977941344
 40
0.1331670780490862
 40
0.193815501778413
 40
0.25075369601148
 40
0.303706086587979
 40
0.3534649846289263
 40
0.3995623791283489
 40
0.4424549694032813
 40
0.4831399783179927
 40
0.5220468224097262
 40
0.5600967262097336
 40
0.5968254298227715
 40
0.6324295642144752
 40
0.667327185543769
 40
0.7019357848709594
 40
0.7360266640581498
 40
0.7696371861707655
 40
0.8028745269997712
 40
0.8355409538060324
 40
0.8678436838628608
 40
0.9002761391735897
 40
0.933064575738252
 40
0.9661417596124608
 40
1.0
 40
1.0
 40
1.0
 40
1.0
 10
875.8114258354065
 20
791.2873677499022
 30
0.0
 10
875.9386262907768
 20
791.28195024526
 30
0.0
 10
876.186354163334
 20
791.2713994426257
 30
0.0
 10
876.5458500176675
 20
791.2396025620069
 30
0.0
 10
876.8834805564557
 20
791.2029526029675
 30
0.0
 10
877.1970278467146
 20
791.1524335065081
 30
0.0
 10
877.4889198946291
 20
791.0959106035547
 30
0.0
 10
877.7574999523337
 20
791.0272814676626
 30
0.0
 10
878.0038432370909
 20
790.9490668804743
 30
0.0
 10
878.2286889403658
 20
790.8605377441306
 30
0.0
 10
878.4342836009644
 20
790.7616013348147
 30
0.0
 10
878.6269839923895
 20
790.657280228143
 30
0.0
 10
878.8059404778218
 20
790.5439523097276
 30
0.0
 10
878.9717043840401
 20
790.4221584968186
 30
0.0
 10
879.1228971978129
 20
790.2915404781546
 30
0.0
 10
879.2619222272236
 20
790.15351122973
 30
0.0
 10
879.3861702300127
 20
790.0057510142063
 30
0.0
 10
879.499207513904
 20
789.8522056491219
 30
0.0
 10
879.5965297052967
 20
789.6912103297453
 30
0.0
 10
879.6818208360125
 20
789.5265760232967
 30
0.0
 10
879.7525479820467
 20
789.3577528874648
 30
0.0
 10
879.8091656091549
 20
789.1852747163233
 30
0.0
 10
879.850897634792
 20
789.0083405778292
 30
0.0
 10
879.877964403954
 20
788.8271682569106
 30
0.0
 10
879.8910263945644
 20
788.6417270799849
 30
0.0
 10
879.8892483224013
 20
788.5170834518334
 30
0.0
 10
879.8883489123295
 20
788.4540344165688
 30
0.0
  0
SPLINE
  5
9D
330
1F
100
AcDbEntity
  8
0
  6
Continuous
 62
     7
370
    25
100
AcDbSpline
210
0.0
220
0.0
230
1.0
 70
     8
 71
     3
 72
    31
 73
    27
 74
     0
 42
0.00000001
 43
0.00000001
 40
0.0
 40
0.0
 40
0.0
 40
0.0
 40
0.0336973927789392
 40
0.0667960297360272
 40
0.0995339351384888
 40
0.1320481553344237
 40
0.1643652214728273
 40
0.1968566077553087
 40
0.2297051569817298
 40
0.2630210807688103
 40
0.2968479243790323
 40
0.3309612149789077
 40
0.3660022300906671
 40
0.4019573556052526
 40
0.4384542513123478
 40
0.476478220239806
 40
0.5161909784769652
 40
0.5570954092607804
 40
0.6004190553451615
 40
0.6470846802236895
 40
0.6966567967645315
 40
0.750191047463124
 40
0.8069485456973845
 40
0.8675951510620813
 40
0.9319204296803344
 40
0.9999999999999999
 40
0.9999999999999999
 40
0.9999999999999999
 40
0.9999999999999999
 10
871.5309771174577
 20
788.7761498011841
 30
0.0
 10
871.5348865388987
 20
788.8387314876508
 30
0.0
 10
871.5426359167969
 20
788.9627828710196
 30
0.0
 10
871.5699616128985
 20
789.1461991820809
 30
0.0
 10
871.6122301284487
 20
789.3243510290796
 30
0.0
 10
871.6659493448789
 20
789.4979418556566
 30
0.0
 10
871.7358844576119
 20
789.6651915616023
 30
0.0
 10
871.8178688612061
 20
789.8274304691402
 30
0.0
 10
871.9121080471425
 20
789.9851749191554
 30
0.0
 10
872.0218987377369
 20
790.1355692264056
 30
0.0
 10
872.1430409774374
 20
790.2800306975937
 30
0.0
 10
872.2788484572884
 20
790.4155213054248
 30
0.0
 10
872.4283905688534
 20
790.5417384427467
 30
0.0
 10
872.5895465893011
 20
790.6604355142107
 30
0.0
 10
872.764695004695
 20
790.7683270317623
 30
0.0
 10
872.9526704789616
 20
790.8677211435727
 30
0.0
 10
873.1540058550917
 20
790.9584417571698
 30
0.0
 10
873.3693298636944
 20
791.041218243023
 30
0.0
 10
873.6019128755945
 20
791.1139129279284
 30
0.0
 10
873.8546326220456
 20
791.1741998314275
 30
0.0
 10
874.1292695637388
 20
791.2219285212013
 30
0.0
 10
874.4245521662198
 20
791.2580604499367
 30
0.0
 10
874.7415999821598
 20
791.2834368433802
 30
0.0
 10
875.0794313647342
 20
791.2978180586741
 30
0.0
 10
875.4386448033431
 20
791.2990160476666
 30
0.0
 10
875.6848385794982
 20
791.2913232248945
 30
0.0
 10
875.8114258354065
 20
791.2873677499022
 30
0.0
  0
SPLINE
  5
9E
330
1F
100
AcDbEntity
  8
0
  6
Continuous
 62
     7
370
    25
100
AcDbSpline
210
0.0
220
0.0
230
1.0
 70
     8
 71
     3
 72
    31
 73
    27
 74
     0
 42
0.00000001
 43
0.00000001
 40
0.0
 40
0.0
 40
0.0
 40
0.0
 40
0.0650874453057019
 40
0.126617798157359
 40
0.1849610933707787
 40
0.240169635535423
 40
0.2923355525374308
 40
0.341641458046547
 40
0.3882486620303462
 40
0.4319761168942362
 40
0.4737960012874221
 40
0.5140009105204016
 40
0.5529856027109099
 40
0.5904447220310453
 40
0.6272406019553594
 40
0.6629207702386787
 40
0.6981089803425268
 40
0.7328392302249875
 40
0.7671113286004141
 40
0.8006414850708836
 40
0.8337324907341173
 40
0.8666400220511414
 40
0.8994832807847072
 40
0.9326233683581309
 40
0.9660758749192567
 40
0.9999999999999999
 40
0.9999999999999999
 40
0.9999999999999999
 40
0.9999999999999999
 10
875.6014899379707
 20
785.8562780063124
 30
0.0
 10
875.4796396155007
 20
785.8617820205247
 30
0.0
 10
875.2425982096897
 20
785.8724892491971
 30
0.0
 10
874.8972518376202
 20
785.9031597425316
 30
0.0
 10
874.5717523612901
 20
785.9447718768824
 30
0.0
 10
874.2653710701723
 20
785.995807526868
 30
0.0
 10
873.9778947971047
 20
786.0559913036211
 30
0.0
 10
873.7097204894393
 20
786.1278554674217
 30
0.0
 10
873.4613653977857
 20
786.210796034781
 30
0.0
 10
873.2319053754738
 20
786.304381022634
 30
0.0
 10
873.0197606275252
 20
786.4073245115303
 30
0.0
 10
872.8219759800896
 20
786.518409561763
 30
0.0
 10
872.6373742330989
 20
786.6358487550982
 30
0.0
 10
872.4683423656145
 20
786.7643640173637
 30
0.0
 10
872.3107866048631
 20
786.8973766149873
 30
0.0
 10
872.1693849554046
 20
787.0416074920452
 30
0.0
 10
872.040462282518
 20
787.1919561561475
 30
0.0
 10
871.9267427470307
 20
787.3509539014414
 30
0.0
 10
871.82756305607
 20
787.5157494782499
 30
0.0
 10
871.7428323749351
 20
787.6848701992346
 30
0.0
 10
871.6690059673598
 20
787.85642118581
 30
0.0
 10
871.6143528470111
 20
788.0335983395398
 30
0.0
 10
871.5692537808955
 20
788.2135598600754
 30
0.0
 10
871.5437026204504
 20
788.3983457938726
 30
0.0
 10
871.5277307476179
 20
788.586234119454
 30
0.0
 10
871.5298899562156
 20
788.7125498484272
 30
0.0
 10
871.5309771174577
 20
788.7761498011841
 30
0.0
  0
CIRCLE
  5
9F
330
1F
100
AcDbEntity
  8
0
  6
Continuous
 62
     7
370
    25
100
AcDbCircle
 10
951.4872798434
 20
785.6360078278
 30
0.0
 40
52.5
  0
CIRCLE
  5
A0
330
1F
100
AcDbEntity
  8
0
  6
Continuous
 62
     7
370
    25
100
AcDbCircle
 10
884.5060137364
 20
813.3805566743
 30
0.0
 40
9.5
  0
CIRCLE
  5
A1
330
1F
100
AcDbEntity
  8
0
  6
Continuous
 62
     7
370
    25
100
AcDbCircle
 10
923.742730997
 20
718.6547417207
 30
0.0
 40
9.5
  0
CIRCLE
  5
A2
330
1F
100
AcDbEntity
  8
0
  6
Continuous
 62
     7
370
    25
100
AcDbCircle
 10
1018.4685459505
 20
757.8914589813
 30
0.0
 40
9.5
  0
CIRCLE
  5
A3
330
1F
100
AcDbEntity
  8
0
  6
Continuous
 62
     7
370
    25
100
AcDbCircle
 10
979.2318286899
 20
852.6172739349
 30
0.0
 40
9.500000000000114
  0
CIRCLE
  5
A4
330
1F
100
AcDbEntity
  8
0
  6
Continuous
 62
     7
370
    25
100
AcDbCircle
 10
951.4872798434
 20
785.6360078278
 30
0.0
 40
90.0
  0
SPLINE
  5
A5
330
1F
100
AcDbEntity
  8
0
  6
Continuous
 62
     7
370
    25
100
AcDbSpline
210
0.0
220
0.0
230
1.0
 70
     8
 71
     3
 72
    23
 73
    19
 74
     0
 42
0.00000001
 43
0.00000001
 40
0.0
 40
0.0
 40
0.0
 40
0.0
 40
0.0608323218983408
 40
0.1197278530808517
 40
0.1777138256687401
 40
0.2349833786228266
 40
0.2921687646469696
 40
0.3500760678728301
 40
0.4095471106871901
 40
0.4707796680896036
 40
0.5327785957810941
 40
0.5947164517102397
 40
0.6570156985203907
 40
0.7209650278059161
 40
0.78646254069043
 40
0.8546771872718643
 40
0.9253978613835593
 40
1.0
 40
1.0
 40
1.0
 40
1.0
 10
875.1141176986296
 20
772.0781305462476
 30
0.0
 10
875.0362391677145
 20
772.0691080285729
 30
0.0
 10
874.8829616169553
 20
772.0513502538101
 30
0.0
 10
874.653501662978
 20
772.0516229054172
 30
0.0
 10
874.4301205208337
 20
772.0757758338317
 30
0.0
 10
874.2126051117424
 20
772.1224954768351
 30
0.0
 10
874.0010698846922
 20
772.1913839434819
 30
0.0
 10
873.7965700354381
 20
772.2858642617508
 30
0.0
 10
873.5974148778184
 20
772.4015949534522
 30
0.0
 10
873.4056577922471
 20
772.5386668150559
 30
0.0
 10
873.2266928834667
 20
772.6969409222701
 30
0.0
 10
873.0639214131296
 20
772.8737345070322
 30
0.0
 10
872.9202030486749
 20
773.0695414741173
 30
0.0
 10
872.7959200526245
 20
773.2833550278402
 30
0.0
 10
872.6871459766264
 20
773.5139636162987
 30
0.0
 10
872.6001468240106
 20
773.7628702165687
 30
0.0
 10
872.5302430290092
 20
774.0292623878104
 30
0.0
 10
872.499891238486
 20
774.2140422033565
 30
0.0
 10
872.4843100063218
 20
774.3088997770169
 30
0.0
  0
SPLINE
  5
A6
330
1F
100
AcDbEntity
  8
0
  6
Continuous
 62
     7
370
    25
100
AcDbSpline
210
0.0
220
0.0
230
1.0
 70
     8
 71
     3
 72
    19
 73
    15
 74
     0
 42
0.00000001
 43
0.00000001
 40
0.0
 40
0.0
 40
0.0
 40
0.0
 40
0.1097300278035449
 40
0.2087791926917754
 40
0.2986984223105435
 40
0.3797959055457265
 40
0.4559171829250031
 40
0.5318728440572071
 40
0.607737262143213
 40
0.6848386424832762
 40
0.7625075581546855
 40
0.8401622853162602
 40
0.9187900133256285
 40
1.0
 40
1.0
 40
1.0
 40
1.0
 10
876.9121946217066
 20
774.0236433667604
 30
0.0
 10
876.891487108453
 20
773.9211853796437
 30
0.0
 10
876.8520877025998
 20
773.7262424249827
 30
0.0
 10
876.7688640012594
 20
773.4539906978533
 30
0.0
 10
876.6771590517501
 20
773.213304389809
 30
0.0
 10
876.5641833597191
 20
773.0060984377266
 30
0.0
 10
876.4359602689406
 20
772.8244587154749
 30
0.0
 10
876.2936174528727
 20
772.660046434336
 30
0.0
 10
876.1316219289058
 20
772.5135166535891
 30
0.0
 10
875.953985075653
 20
772.3838178739317
 30
0.0
 10
875.76187756789
 20
772.2730112072725
 30
0.0
 10
875.5569741051514
 20
772.1846325678505
 30
0.0
 10
875.3403467432547
 20
772.1177346861309
 30
0.0
 10
875.1903352173856
 20
772.0914733479174
 30
0.0
 10
875.1141176986296
 20
772.0781305462476
 30
0.0
  0
SPLINE
  5
A7
330
1F
100
AcDbEntity
  8
0
  6
Continuous
 62
     7
370
    25
100
AcDbSpline
210
0.0
220
0.0
230
1.0
 70
     8
 71
     3
 72
    15
 73
    11
 74
     0
 42
0.00000001
 43
0.00000001
 40
0.0
 40
0.0
 40
0.0
 40
0.0
 40
0.1260483274327173
 40
0.2479728198306012
 40
0.3687497795564245
 40
0.4906446666542174
 40
0.6130836366386822
 40
0.7372374772344062
 40
0.8656427150048247
 40
1.0
 40
1.0
 40
1.0
 40
1.0
 10
878.7150792370911
 20
773.249604905222
 30
0.0
 10
878.6286483299657
 20
773.240252033891
 30
0.0
 10
878.4586142152976
 20
773.2218522825839
 30
0.0
 10
878.2039067554769
 20
773.236073854414
 30
0.0
 10
877.9565157818172
 20
773.2827193194651
 30
0.0
 10
877.7172468269495
 20
773.3627778553347
 30
0.0
 10
877.4896020115699
 20
773.477122730368
 30
0.0
 10
877.2780685474567
 20
773.6267113085768
 30
0.0
 10
877.082144875936
 20
773.8089304678563
 30
0.0
 10
876.9696937801375
 20
773.9509996920143
 30
0.0
 10
876.9121946217066
 20
774.0236433667604
 30
0.0
  0
SPLINE
  5
A8
330
1F
100
AcDbEntity
  8
0
  6
Continuous
 62
     7
370
    25
100
AcDbSpline
210
0.0
220
0.0
230
1.0
 70
     8
 71
     3
 72
    23
 73
    19
 74
     0
 42
0.00000001
 43
0.00000001
 40
0.0
 40
0.0
 40
0.0
 40
0.0
 40
0.0629274502630925
 40
0.1225524573148108
 40
0.1780316423483653
 40
0.2303553658194412
 40
0.2792041196099503
 40
0.3246588624345022
 40
0.3673757253620319
 40
0.4067222710130799
 40
0.4813939186503894
 40
0.5541661403214081
 40
0.627057780432686
 40
0.7013557690804749
 40
0.7758304414268958
 40
0.849197811577503
 40
0.9236049779317695
 40
1.0
 40
1.0
 40
1.0
 40
1.0
 10
880.2791818011937
 20
776.0556946488117
 30
0.0
 10
880.2892290168704
 20
775.9798946956429
 30
0.0
 10
880.3087961686496
 20
775.832272783642
 30
0.0
 10
880.3300833605813
 20
775.6169178554796
 30
0.0
 10
880.3407909155039
 20
775.4137473332565
 30
0.0
 10
880.3457973694399
 20
775.223341250645
 30
0.0
 10
880.3362649545869
 20
775.0453291720911
 30
0.0
 10
880.3231725207805
 20
774.8793207722704
 30
0.0
 10
880.299764621281
 20
774.7259339236766
 30
0.0
 10
880.2545278582388
 20
774.5407966018114
 30
0.0
 10
880.1790569144762
 20
774.3258693847905
 30
0.0
 10
880.0522804917833
 20
774.0889151485441
 30
0.0
 10
879.8922059590575
 20
773.8735991646748
 30
0.0
 10
879.6997391975467
 20
773.6838616503813
 30
0.0
 10
879.4826478465205
 20
773.5218225291385
 30
0.0
 10
879.2437323523056
 20
773.3942629771171
 30
0.0
 10
878.9871990685896
 20
773.2987486804792
 30
0.0
 10
878.8065794825723
 20
773.2661294910088
 30
0.0
 10
878.7150792370911
 20
773.249604905222
 30
0.0
  0
LINE
  5
A9
330
1F
100
AcDbEntity
  8
0
  6
Continuous
 62
     7
370
    25
100
AcDbLine
 10
880.0548228268
 20
777.6101818283
 30
0.0
 11
880.2791818012
 21
776.0556946488
 31
0.0
  0
LINE
  5
AA
330
1F
100
AcDbEntity
  8
0
  6
Continuous
 62
     7
370
    25
100
AcDbLine
 10
872.1718100063
 20
776.4739638796
 30
0.0
 11
880.0548228268
 21
777.6101818283
 31
0.0
  0
LINE
  5
AB
330
1F
100
AcDbEntity
  8
0
  6
Continuous
 62
     7
370
    25
100
AcDbLine
 10
872.4843100063
 20
774.308899777
 30
0.0
 11
872.1718100063
 21
776.4739638796
 31
0.0
  0
LINE
  5
AC
330
1F
100
AcDbEntity
  8
0
  6
Continuous
 62
     7
370
    25
100
AcDbLine
 10
876.8754624678
 20
768.577959835
 30
0.0
 11
876.2280265703
 21
768.4433444503
 31
0.0
  0
LINE
  5
AD
330
1F
100
AcDbEntity
  8
0
  6
Continuous
 62
     7
370
    25
100
AcDbLine
 10
876.2648855447
 20
771.4978316298
 30
0.0
 11
876.8754624678
 21
768.577959835
 31
0.0
  0
LINE
  5
AE
330
1F
100
AcDbEntity
  8
0
  6
Continuous
 62
     7
370
    25
100
AcDbLine
 10
875.6174496472
 20
771.3632162452
 30
0.0
 11
876.2648855447
 21
771.4978316298
 31
0.0
  0
LINE
  5
AF
330
1F
100
AcDbEntity
  8
0
  6
Continuous
 62
     7
370
    25
100
AcDbLine
 10
876.2280265703
 20
768.4433444503
 30
0.0
 11
875.6174496472
 21
771.3632162452
 31
0.0
  0
SPLINE
  5
B0
330
1F
100
AcDbEntity
  8
0
  6
Continuous
 62
     7
370
    25
100
AcDbSpline
210
0.0
220
0.0
230
1.0
 70
     8
 71
     3
 72
    23
 73
    19
 74
     0
 42
0.00000001
 43
0.00000001
 40
0.0
 40
0.0
 40
0.0
 40
0.0
 40
0.0958346137521525
 40
0.1860443079182859
 40
0.270028581440017
 40
0.348530824849413
 40
0.4215393473070518
 40
0.4888330377087969
 40
0.5512325579902824
 40
0.6081122957206927
 40
0.6614323385369751
 40
0.7132976365107684
 40
0.7638614945916081
 40
0.8123456025423581
 40
0.8603342058937716
 40
0.9071453621288911
 40
0.9538168186645384
 40
1.0
 40
1.0
 40
1.0
 40
1.0
 10
882.1434122448926
 20
756.1467110693765
 30
0.0
 10
882.1181095599684
 20
756.0467350526728
 30
0.0
 10
882.0689893066391
 20
755.8526510144761
 30
0.0
 10
881.992143053926
 20
755.5723130216015
 30
0.0
 10
881.9072049673456
 20
755.3139336989017
 30
0.0
 10
881.8240769142672
 20
755.0744534446758
 30
0.0
 10
881.7336965790042
 20
754.856901947109
 30
0.0
 10
881.6425765550813
 20
754.6586659510314
 30
0.0
 10
881.5492387019326
 20
754.4807147536956
 30
0.0
 10
881.4500747778296
 20
754.3234368569126
 30
0.0
 10
881.3473979395286
 20
754.1823679935825
 30
0.0
 10
881.2421479317791
 20
754.0517855928027
 30
0.0
 10
881.1303833425628
 20
753.9336781713881
 30
0.0
 10
881.013193170396
 20
753.8272603272627
 30
0.0
 10
880.8943116803852
 20
753.7288455690075
 30
0.0
 10
880.7680525162048
 20
753.6433672935286
 30
0.0
 10
880.6367423280827
 20
753.5698574559016
 30
0.0
 10
880.5459443157189
 20
753.5280712361275
 30
0.0
 10
880.5007840397644
 20
753.5072879924534
 30
0.0
  0
SPLINE
  5
B1
330
1F
100
AcDbEntity
  8
0
  6
Continuous
 62
     7
370
    25
100
AcDbSpline
210
0.0
220
0.0
230
1.0
 70
     8
 71
     3
 72
    15
 73
    11
 74
     0
 42
0.00000001
 43
0.00000001
 40
0.0
 40
0.0
 40
0.0
 40
0.0
 40
0.0524522916365636
 40
0.124886144901288
 40
0.2189015902544039
 40
0.3341861307123829
 40
0.4695702276952615
 40
0.6253666293666483
 40
0.8024771934352797
 40
1.0
 40
1.0
 40
1.0
 40
1.0
 10
882.4735404500208
 20
757.398313633479
 30
0.0
 10
882.4658706088492
 20
757.3770088697987
 30
0.0
 10
882.4476091208181
 20
757.3262833491199
 30
0.0
 10
882.4213000617348
 20
757.2355004084062
 30
0.0
 10
882.3871451724707
 20
757.1188093325586
 30
0.0
 10
882.3493047952865
 20
756.9749148630642
 30
0.0
 10
882.3064773432643
 20
756.8047976332914
 30
0.0
 10
882.2560065992279
 20
756.6090794854075
 30
0.0
 10
882.2024260673803
 20
756.3864988153167
 30
0.0
 10
882.1637853113882
 20
756.2294918737188
 30
0.0
 10
882.1434122448926
 20
756.1467110693765
 30
0.0
  0
SPLINE
  5
B2
330
1F
100
AcDbEntity
  8
0
  6
Continuous
 62
     7
370
    25
100
AcDbSpline
210
0.0
220
0.0
230
1.0
 70
     8
 71
     3
 72
    15
 73
    11
 74
     0
 42
0.00000001
 43
0.00000001
 40
0.0
 40
0.0
 40
0.0
 40
0.0
 40
0.1091499729032511
 40
0.2181209763766504
 40
0.3277806810667813
 40
0.4386877080954012
 40
0.5568731794999813
 40
0.6888501915926983
 40
0.8370617637893187
 40
1.0
 40
1.0
 40
1.0
 40
1.0
 10
883.2267455782259
 20
758.2572879924534
 30
0.0
 10
883.1879020332896
 20
758.239348774135
 30
0.0
 10
883.1102786338319
 20
758.2034997518132
 30
0.0
 10
883.0005077088431
 20
758.1359926202308
 30
0.0
 10
882.9001487943551
 20
758.0545092190334
 30
0.0
 10
882.802553375274
 20
757.9641904905552
 30
0.0
 10
882.713480806556
 20
757.8537164081753
 30
0.0
 10
882.6284029071747
 20
757.7226306079915
 30
0.0
 10
882.5475025451508
 20
757.5687400444526
 30
0.0
 10
882.4989603134063
 20
757.4568870970434
 30
0.0
 10
882.4735404500208
 20
757.398313633479
 30
0.0
  0
SPLINE
  5
B3
330
1F
100
AcDbEntity
  8
0
  6
Continuous
 62
     7
370
    25
100
AcDbSpline
210
0.0
220
0.0
230
1.0
 70
     8
 71
     3
 72
    15
 73
    11
 74
     0
 42
0.00000001
 43
0.00000001
 40
0.0
 40
0.0
 40
0.0
 40
0.0
 40
0.1388112040969263
 40
0.2674257449685991
 40
0.3918735969273027
 40
0.5173489189893196
 40
0.6397236382468441
 40
0.7577513715229723
 40
0.8757791047991005
 40
1.0
 40
1.0
 40
1.0
 40
1.0
 10
884.5745019884823
 20
757.6499161975815
 30
0.0
 10
884.5417385405409
 20
757.7191970053655
 30
0.0
 10
884.4786183512846
 20
757.8526694563407
 30
0.0
 10
884.3454489821142
 20
758.0247759938253
 30
0.0
 10
884.1872310953074
 20
758.1626790637929
 30
0.0
 10
884.0064830375401
 20
758.2623919561495
 30
0.0
 10
883.8139275800474
 20
758.326204301656
 30
0.0
 10
883.6163103280478
 20
758.3474367969942
 30
0.0
 10
883.4168102984446
 20
758.327170583822
 30
0.0
 10
883.291171152977
 20
758.2809758505094
 30
0.0
 10
883.2267455782259
 20
758.2572879924533
 30
0.0
  0
SPLINE
  5
B4
330
1F
100
AcDbEntity
  8
0
  6
Continuous
 62
     7
370
    25
100
AcDbSpline
210
0.0
220
0.0
230
1.0
 70
     8
 71
     3
 72
    19
 73
    15
 74
     0
 42
0.00000001
 43
0.00000001
 40
0.0
 40
0.0
 40
0.0
 40
0.0
 40
0.0990090636743325
 40
0.1908434518855255
 40
0.2751649295582342
 40
0.3544233188031364
 40
0.4252681748117679
 40
0.491298385609351
 40
0.5504915079862813
 40
0.6033679623801287
 40
0.7031734840369008
 40
0.8011620318782307
 40
0.8991307740502655
 40
1.0
 40
1.0
 40
1.0
 40
1.0
 10
884.2459763474567
 20
755.9367751719406
 30
0.0
 10
884.2755533191436
 20
755.9890135392191
 30
0.0
 10
884.332563972144
 20
756.0897048291105
 30
0.0
 10
884.4116039463158
 20
756.2366860524764
 30
0.0
 10
884.4790008799783
 20
756.3761221123576
 30
0.0
 10
884.5387764141377
 20
756.5051604333709
 30
0.0
 10
884.5852313544962
 20
756.6277531523796
 30
0.0
 10
884.6244526575514
 20
756.7400414122652
 30
0.0
 10
884.6516964329929
 20
756.8446503103823
 30
0.0
 10
884.675719656598
 20
756.9709521264396
 30
0.0
 10
884.6857248980094
 20
757.1232331947855
 30
0.0
 10
884.674487080819
 20
757.3025445095249
 30
0.0
 10
884.6400045603957
 20
757.4800974120694
 30
0.0
 10
884.5965474844107
 20
757.592762115914
 30
0.0
 10
884.5745019884823
 20
757.6499161975815
 30
0.0
  0
LINE
  5
B5
330
1F
100
AcDbEntity
  8
0
  6
Continuous
 62
     7
370
    25
100
AcDbLine
 10
884.9495019885
 20
755.5329290181
 30
0.0
 11
884.2459763475
 21
755.9367751719
 31
0.0
  0
SPLINE
  5
B6
330
1F
100
AcDbEntity
  8
0
  6
Continuous
 62
     7
370
    25
100
AcDbSpline
210
0.0
220
0.0
230
1.0
 70
     8
 71
     3
 72
    19
 73
    15
 74
     0
 42
0.00000001
 43
0.00000001
 40
0.0
 40
0.0
 40
0.0
 40
0.0
 40
0.1077737989594339
 40
0.2134963327749534
 40
0.3198669132710396
 40
0.4279891266969055
 40
0.4845285649581833
 40
0.5451130851115767
 40
0.6094308691142429
 40
0.6783280250405842
 40
0.7514189765064662
 40
0.8291779182209308
 40
0.912274246193229
 40
1.0
 40
1.0
 40
1.0
 40
1.0
 10
885.3357199372003
 20
757.9511982488635
 30
0.0
 10
885.3687563272038
 20
757.8654453351486
 30
0.0
 10
885.4342003236294
 20
757.69557164804
 30
0.0
 10
885.4866086614076
 20
757.4272058923154
 30
0.0
 10
885.5090015779999
 20
757.1549639981924
 30
0.0
 10
885.4945969831019
 20
756.9238855188815
 30
0.0
 10
885.4651936145895
 20
756.7343141504501
 30
0.0
 10
885.4295650018015
 20
756.5838607365679
 30
0.0
 10
885.3807640956227
 20
756.4261924417857
 30
0.0
 10
885.3200078480571
 20
756.2613181204085
 30
0.0
 10
885.2451140297826
 20
756.0898504090399
 30
0.0
 10
885.1605676700723
 20
755.9095070882249
 30
0.0
 10
885.0611030584348
 20
755.7226285421866
 30
0.0
 10
884.9873684357688
 20
755.5972944138057
 30
0.0
 10
884.9495019884823
 20
755.5329290180944
 30
0.0
  0
SPLINE
  5
B7
330
1F
100
AcDbEntity
  8
0
  6
Continuous
 62
     7
370
    25
100
AcDbSpline
210
0.0
220
0.0
230
1.0
 70
     8
 71
     3
 72
    19
 73
    15
 74
     0
 42
0.00000001
 43
0.00000001
 40
0.0
 40
0.0
 40
0.0
 40
0.0
 40
0.0850004874859941
 40
0.1674371035117519
 40
0.2482760174991968
 40
0.3301164886073399
 40
0.4118085698599187
 40
0.4925473604139055
 40
0.57475939133714
 40
0.6588612813943566
 40
0.7437172028923423
 40
0.8283088680284657
 40
0.9129858672578469
 40
1.0
 40
1.0
 40
1.0
 40
1.0
 10
882.877386603867
 20
758.9992751719406
 30
0.0
 10
882.9562711002787
 20
759.0298211122723
 30
0.0
 10
883.111660698407
 20
759.0899916351066
 30
0.0
 10
883.3543196614161
 20
759.1406520468644
 30
0.0
 10
883.5978479255133
 20
759.1583660665395
 30
0.0
 10
883.8411537436173
 20
759.1445610548338
 30
0.0
 10
884.0797445621452
 20
759.0958456898139
 30
0.0
 10
884.3105645085933
 20
759.0170800723558
 30
0.0
 10
884.529449652103
 20
758.9038275550791
 30
0.0
 10
884.7337328908943
 20
758.7591590172117
 30
0.0
 10
884.9207587027145
 20
758.5894512706409
 30
0.0
 10
885.0872604723439
 20
758.3986624346331
 30
0.0
 10
885.2267453828551
 20
758.1843197320858
 30
0.0
 10
885.2990669284268
 20
758.0296074134726
 30
0.0
 10
885.3357199372003
 20
757.9511982488635
 30
0.0
  0
SPLINE
  5
B8
330
1F
100
AcDbEntity
  8
0
  6
Continuous
 62
     7
370
    25
100
AcDbSpline
210
0.0
220
0.0
230
1.0
 70
     8
 71
     3
 72
    15
 73
    11
 74
     0
 42
0.00000001
 43
0.00000001
 40
0.0
 40
0.0
 40
0.0
 40
0.0
 40
0.1318483562599246
 40
0.2607769854939911
 40
0.387035065949241
 40
0.5103388726896645
 40
0.632339661749942
 40
0.7542662786750457
 40
0.8764152768878459
 40
1.0
 40
1.0
 40
1.0
 40
1.0
 10
881.9254635269439
 20
758.1403008129661
 30
0.0
 10
881.954990234244
 20
758.1895349042087
 30
0.0
 10
882.0133897921885
 20
758.2869128182151
 30
0.0
 10
882.1161234726825
 20
758.4205864376521
 30
0.0
 10
882.2220444942312
 20
758.5468972812472
 30
0.0
 10
882.339241380531
 20
758.6584848602372
 30
0.0
 10
882.4602579925814
 20
758.7631596179649
 30
0.0
 10
882.5931332030056
 20
758.8513810176161
 30
0.0
 10
882.7306896974983
 20
758.9334001982401
 30
0.0
 10
882.8282975404095
 20
758.9772314844199
 30
0.0
 10
882.877386603867
 20
758.9992751719406
 30
0.0
  0
SPLINE
  5
B9
330
1F
100
AcDbEntity
  8
0
  6
Continuous
 62
     7
370
    25
100
AcDbSpline
210
0.0
220
0.0
230
1.0
 70
     8
 71
     3
 72
    15
 73
    11
 74
     0
 42
0.00000001
 43
0.00000001
 40
0.0
 40
0.0
 40
0.0
 40
0.0
 40
0.1804197012433499
 40
0.3450137749231532
 40
0.4943273047262391
 40
0.6265851924380319
 40
0.7431237895651722
 40
0.8446851647855487
 40
0.9302088095496595
 40
1.0
 40
1.0
 40
1.0
 40
1.0
 10
881.4078353218157
 20
756.5842110693765
 30
0.0
 10
881.4328560127635
 20
756.6798538737643
 30
0.0
 10
881.4807026890168
 20
756.8627501138016
 30
0.0
 10
881.5506103126812
 20
757.124435557645
 30
0.0
 10
881.6183460963704
 20
757.3594014074663
 30
0.0
 10
881.6870495332712
 20
757.5664522564261
 30
0.0
 10
881.7481317566569
 20
757.7485088291153
 30
0.0
 10
881.8090805942115
 20
757.903326002124
 30
0.0
 10
881.8652303249755
 20
758.0325853492717
 30
0.0
 10
881.9067890074253
 20
758.1069050368249
 30
0.0
 10
881.9254635269439
 20
758.1403008129661
 30
0.0
  0
SPLINE
  5
BA
330
1F
100
AcDbEntity
  8
0
  6
Continuous
 62
     7
370
    25
100
AcDbSpline
210
0.0
220
0.0
230
1.0
 70
     8
 71
     3
 72
    15
 73
    11
 74
     0
 42
0.00000001
 43
0.00000001
 40
0.0
 40
0.0
 40
0.0
 40
0.0
 40
0.0912754793245163
 40
0.1912346661802168
 40
0.3009569682580037
 40
0.4206958598858501
 40
0.5501162335949695
 40
0.6898656761179836
 40
0.8400703840954541
 40
1.0
 40
1.0
 40
1.0
 40
1.0
 10
880.7668096807901
 20
754.8406213257866
 30
0.0
 10
880.7957324383143
 20
754.8894301436183
 30
0.0
 10
880.8563295879662
 20
754.9916913210315
 30
0.0
 10
880.9390364476852
 20
755.1595990107991
 30
0.0
 10
881.0207547892843
 20
755.3473399437275
 30
0.0
 10
881.0997925403916
 20
755.5559242283017
 30
0.0
 10
881.180560433045
 20
755.7837172662164
 30
0.0
 10
881.2585624503055
 20
756.032414822558
 30
0.0
 10
881.335385594988
 20
756.3012362940616
 30
0.0
 10
881.3831857879901
 20
756.4879347050432
 30
0.0
 10
881.4078353218157
 20
756.5842110693765
 30
0.0
  0
SPLINE
  5
BB
330
1F
100
AcDbEntity
  8
0
  6
Continuous
 62
     7
370
    25
100
AcDbSpline
210
0.0
220
0.0
230
1.0
 70
     8
 71
     3
 72
    11
 73
     7
 74
     0
 42
0.00000001
 43
0.00000001
 40
0.0
 40
0.0
 40
0.0
 40
0.0
 40
0.2376174167834379
 40
0.480297722512873
 40
0.7316690272795198
 40
1.0
 40
1.0
 40
1.0
 40
1.0
 10
880.1514250654054
 20
754.2893392745046
 30
0.0
 10
880.2114007569901
 20
754.3182947785712
 30
0.0
 10
880.3326300358209
 20
754.3768227385398
 30
0.0
 10
880.4946199709487
 20
754.5038377871392
 30
0.0
 10
880.6433936712962
 20
754.6576503235615
 30
0.0
 10
880.7247856445351
 20
754.778318387435
 30
0.0
 10
880.7668096807901
 20
754.8406213257866
 30
0.0
  0
SPLINE
  5
BC
330
1F
100
AcDbEntity
  8
0
  6
Continuous
 62
     7
370
    25
100
AcDbSpline
210
0.0
220
0.0
230
1.0
 70
     8
 71
     3
 72
    19
 73
    15
 74
     0
 42
0.00000001
 43
0.00000001
 40
0.0
 40
0.0
 40
0.0
 40
0.0
 40
0.0888378586513329
 40
0.176307408796357
 40
0.2627281508202405
 40
0.3514861046572468
 40
0.4387962774061703
 40
0.5224669122892506
 40
0.6043501920705558
 40
0.685821639778734
 40
0.7664533370717689
 40
0.8441911117059968
 40
0.9218206352525343
 40
1.0
 40
1.0
 40
1.0
 40
1.0
 10
878.3437327577132
 20
755.1146597873252
 30
0.0
 10
878.3710791053861
 20
755.0550968908317
 30
0.0
 10
878.4253506037257
 20
754.9368885042207
 30
0.0
 10
878.5326325201602
 20
754.7748629284365
 30
0.0
 10
878.6576688201151
 20
754.6266321659408
 30
0.0
 10
878.8003714592958
 20
754.4953253826708
 30
0.0
 10
878.9561501894807
 20
754.3832241587963
 30
0.0
 10
879.1213435065391
 20
754.2958675235739
 30
0.0
 10
879.2924797991404
 20
754.2321689922229
 30
0.0
 10
879.4691680634986
 20
754.1953610109992
 30
0.0
 10
879.6461293315093
 20
754.1847245885439
 30
0.0
 10
879.8199994687474
 20
754.1959971981885
 30
0.0
 10
879.9897516277398
 20
754.2287283499002
 30
0.0
 10
880.0974072825085
 20
754.2690881571056
 30
0.0
 10
880.1514250654054
 20
754.2893392745046
 30
0.0
  0
SPLINE
  5
BD
330
1F
100
AcDbEntity
  8
0
  6
Continuous
 62
     7
370
    25
100
AcDbSpline
210
0.0
220
0.0
230
1.0
 70
     8
 71
     3
 72
    15
 73
    11
 74
     0
 42
0.00000001
 43
0.00000001
 40
0.0
 40
0.0
 40
0.0
 40
0.0
 40
0.1616786376713985
 40
0.3093189931607425
 40
0.4445646276163155
 40
0.5677947250545894
 40
0.6828479590863034
 40
0.7912510667079515
 40
0.8953976956930718
 40
1.0
 40
1.0
 40
1.0
 40
1.0
 10
878.9094378859182
 20
757.1354931206585
 30
0.0
 10
878.8374974942706
 20
757.0408994259446
 30
0.0
 10
878.6998631732955
 20
756.859925446762
 30
0.0
 10
878.5245797580773
 20
756.5836314072952
 30
0.0
 10
878.3914921843416
 20
756.3157637302562
 30
0.0
 10
878.3000023624735
 20
756.0563337082565
 30
0.0
 10
878.2459268450875
 20
755.8062993827006
 30
0.0
 10
878.2362882185395
 20
755.5647966278124
 30
0.0
 10
878.2648649989848
 20
755.331665483904
 30
0.0
 10
878.3174052749762
 20
755.1871002094017
 30
0.0
 10
878.3437327577132
 20
755.1146597873252
 30
0.0
  0
LINE
  5
BE
330
1F
100
AcDbEntity
  8
0
  6
Continuous
 62
     7
370
    25
100
AcDbLine
 10
878.2748225013
 20
757.5970315822
 30
0.0
 11
878.9094378859
 21
757.1354931207
 31
0.0
  0
SPLINE
  5
BF
330
1F
100
AcDbEntity
  8
0
  6
Continuous
 62
     7
370
    25
100
AcDbSpline
210
0.0
220
0.0
230
1.0
 70
     8
 71
     3
 72
    23
 73
    19
 74
     0
 42
0.00000001
 43
0.00000001
 40
0.0
 40
0.0
 40
0.0
 40
0.0
 40
0.0579718033450248
 40
0.1145829314844668
 40
0.1706197759929227
 40
0.2258783607587657
 40
0.2811834605234548
 40
0.3368519883035018
 40
0.3926395153625988
 40
0.4489269774381865
 40
0.5071085118336797
 40
0.5676609303574048
 40
0.6307506318801848
 40
0.6975415999268949
 40
0.7676309945108969
 40
0.8412537759211307
 40
0.9183164845983693
 40
1.0
 40
1.0
 40
1.0
 40
1.0
 10
877.664245578226
 20
754.7460700437354
 30
0.0
 10
877.6420747211415
 20
754.8013329819371
 30
0.0
 10
877.5982533864292
 20
754.9105617637969
 30
0.0
 10
877.5470207521586
 20
755.0783156011724
 30
0.0
 10
877.5084811815175
 20
755.2464892749442
 30
0.0
 10
877.4826230544035
 20
755.4157394142308
 30
0.0
 10
877.4696313895073
 20
755.5861182111332
 30
0.0
 10
877.4703817679216
 20
755.7574500631395
 30
0.0
 10
877.4805277837803
 20
755.9295510320387
 30
0.0
 10
877.5071240330004
 20
756.1025395831433
 30
0.0
 10
877.5469136779697
 20
756.2779766381653
 30
0.0
 10
877.6041062043555
 20
756.455870302712
 30
0.0
 10
877.6745550260465
 20
756.6384175018422
 30
0.0
 10
877.7633946717216
 20
756.8237189269621
 30
0.0
 10
877.8677342424427
 20
757.0131326542214
 30
0.0
 10
877.9887155014147
 20
757.2049254442807
 30
0.0
 10
878.1233695603942
 20
757.4020175009849
 30
0.0
 10
878.2233679322546
 20
757.5307775666137
 30
0.0
 10
878.2748225013029
 20
757.5970315821969
 30
0.0
  0
SPLINE
  5
C0
330
1F
100
AcDbEntity
  8
0
  6
Continuous
 62
     7
370
    25
100
AcDbSpline
210
0.0
220
0.0
230
1.0
 70
     8
 71
     3
 72
    23
 73
    19
 74
     0
 42
0.00000001
 43
0.00000001
 40
0.0
 40
0.0
 40
0.0
 40
0.0
 40
0.0616592116318065
 40
0.1218142917983498
 40
0.1811526793225784
 40
0.2404067610987619
 40
0.3001976185899607
 40
0.3612065647599065
 40
0.4235214641356645
 40
0.4887270588858882
 40
0.5537891647810463
 40
0.6175930495375591
 40
0.6802523000062053
 40
0.7426282078436333
 40
0.8050389508830575
 40
0.8684498771957717
 40
0.9330526957047885
 40
1.0
 40
1.0
 40
1.0
 40
1.0
 10
880.5007840397644
 20
753.5072879924534
 30
0.0
 10
880.4350452644691
 20
753.4812418279637
 30
0.0
 10
880.3051713633216
 20
753.4297848761572
 30
0.0
 10
880.1033172502563
 20
753.3789201290647
 30
0.0
 10
879.9002376889432
 20
753.3499632219873
 30
0.0
 10
879.6956528962085
 20
753.3420473826104
 30
0.0
 10
879.4893252120012
 20
753.354556462721
 30
0.0
 10
879.2822596785759
 20
753.3906529220611
 30
0.0
 10
879.0734527439718
 20
753.4472463269502
 30
0.0
 10
878.8668147234447
 20
753.5254023428091
 30
0.0
 10
878.6651818851126
 20
753.619983607611
 30
0.0
 10
878.4777011529221
 20
753.7347707386929
 30
0.0
 10
878.3032182309041
 20
753.8632029802225
 30
0.0
 10
878.1438406730681
 20
754.0078002761808
 30
0.0
 10
878.0004053457408
 20
754.1693935991375
 30
0.0
 10
877.8726285526434
 20
754.346522239991
 30
0.0
 10
877.7564294196592
 20
754.5379135752565
 30
0.0
 10
877.6953364582122
 20
754.6758650308045
 30
0.0
 10
877.664245578226
 20
754.7460700437354
 30
0.0
  0
SPLINE
  5
C1
330
1F
100
AcDbEntity
  8
0
  6
Continuous
 62
     7
370
    25
100
AcDbSpline
210
0.0
220
0.0
230
1.0
 70
     8
 71
     3
 72
    15
 73
    11
 74
     0
 42
0.00000001
 43
0.00000001
 40
0.0
 40
0.0
 40
0.0
 40
0.0
 40
0.1019885977663175
 40
0.2102299668207569
 40
0.3244001557727455
 40
0.4448984718958242
 40
0.572733219312176
 40
0.7081397072743622
 40
0.8500795249172055
 40
1.0
 40
1.0
 40
1.0
 40
1.0
 10
884.3055389150713
 20
751.4338491684562
 30
0.0
 10
884.2768571116559
 20
751.4866099043783
 30
0.0
 10
884.2177350655405
 20
751.5953660595301
 30
0.0
 10
884.1127655268567
 20
751.755114159395
 30
0.0
 10
883.9923498339684
 20
751.9172222446964
 30
0.0
 10
883.8550484617741
 20
752.0806646832067
 30
0.0
 10
883.7030996280358
 20
752.2479095823588
 30
0.0
 10
883.5327370205816
 20
752.4149338113147
 30
0.0
 10
883.3480570469861
 20
752.5857148943572
 30
0.0
 10
883.217271220709
 20
752.6971307684454
 30
0.0
 10
883.1500901971225
 20
752.754361988969
 30
0.0
  0
SPLINE
  5
C2
330
1F
100
AcDbEntity
  8
0
  6
Continuous
 62
     7
370
    25
100
AcDbSpline
210
0.0
220
0.0
230
1.0
 70
     8
 71
     3
 72
    23
 73
    19
 74
     0
 42
0.00000001
 43
0.00000001
 40
0.0
 40
0.0
 40
0.0
 40
0.0
 40
0.0672044209143313
 40
0.1314779475569298
 40
0.1936943948778934
 40
0.2541245379753126
 40
0.3137572926861994
 40
0.3728744807638805
 40
0.4321640225252887
 40
0.4924997318175204
 40
0.5530910652335411
 40
0.61290221483111
 40
0.6732030954423339
 40
0.734679523202768
 40
0.796912851282632
 40
0.8616330826823903
 40
0.9294067035898814
 40
1.0
 40
1.0
 40
1.0
 40
1.0
 10
883.5427184022509
 20
748.9514773735843
 30
0.0
 10
883.600450753853
 20
748.9825390393603
 30
0.0
 10
883.7133976551581
 20
749.0433077210685
 30
0.0
 10
883.8700783003983
 20
749.1495729097686
 30
0.0
 10
884.0092556077932
 20
749.267568694466
 30
0.0
 10
884.1361925039733
 20
749.3924029181536
 30
0.0
 10
884.2451640761592
 20
749.5294805936581
 30
0.0
 10
884.3389428882552
 20
749.6759745381829
 30
0.0
 10
884.4157451026088
 20
749.8327737598968
 30
0.0
 10
884.4785546825908
 20
749.9971928224585
 30
0.0
 10
884.5232052268589
 20
750.168044275835
 30
0.0
 10
884.5493841255056
 20
750.3426811509105
 30
0.0
 10
884.5550248476984
 20
750.5199729346158
 30
0.0
 10
884.5443819892668
 20
750.6993822376095
 30
0.0
 10
884.513068240894
 20
750.8808058103508
 30
0.0
 10
884.4627436697549
 20
751.064131005696
 30
0.0
 10
884.3939088599116
 20
751.2501575473386
 30
0.0
 10
884.3353930466237
 20
751.3717923930237
 30
0.0
 10
884.3055389150713
 20
751.4338491684562
 30
0.0
  0
SPLINE
  5
C3
330
1F
100
AcDbEntity
  8
0
  6
Continuous
 62
     7
370
    25
100
AcDbSpline
210
0.0
220
0.0
230
1.0
 70
     8
 71
     3
 72
    23
 73
    19
 74
     0
 42
0.00000001
 43
0.00000001
 40
0.0
 40
0.0
 40
0.0
 40
0.0
 40
0.0612283262121821
 40
0.1208055713420161
 40
0.1796714470893119
 40
0.2381583896976908
 40
0.2969092929216645
 40
0.3565585162977129
 40
0.4179670852495638
 40
0.4816703788726544
 40
0.5462333064425308
 40
0.6090486485606039
 40
0.6718060047247598
 40
0.7346316958456769
 40
0.7981796751636558
 40
0.863614789872349
 40
0.930404983640817
 40
1.0
 40
1.0
 40
1.0
 40
1.0
 10
880.8231671201995
 20
749.7014773735842
 30
0.0
 10
880.8541087690826
 20
749.6452469681607
 30
0.0
 10
880.9151576953366
 20
749.5343024646239
 30
0.0
 10
881.025227969394
 20
749.3810188400099
 30
0.0
 10
881.1491556838968
 20
749.2427982281886
 30
0.0
 10
881.2860526935732
 20
749.118608712195
 30
0.0
 10
881.436066700075
 20
749.0093520731448
 30
0.0
 10
881.5987003718064
 20
748.9135123466638
 30
0.0
 10
881.7764942176766
 20
748.8362392914734
 30
0.0
 10
881.9640770362369
 20
748.7701191054518
 30
0.0
 10
882.1588846163334
 20
748.7226780915616
 30
0.0
 10
882.3564571995477
 20
748.6944807999946
 30
0.0
 10
882.554044372195
 20
748.6893251261105
 30
0.0
 10
882.7521806804883
 20
748.6994370713238
 30
0.0
 10
882.9508361022284
 20
748.7323007710553
 30
0.0
 10
883.1491299230963
 20
748.7855640746378
 30
0.0
 10
883.3481119025795
 20
748.8580507303268
 30
0.0
 10
883.4769662533226
 20
748.9199110971665
 30
0.0
 10
883.5427184022509
 20
748.9514773735843
 30
0.0
  0
SPLINE
  5
C4
330
1F
100
AcDbEntity
  8
0
  6
Continuous
 62
     7
370
    25
100
AcDbSpline
210
0.0
220
0.0
230
1.0
 70
     8
 71
     3
 72
    19
 73
    15
 74
     0
 42
0.00000001
 43
0.00000001
 40
0.0
 40
0.0
 40
0.0
 40
0.0
 40
0.0955958936702618
 40
0.1842321790176819
 40
0.2674621334744445
 40
0.345858814058106
 40
0.422882521340339
 40
0.500191775335298
 40
0.5807163876351815
 40
0.6645156845543194
 40
0.7492453487048943
 40
0.8324641552973634
 40
0.9158388963493094
 40
1.0
 40
1.0
 40
1.0
 40
1.0
 10
881.299128658661
 20
751.805644040251
 30
0.0
 10
881.2415998062737
 20
751.7575173510852
 30
0.0
 10
881.1307303387183
 20
751.6647677101383
 30
0.0
 10
880.9844117223628
 20
751.5136398609684
 30
0.0
 10
880.8670578163188
 20
751.3557079245847
 30
0.0
 10
880.7732322380924
 20
751.1931772502419
 30
0.0
 10
880.7052771737928
 20
751.0230097092604
 30
0.0
 10
880.661289059511
 20
750.8437818049912
 30
0.0
 10
880.6327629944217
 20
750.6560177545173
 30
0.0
 10
880.6293651171192
 20
750.4602517393283
 30
0.0
 10
880.6445641946253
 20
750.2630308350289
 30
0.0
 10
880.6822690458222
 20
750.0692444795704
 30
0.0
 10
880.7385936869863
 20
749.8801334383802
 30
0.0
 10
880.7948878997905
 20
749.7612154502096
 30
0.0
 10
880.8231671201995
 20
749.7014773735842
 30
0.0
  0
LINE
  5
C5
330
1F
100
AcDbEntity
  8
0
  6
Continuous
 62
     7
370
    25
100
AcDbLine
 10
880.9273337869
 20
752.5316055787
 30
0.0
 11
881.2991286587
 21
751.8056440403
 31
0.0
  0
SPLINE
  5
C6
330
1F
100
AcDbEntity
  8
0
  6
Continuous
 62
     7
370
    25
100
AcDbSpline
210
0.0
220
0.0
230
1.0
 70
     8
 71
     3
 72
    23
 73
    19
 74
     0
 42
0.00000001
 43
0.00000001
 40
0.0
 40
0.0
 40
0.0
 40
0.0
 40
0.0668944184149431
 40
0.132118640055695
 40
0.1949822854971768
 40
0.2565809594264555
 40
0.3174960388097988
 40
0.3786666835457462
 40
0.4398087983699794
 40
0.5018308929276822
 40
0.5638877286621579
 40
0.6252259277952728
 40
0.6860195749266297
 40
0.7467253699208594
 40
0.8080016273258716
 40
0.8701823802401556
 40
0.9340325698379772
 40
1.0
 40
1.0
 40
1.0
 40
1.0
 10
880.1436799407123
 20
749.4066055787125
 30
0.0
 10
880.1094050745645
 20
749.477676922062
 30
0.0
 10
880.041711105309
 20
749.618045123965
 30
0.0
 10
879.9617583561843
 20
749.8340075482241
 30
0.0
 10
879.9034086770112
 20
750.0502336512955
 30
0.0
 10
879.8667074791953
 20
750.2660041975756
 30
0.0
 10
879.8485451437324
 20
750.4820734930241
 30
0.0
 10
879.8511831147076
 20
750.6985294274378
 30
0.0
 10
879.8781491747085
 20
750.9145403999544
 30
0.0
 10
879.9225692220317
 20
751.1285791564572
 30
0.0
 10
879.9859972335476
 20
751.338182007597
 30
0.0
 10
880.0701965740725
 20
751.5387294329231
 30
0.0
 10
880.1699315073668
 20
751.7300514523895
 30
0.0
 10
880.2849346529487
 20
751.9127618557259
 30
0.0
 10
880.4211403478499
 20
752.0823452100556
 30
0.0
 10
880.572325840704
 20
752.2435548138261
 30
0.0
 10
880.7409960048369
 20
752.395164502009
 30
0.0
 10
880.8645495005917
 20
752.485633390324
 30
0.0
 10
880.9273337868661
 20
752.5316055787125
 30
0.0
  0
SPLINE
  5
C7
330
1F
100
AcDbEntity
  8
0
  6
Continuous
 62
     7
370
    25
100
AcDbSpline
210
0.0
220
0.0
230
1.0
 70
     8
 71
     3
 72
    27
 73
    23
 74
     0
 42
0.00000001
 43
0.00000001
 40
0.0
 40
0.0
 40
0.0
 40
0.0
 40
0.0870352692394992
 40
0.1721371721066354
 40
0.2558523531678545
 40
0.3399716984302326
 40
0.3819075533752353
 40
0.4230379633294863
 40
0.4634420409691293
 40
0.5034424219623302
 40
0.5431569398305703
 40
0.582443821376884
 40
0.6223330922893096
 40
0.6623467195386865
 40
0.7025436881384268
 40
0.7431358715225712
 40
0.7840660851698963
 40
0.825275336862527
 40
0.8674553229009856
 40
0.9105734469214961
 40
0.9547119000811212
 40
1.0
 40
1.0
 40
1.0
 40
1.0
 10
883.8856671201995
 20
748.2094901940972
 30
0.0
 10
883.7699015211822
 20
748.1551401864
 30
0.0
 10
883.5409418934795
 20
748.047647480159
 30
0.0
 10
883.1793259826969
 20
747.9413891378216
 30
0.0
 10
882.8121927818606
 20
747.8803194097312
 30
0.0
 10
882.503543558179
 20
747.8726759487546
 30
0.0
 10
882.2583881784582
 20
747.8863020530426
 30
0.0
 10
882.078821923989
 20
747.9115848183905
 30
0.0
 10
881.9032959589447
 20
747.9439823247844
 30
0.0
 10
881.7332604862157
 20
747.9912646219641
 30
0.0
 10
881.5681722355089
 20
748.0485826708809
 30
0.0
 10
881.4078856793805
 20
748.1180413361453
 30
0.0
 10
881.2533575591135
 20
748.2002528286653
 30
0.0
 10
881.1021009075765
 20
748.2909946608908
 30
0.0
 10
880.9577298079936
 20
748.3941740621013
 30
0.0
 10
880.8194625789997
 20
748.5075763626612
 30
0.0
 10
880.6904774957152
 20
748.6335091307096
 30
0.0
 10
880.5658344677714
 20
748.7668426549134
 30
0.0
 10
880.4486370987357
 20
748.9111013902669
 30
0.0
 10
880.3403060583867
 20
749.0672743563412
 30
0.0
 10
880.2370741702625
 20
749.2322904822386
 30
0.0
 10
880.1750770241447
 20
749.3480046816993
 30
0.0
 10
880.1436799407123
 20
749.4066055787125
 30
0.0
  0
SPLINE
  5
C8
330
1F
100
AcDbEntity
  8
0
  6
Continuous
 62
     7
370
    25
100
AcDbSpline
210
0.0
220
0.0
230
1.0
 70
     8
 71
     3
 72
    23
 73
    19
 74
     0
 42
0.00000001
 43
0.00000001
 40
0.0
 40
0.0
 40
0.0
 40
0.0
 40
0.066022593211422
 40
0.1292892240027051
 40
0.1912116992796413
 40
0.2514459325684341
 40
0.3111315394370638
 40
0.3709441990517898
 40
0.4311639897267031
 40
0.4932191324835751
 40
0.555178630138712
 40
0.6165430894422023
 40
0.6774288895982499
 40
0.7387353332226374
 40
0.801162725053739
 40
0.8650153375224924
 40
0.9310894122136273
 40
1.0
 40
1.0
 40
1.0
 40
1.0
 10
885.0523337868663
 20
751.6101312197382
 30
0.0
 10
885.0907555904138
 20
751.530132954773
 30
0.0
 10
885.1659953670392
 20
751.3734757697729
 30
0.0
 10
885.2506805150533
 20
751.1304887060714
 30
0.0
 10
885.3129147470944
 20
750.8889352408581
 30
0.0
 10
885.3465029267195
 20
750.6464639530983
 30
0.0
 10
885.3547129810586
 20
750.4047577442732
 30
0.0
 10
885.3370208338587
 20
750.1635195342387
 30
0.0
 10
885.2929572574855
 20
749.9224752468613
 30
0.0
 10
885.2242212440784
 20
749.6843754377611
 30
0.0
 10
885.1336702002766
 20
749.4519597790465
 30
0.0
 10
885.0192940309252
 20
749.2320534187817
 30
0.0
 10
884.8843350182023
 20
749.0251230206853
 30
0.0
 10
884.7255620475736
 20
748.8340530835158
 30
0.0
 10
884.5474529012855
 20
748.6552412472196
 30
0.0
 10
884.3468503136189
 20
748.4918978366226
 30
0.0
 10
884.1270580647018
 20
748.3393011656015
 30
0.0
 10
883.9672501480063
 20
748.2533624782033
 30
0.0
 10
883.8856671201995
 20
748.2094901940972
 30
0.0
  0
SPLINE
  5
C9
330
1F
100
AcDbEntity
  8
0
  6
Continuous
 62
     7
370
    25
100
AcDbSpline
210
0.0
220
0.0
230
1.0
 70
     8
 71
     3
 72
    11
 73
     7
 74
     0
 42
0.00000001
 43
0.00000001
 40
0.0
 40
0.0
 40
0.0
 40
0.0
 40
0.2760147923980905
 40
0.532913340406445
 40
0.774832826031997
 40
0.9999999999999999
 40
0.9999999999999999
 40
0.9999999999999999
 40
0.9999999999999999
 10
884.4914363509687
 20
752.3729517325587
 30
0.0
 10
884.5503595884737
 20
752.3083936735561
 30
0.0
 10
884.6641251553606
 20
752.183748720384
 30
0.0
 10
884.8182063061106
 20
751.9925549163995
 30
0.0
 10
884.9467144101308
 20
751.8022800810414
 30
0.0
 10
885.017979312506
 20
751.6726308607415
 30
0.0
 10
885.0523337868663
 20
751.6101312197382
 30
0.0
  0
LINE
  5
CA
330
1F
100
AcDbEntity
  8
0
  6
Continuous
 62
     7
370
    25
100
AcDbLine
 10
886.5988081458
 20
753.0075671172
 30
0.0
 11
884.491436351
 21
752.3729517326
 31
0.0
  0
LINE
  5
CB
330
1F
100
AcDbEntity
  8
0
  6
Continuous
 62
     7
370
    25
100
AcDbLine
 10
887.8888722484
 20
750.4883363479
 30
0.0
 11
886.5988081458
 21
753.0075671172
 31
0.0
  0
LINE
  5
CC
330
1F
100
AcDbEntity
  8
0
  6
Continuous
 62
     7
370
    25
100
AcDbLine
 10
888.5619491715
 20
750.83288763
 30
0.0
 11
887.8888722484
 21
750.4883363479
 31
0.0
  0
LINE
  5
CD
330
1F
100
AcDbEntity
  8
0
  6
Continuous
 62
     7
370
    25
100
AcDbLine
 10
886.9946414792
 20
753.89538763
 30
0.0
 11
888.5619491715
 21
750.83288763
 31
0.0
  0
LINE
  5
CE
330
1F
100
AcDbEntity
  8
0
  6
Continuous
 62
     7
370
    25
100
AcDbLine
 10
883.1500901971
 20
752.754361989
 30
0.0
 11
886.9946414792
 21
753.89538763
 31
0.0
  0
SPLINE
  5
CF
330
1F
100
AcDbEntity
  8
0
  6
Continuous
 62
     7
370
    25
100
AcDbSpline
210
0.0
220
0.0
230
1.0
 70
     8
 71
     3
 72
    11
 73
     7
 74
     0
 42
0.00000001
 43
0.00000001
 40
0.0
 40
0.0
 40
0.0
 40
0.0
 40
0.2651295231503555
 40
0.517982738509958
 40
0.7611691739434826
 40
1.0
 40
1.0
 40
1.0
 40
1.0
 10
875.6374098294609
 20
762.9277712130944
 30
0.0
 10
875.6333214300798
 20
762.8797337979681
 30
0.0
 10
875.6253339367131
 20
762.785883246953
 30
0.0
 10
875.628459042924
 20
762.6473062403293
 30
0.0
 10
875.6457347598478
 20
762.514506942622
 30
0.0
 10
875.6680297380722
 20
762.4297183319866
 30
0.0
 10
875.6790764961275
 20
762.3877071105303
 30
0.0
  0
SPLINE
  5
D0
330
1F
100
AcDbEntity
  8
0
  6
Continuous
 62
     7
370
    25
100
AcDbSpline
210
0.0
220
0.0
230
1.0
 70
     8
 71
     3
 72
    11
 73
     7
 74
     0
 42
0.00000001
 43
0.00000001
 40
0.0
 40
0.0
 40
0.0
 40
0.0
 40
0.2998255270345295
 40
0.5646639259739332
 40
0.7992089772037875
 40
1.0
 40
1.0
 40
1.0
 40
1.0
 10
875.9194611115122
 20
764.094437879761
 30
0.0
 10
875.8832311214306
 20
763.9798691386865
 30
0.0
 10
875.8149988776993
 20
763.7641008691564
 30
0.0
 10
875.7330873666592
 20
763.4544664178566
 30
0.0
 10
875.6711892601531
 20
763.180530010926
 30
0.0
 10
875.6480721742533
 20
763.0075535361409
 30
0.0
 10
875.6374098294608
 20
762.9277712130944
 30
0.0
  0
LINE
  5
D1
330
1F
100
AcDbEntity
  8
0
  6
Continuous
 62
     7
370
    25
100
AcDbLine
 10
875.1918970089
 20
764.3107840336
 30
0.0
 11
875.9194611115
 21
764.0944378798
 31
0.0
  0
SPLINE
  5
D2
330
1F
100
AcDbEntity
  8
0
  6
Continuous
 62
     7
370
    25
100
AcDbSpline
210
0.0
220
0.0
230
1.0
 70
     8
 71
     3
 72
    15
 73
    11
 74
     0
 42
0.00000001
 43
0.00000001
 40
0.0
 40
0.0
 40
0.0
 40
0.0
 40
0.1089538566390046
 40
0.2180025456434251
 40
0.3281371411948939
 40
0.4410476361003284
 40
0.5615216811585232
 40
0.6938033096558591
 40
0.840045145569677
 40
1.0
 40
1.0
 40
1.0
 40
1.0
 10
874.9723457268967
 20
762.1681558284789
 30
0.0
 10
874.9510052120851
 20
762.245256190655
 30
0.0
 10
874.9083056078875
 20
762.399524022404
 30
0.0
 10
874.8725173212234
 20
762.638179884471
 30
0.0
 10
874.8580647906871
 20
762.881653880033
 30
0.0
 10
874.8657493863491
 20
763.1339816266726
 30
0.0
 10
874.902053993895
 20
763.4003401343384
 30
0.0
 10
874.9705477094057
 20
763.6852314174657
 30
0.0
 10
875.0639086634787
 20
763.9934446649178
 30
0.0
 10
875.147979194242
 20
764.2018924658483
 30
0.0
 10
875.1918970089481
 20
764.3107840336072
 30
0.0
  0
SPLINE
  5
D3
330
1F
100
AcDbEntity
  8
0
  6
Continuous
 62
     7
370
    25
100
AcDbSpline
210
0.0
220
0.0
230
1.0
 70
     8
 71
     3
 72
    23
 73
    19
 74
     0
 42
0.00000001
 43
0.00000001
 40
0.0
 40
0.0
 40
0.0
 40
0.0
 40
0.076391876368166
 40
0.1467387220214263
 40
0.2110852767044797
 40
0.2695754634359329
 40
0.3225226572387307
 40
0.3693573800064973
 40
0.4109517535240665
 40
0.4467462017135724
 40
0.5121373078539271
 40
0.5765259173952276
 40
0.6410929544944055
 40
0.7079868244525342
 40
0.7763368198594955
 40
0.8472525575460763
 40
0.9208550221465567
 40
1.0
 40
1.0
 40
1.0
 40
1.0
 10
878.1967047012557
 20
761.1585404438637
 30
0.0
 10
878.1017496418708
 20
761.1297881957305
 30
0.0
 10
877.9193534928817
 20
761.0745589181308
 30
0.0
 10
877.6548980606335
 20
761.0021216815942
 30
0.0
 10
877.4110014869509
 20
760.9433287365036
 30
0.0
 10
877.1881737226734
 20
760.893209782429
 30
0.0
 10
876.9851303726937
 20
760.8609105069016
 30
0.0
 10
876.8030808243806
 20
760.8360869261143
 30
0.0
 10
876.6417707466906
 20
760.8286020871059
 30
0.0
 10
876.4561435412945
 20
760.8312536685227
 30
0.0
 10
876.2429695862093
 20
760.8672269070238
 30
0.0
 10
876.0016002731139
 20
760.943895022945
 30
0.0
 10
875.7740517905136
 20
761.0600366545724
 30
0.0
 10
875.562584976887
 20
761.2121254130136
 30
0.0
 10
875.37164998595
 20
761.4015448302902
 30
0.0
 10
875.2085829213596
 20
761.6259712748264
 30
0.0
 10
875.0712752759209
 20
761.8833136528679
 30
0.0
 10
875.0061104224231
 20
762.0709390774933
 30
0.0
 10
874.9723457268967
 20
762.1681558284789
 30
0.0
  0
LINE
  5
D4
330
1F
100
AcDbEntity
  8
0
  6
Continuous
 62
     7
370
    25
100
AcDbLine
 10
883.3184995731
 20
762.7450789054
 30
0.0
 11
878.1967047013
 21
761.1585404439
 31
0.0
  0
LINE
  5
D5
330
1F
100
AcDbEntity
  8
0
  6
Continuous
 62
     7
370
    25
100
AcDbLine
 10
883.08292265
 20
763.5095019823
 30
0.0
 11
883.3184995731
 21
762.7450789054
 31
0.0
  0
LINE
  5
D6
330
1F
100
AcDbEntity
  8
0
  6
Continuous
 62
     7
370
    25
100
AcDbLine
 10
877.9867688038
 20
761.9309763413
 30
0.0
 11
883.08292265
 21
763.5095019823
 31
0.0
  0
SPLINE
  5
D7
330
1F
100
AcDbEntity
  8
0
  6
Continuous
 62
     7
370
    25
100
AcDbSpline
210
0.0
220
0.0
230
1.0
 70
     8
 71
     3
 72
    23
 73
    19
 74
     0
 42
0.00000001
 43
0.00000001
 40
0.0
 40
0.0
 40
0.0
 40
0.0
 40
0.0625352309802838
 40
0.1236866712153639
 40
0.1850205041821611
 40
0.2484368788247154
 40
0.3120659702746244
 40
0.3744945128292566
 40
0.4381179410606585
 40
0.5032248931359669
 40
0.5398613102851132
 40
0.5839436936322125
 40
0.6349670216816712
 40
0.6932431292449008
 40
0.7586179497918654
 40
0.8317036748738316
 40
0.9122613108802992
 40
1.0
 40
1.0
 40
1.0
 40
1.0
 10
875.6790764961275
 20
762.3877071105303
 30
0.0
 10
875.6974424063542
 20
762.3350042512262
 30
0.0
 10
875.7337678226701
 20
762.2307647508891
 30
0.0
 10
875.8220453214528
 20
762.0903999979357
 30
0.0
 10
875.9287154318528
 20
761.9633531276094
 30
0.0
 10
876.0565390382181
 20
761.8537224527346
 30
0.0
 10
876.2000064734326
 20
761.7638783506006
 30
0.0
 10
876.3566202461694
 20
761.698774402854
 30
0.0
 10
876.5226614326634
 20
761.6593018963032
 30
0.0
 10
876.6697302799512
 20
761.6448230268686
 30
0.0
 10
876.7996009428434
 20
761.6495286306638
 30
0.0
 10
876.9160486283564
 20
761.6635980965744
 30
0.0
 10
877.0511151351063
 20
761.6836666458054
 30
0.0
 10
877.202971330157
 20
761.7172556934412
 30
0.0
 10
877.3733256828102
 20
761.7575377918804
 30
0.0
 10
877.5624605343421
 20
761.8047795066623
 30
0.0
 10
877.7686232679595
 20
761.8652180533074
 30
0.0
 10
877.9120141714892
 20
761.9084421343897
 30
0.0
 10
877.9867688038199
 20
761.9309763412996
 30
0.0
  0
LINE
  5
D8
330
1F
100
AcDbEntity
  8
0
  6
Continuous
 62
     7
370
    25
100
AcDbLine
 10
884.0209748905
 20
760.6358091228
 30
0.0
 11
876.5802697623
 21
757.9274757895
 31
0.0
  0
LINE
  5
D9
330
1F
100
AcDbEntity
  8
0
  6
Continuous
 62
     7
370
    25
100
AcDbLine
 10
883.7501415572
 20
761.3793988664
 30
0.0
 11
884.0209748905
 21
760.6358091228
 31
0.0
  0
LINE
  5
DA
330
1F
100
AcDbEntity
  8
0
  6
Continuous
 62
     7
370
    25
100
AcDbLine
 10
876.309436429
 20
758.6710655331
 30
0.0
 11
883.7501415572
 21
761.3793988664
 31
0.0
  0
LINE
  5
DB
330
1F
100
AcDbEntity
  8
0
  6
Continuous
 62
     7
370
    25
100
AcDbLine
 10
876.5802697623
 20
757.9274757895
 30
0.0
 11
876.309436429
 21
758.6710655331
 31
0.0
  0
LINE
  5
DC
330
1F
100
AcDbEntity
  8
0
  6
Continuous
 62
     7
370
    25
100
AcDbLine
 10
885.9045256581
 20
747.0054189118
 30
0.0
 11
882.7442692478
 21
745.0615086554
 31
0.0
  0
LINE
  5
DD
330
1F
100
AcDbEntity
  8
0
  6
Continuous
 62
     7
370
    25
100
AcDbLine
 10
884.574397453
 20
742.0855471169
 30
0.0
 11
885.9045256581
 21
747.0054189118
 31
0.0
  0
LINE
  5
DE
330
1F
100
AcDbEntity
  8
0
  6
Continuous
 62
     7
370
    25
100
AcDbLine
 10
885.1272820684
 20
741.1865086554
 30
0.0
 11
884.574397453
 21
742.0855471169
 31
0.0
  0
LINE
  5
DF
330
1F
100
AcDbEntity
  8
0
  6
Continuous
 62
     7
370
    25
100
AcDbLine
 10
886.7042051453
 20
746.9958035272
 30
0.0
 11
885.1272820684
 21
741.1865086554
 31
0.0
  0
LINE
  5
E0
330
1F
100
AcDbEntity
  8
0
  6
Continuous
 62
     7
370
    25
100
AcDbLine
 10
891.7490769402
 20
745.6079830143
 30
0.0
 11
886.7042051453
 21
746.9958035272
 31
0.0
  0
LINE
  5
E1
330
1F
100
AcDbEntity
  8
0
  6
Continuous
 62
     7
370
    25
100
AcDbLine
 10
891.1849743761
 20
746.524649681
 30
0.0
 11
891.7490769402
 21
745.6079830143
 31
0.0
  0
LINE
  5
E2
330
1F
100
AcDbEntity
  8
0
  6
Continuous
 62
     7
370
    25
100
AcDbLine
 10
886.9782436068
 20
747.665675322
 30
0.0
 11
891.1849743761
 21
746.524649681
 31
0.0
  0
LINE
  5
E3
330
1F
100
AcDbEntity
  8
0
  6
Continuous
 62
     7
370
    25
100
AcDbLine
 10
889.5215128376
 20
749.2297778861
 30
0.0
 11
886.9782436068
 21
747.665675322
 31
0.0
  0
LINE
  5
E4
330
1F
100
AcDbEntity
  8
0
  6
Continuous
 62
     7
370
    25
100
AcDbLine
 10
889.0968333504
 20
749.9204830143
 30
0.0
 11
889.5215128376
 21
749.2297778861
 31
0.0
  0
LINE
  5
E5
330
1F
100
AcDbEntity
  8
0
  6
Continuous
 62
     7
370
    25
100
AcDbLine
 10
882.3195897607
 20
745.7522137836
 30
0.0
 11
889.0968333504
 21
749.9204830143
 31
0.0
  0
LINE
  5
E6
330
1F
100
AcDbEntity
  8
0
  6
Continuous
 62
     7
370
    25
100
AcDbLine
 10
882.7442692478
 20
745.0615086554
 30
0.0
 11
882.3195897607
 21
745.7522137836
 31
0.0
  0
LINE
  5
E7
330
1F
100
AcDbEntity
  8
0
  6
Continuous
 62
     7
370
    25
100
AcDbLine
 10
879.3945664166
 20
776.7287715719
 30
0.0
 11
876.870527955
 21
776.3649895206
 31
0.0
  0
LINE
  5
E8
330
1F
100
AcDbEntity
  8
0
  6
Continuous
 62
     7
370
    25
100
AcDbLine
 10
876.870527955
 20
776.3649895206
 30
0.0
 11
876.9346305191
 21
775.9146690078
 31
0.0
  0
SPLINE
  5
E9
330
1F
100
AcDbEntity
  8
0
  6
Continuous
 62
     7
370
    25
100
AcDbSpline
210
0.0
220
0.0
230
1.0
 70
     8
 71
     3
 72
    23
 73
    19
 74
     0
 42
0.00000001
 43
0.00000001
 40
0.0
 40
0.0
 40
0.0
 40
0.0
 40
0.0713451110691011
 40
0.1373761593628636
 40
0.1989458613963163
 40
0.2559150841541858
 40
0.308101718833996
 40
0.3559626569817699
 40
0.3990546935204252
 40
0.4382308074832515
 40
0.5107896636389139
 40
0.5812589495954075
 40
0.6508065154074982
 40
0.7214248167259103
 40
0.7918665576835866
 40
0.8602864721681548
 40
0.9292924402073843
 40
1.0
 40
1.0
 40
1.0
 40
1.0
 10
876.9346305191424
 20
775.9146690077861
 30
0.0
 10
876.9440826632456
 20
775.8483073869801
 30
0.0
 10
876.9622829188086
 20
775.720527018307
 30
0.0
 10
876.999874338935
 20
775.5374476913629
 30
0.0
 10
877.0326877498358
 20
775.3671472456018
 30
0.0
 10
877.0741783734854
 20
775.2122074987338
 30
0.0
 10
877.1140035468809
 20
775.0700845164678
 30
0.0
 10
877.1619936311191
 20
774.9444317802617
 30
0.0
 10
877.2066793498715
 20
774.8305336599374
 30
0.0
 10
877.2752625586983
 20
774.7020447694877
 30
0.0
 10
877.3702789465348
 20
774.5591326642896
 30
0.0
 10
877.5040432195457
 20
774.409773627829
 30
0.0
 10
877.6587105610121
 20
774.2851801722969
 30
0.0
 10
877.829639156449
 20
774.1841335052077
 30
0.0
 10
878.0131857761006
 20
774.111232021329
 30
0.0
 10
878.2034868364401
 20
774.0648425707441
 30
0.0
 10
878.3995973865948
 20
774.0498261763125
 30
0.0
 10
878.5303280617791
 20
774.0632991793607
 30
0.0
 10
878.5964894935014
 20
774.0701177257348
 30
0.0
  0
SPLINE
  5
EA
330
1F
100
AcDbEntity
  8
0
  6
Continuous
 62
     7
370
    25
100
AcDbSpline
210
0.0
220
0.0
230
1.0
 70
     8
 71
     3
 72
    23
 73
    19
 74
     0
 42
0.00000001
 43
0.00000001
 40
0.0
 40
0.0
 40
0.0
 40
0.0
 40
0.0593537053580277
 40
0.1156881279383834
 40
0.1696367621114369
 40
0.2225416202496666
 40
0.2741071432459033
 40
0.326025389112816
 40
0.378540722931628
 40
0.4318607895184166
 40
0.4879065007935135
 40
0.547157621534424
 40
0.609498237356797
 40
0.6771655057389827
 40
0.749251121620453
 40
0.8268603165861922
 40
0.9103601102134836
 40
1.0
 40
1.0
 40
1.0
 40
1.0
 10
878.5964894935014
 20
774.0701177257348
 30
0.0
 10
878.6404861888471
 20
774.0772066713951
 30
0.0
 10
878.7262414974556
 20
774.0910239528527
 30
0.0
 10
878.8487568414447
 20
774.1267246291243
 30
0.0
 10
878.9621614293718
 20
774.1734638924388
 30
0.0
 10
879.0663620942314
 20
774.2311914192503
 30
0.0
 10
879.1622093242316
 20
774.2992686244194
 30
0.0
 10
879.2493115048777
 20
774.3779336982915
 30
0.0
 10
879.3261008950252
 20
774.468362736067
 30
0.0
 10
879.3946143784059
 20
774.5689526720388
 30
0.0
 10
879.4523605134699
 20
774.6818759771077
 30
0.0
 10
879.4987915228849
 20
774.8071347083351
 30
0.0
 10
879.5321610788816
 20
774.945428760914
 30
0.0
 10
879.5540014507743
 20
775.0956437241173
 30
0.0
 10
879.5648454447683
 20
775.2584949791949
 30
0.0
 10
879.5648290654739
 20
775.4335842523044
 30
0.0
 10
879.5514386963497
 20
775.6213887474789
 30
0.0
 10
879.534662328955
 20
775.7502151135673
 30
0.0
 10
879.5259766729886
 20
775.8169125975297
 30
0.0
  0
LINE
  5
EB
330
1F
100
AcDbEntity
  8
0
  6
Continuous
 62
     7
370
    25
100
AcDbLine
 10
879.525976673
 20
775.8169125975
 30
0.0
 11
879.3945664166
 21
776.7287715719
 31
0.0
  0
SPLINE
  5
EC
330
1F
100
AcDbEntity
  8
0
  6
Continuous
 62
     7
370
    25
100
AcDbSpline
210
0.0
220
0.0
230
1.0
 70
     8
 71
     3
 72
    23
 73
    19
 74
     0
 42
0.00000001
 43
0.00000001
 40
0.0
 40
0.0
 40
0.0
 40
0.0
 40
0.069054818671215
 40
0.1362873360367007
 40
0.2010939574949835
 40
0.2647471926912193
 40
0.3281878158606616
 40
0.3913526558474031
 40
0.4554692618213673
 40
0.5204279650236955
 40
0.5849811045922455
 40
0.6469326163066174
 40
0.7071822132372642
 40
0.76556090621582
 40
0.8234827438203417
 40
0.8813993393924046
 40
0.9402132749467201
 40
1.0
 40
1.0
 40
1.0
 40
1.0
 10
876.1304700714137
 20
794.3682981685233
 30
0.0
 10
876.1365758533551
 20
794.4350190927381
 30
0.0
 10
876.1486262905472
 20
794.566700229466
 30
0.0
 10
876.1440252171906
 20
794.7619042582182
 30
0.0
 10
876.1265048121734
 20
794.9511355130979
 30
0.0
 10
876.0861726451983
 20
795.1330649612565
 30
0.0
 10
876.033460301844
 20
795.3101837041978
 30
0.0
 10
875.957369162552
 20
795.4791116013822
 30
0.0
 10
875.8686625249455
 20
795.6432754246265
 30
0.0
 10
875.7610516751001
 20
795.7975463433489
 30
0.0
 10
875.6420032275914
 20
795.9401803968641
 30
0.0
 10
875.5150955754006
 20
796.0696400290722
 30
0.0
 10
875.3805468209013
 20
796.1821637845151
 30
0.0
 10
875.2381081772409
 20
796.2775711761426
 30
0.0
 10
875.0886323073032
 20
796.3570415308827
 30
0.0
 10
874.9301778829227
 20
796.4176012689359
 30
0.0
 10
874.7648565879703
 20
796.4633425996042
 30
0.0
 10
874.6510042083672
 20
796.4800621381968
 30
0.0
 10
874.5936110970547
 20
796.4884904762156
 30
0.0
  0
SPLINE
  5
ED
330
1F
100
AcDbEntity
  8
0
  6
Continuous
 62
     7
370
    25
100
AcDbSpline
210
0.0
220
0.0
230
1.0
 70
     8
 71
     3
 72
    23
 73
    19
 74
     0
 42
0.00000001
 43
0.00000001
 40
0.0
 40
0.0
 40
0.0
 40
0.0
 40
0.0589781668618249
 40
0.116736278427542
 40
0.1744972706252449
 40
0.2324279665743171
 40
0.2912394522969197
 40
0.3521248840489031
 40
0.4148622748210359
 40
0.4806344902794912
 40
0.5471837926505118
 40
0.6121030273803236
 40
0.6755576812972932
 40
0.7391720818152082
 40
0.8023903068888639
 40
0.8668052469647866
 40
0.9322833596086442
 40
1.0
 40
1.0
 40
1.0
 40
1.0
 10
874.2346367380803
 20
792.7240673992925
 30
0.0
 10
874.2890849251789
 20
792.7188820495485
 30
0.0
 10
874.3968549537713
 20
792.7086186171009
 30
0.0
 10
874.5586345186689
 20
792.718681401403
 30
0.0
 10
874.717778261791
 20
792.7417835740378
 30
0.0
 10
874.8741729717204
 20
792.7840251424517
 30
0.0
 10
875.0276440538436
 20
792.844049172254
 30
0.0
 10
875.177999404133
 20
792.9215689842382
 30
0.0
 10
875.3269467346879
 20
793.0146993150391
 30
0.0
 10
875.4689976525738
 20
793.1267086581214
 30
0.0
 10
875.6040510951373
 20
793.2499323249124
 30
0.0
 10
875.7262880175579
 20
793.3830657763477
 30
0.0
 10
875.8339060273424
 20
793.5250735358645
 30
0.0
 10
875.9223996267433
 20
793.6778131896853
 30
0.0
 10
875.9990539570335
 20
793.837703725801
 30
0.0
 10
876.0596829479131
 20
794.0062213797135
 30
0.0
 10
876.1056586027958
 20
794.1837685934565
 30
0.0
 10
876.1221074331913
 20
794.3061029755914
 30
0.0
 10
876.1304700714137
 20
794.3682981685233
 30
0.0
  0
SPLINE
  5
EE
330
1F
100
AcDbEntity
  8
0
  6
Continuous
 62
     7
370
    25
100
AcDbSpline
210
0.0
220
0.0
230
1.0
 70
     8
 71
     3
 72
    23
 73
    19
 74
     0
 42
0.00000001
 43
0.00000001
 40
0.0
 40
0.0
 40
0.0
 40
0.0
 40
0.0743813055358402
 40
0.1451787725250099
 40
0.2128876224727674
 40
0.2781243429795019
 40
0.3421150874193651
 40
0.404830074597252
 40
0.4672093949331045
 40
0.5305031516244615
 40
0.5930341236922303
 40
0.6530401432695445
 40
0.7113950504386792
 40
0.7687540902302179
 40
0.8260470418118577
 40
0.8831302092856841
 40
0.9407884464430564
 40
1.0
 40
1.0
 40
1.0
 40
1.0
 10
872.753867507311
 20
794.8025930403182
 30
0.0
 10
872.7474336470498
 20
794.7321448121264
 30
0.0
 10
872.7348759226509
 20
794.5946426908372
 30
0.0
 10
872.7347619476094
 20
794.3919294755347
 30
0.0
 10
872.7520024606174
 20
794.1987290840083
 30
0.0
 10
872.7872756999278
 20
794.0144899414113
 30
0.0
 10
872.8404659863518
 20
793.8396273143659
 30
0.0
 10
872.909197553741
 20
793.6731422379672
 30
0.0
 10
872.9968598326496
 20
793.5165053397413
 30
0.0
 10
873.1003953194266
 20
793.3701938933673
 30
0.0
 10
873.2167004326215
 20
793.2368310602066
 30
0.0
 10
873.3408721011683
 20
793.1176071850479
 30
0.0
 10
873.4707677814761
 20
793.0120691111588
 30
0.0
 10
873.6099150343252
 20
792.9238013408799
 30
0.0
 10
873.7556465856903
 20
792.8494853577088
 30
0.0
 10
873.9091132672505
 20
792.7922915866081
 30
0.0
 10
874.0686770339659
 20
792.7473077157271
 30
0.0
 10
874.1788288275425
 20
792.73188251024
 30
0.0
 10
874.2346367380803
 20
792.7240673992925
 30
0.0
  0
SPLINE
  5
EF
330
1F
100
AcDbEntity
  8
0
  6
Continuous
 62
     7
370
    25
100
AcDbSpline
210
0.0
220
0.0
230
1.0
 70
     8
 71
     3
 72
    19
 73
    15
 74
     0
 42
0.00000001
 43
0.00000001
 40
0.0
 40
0.0
 40
0.0
 40
0.0
 40
0.0776281553830493
 40
0.1543676377677412
 40
0.2316722701479089
 40
0.3118642428887089
 40
0.3920706070310707
 40
0.4716620060579804
 40
0.5524766157120872
 40
0.635743144164731
 40
0.7213606198532589
 40
0.8099760831079987
 40
0.9021949342041857
 40
1.0
 40
1.0
 40
1.0
 40
1.0
 10
874.5936110970547
 20
796.4884904762156
 30
0.0
 10
874.5215028242853
 20
796.4945868455268
 30
0.0
 10
874.3781117611329
 20
796.5067097940225
 30
0.0
 10
874.1627863255799
 20
796.482939171486
 30
0.0
 10
873.9500552074842
 20
796.4336488124859
 30
0.0
 10
873.7436385582923
 20
796.3519249766198
 30
0.0
 10
873.548426880617
 20
796.242687278877
 30
0.0
 10
873.3671440338771
 20
796.10975561103
 30
0.0
 10
873.2106525088625
 20
795.9445679906541
 30
0.0
 10
873.0702323519465
 20
795.7589126514172
 30
0.0
 10
872.953201792242
 20
795.5490207085465
 30
0.0
 10
872.8601673074272
 20
795.3186806417992
 30
0.0
 10
872.7925318331804
 20
795.0677023151793
 30
0.0
 10
872.767005749681
 20
794.8926778880244
 30
0.0
 10
872.753867507311
 20
794.8025930403182
 30
0.0
  0
SPLINE
  5
F0
330
1F
100
AcDbEntity
  8
0
  6
Continuous
 62
     7
370
    25
100
AcDbSpline
210
0.0
220
0.0
230
1.0
 70
     8
 71
     3
 72
    23
 73
    19
 74
     0
 42
0.00000001
 43
0.00000001
 40
0.0
 40
0.0
 40
0.0
 40
0.0
 40
0.0576696014834226
 40
0.1138984789980787
 40
0.1709106474565874
 40
0.2284776186914174
 40
0.2876611596908675
 40
0.3488989575141847
 40
0.4131487151790977
 40
0.4801357970488088
 40
0.5481848130551743
 40
0.6137743187740881
 40
0.6780815740709496
 40
0.741408160593078
 40
0.8051497027020218
 40
0.8686627728274163
 40
0.9338717623924734
 40
1.0
 40
1.0
 40
1.0
 40
1.0
 10
878.3980982765419
 20
795.6647725274977
 30
0.0
 10
878.354333881542
 20
795.6684337627187
 30
0.0
 10
878.2678984303413
 20
795.6756647667867
 30
0.0
 10
878.1375122558857
 20
795.6691260918922
 30
0.0
 10
878.00948673755
 20
795.64557801906
 30
0.0
 10
877.8815447358073
 20
795.611115820224
 30
0.0
 10
877.7563867973348
 20
795.5585487456285
 30
0.0
 10
877.631887441675
 20
795.492867400661
 30
0.0
 10
877.5108850011347
 20
795.4099637201824
 30
0.0
 10
877.3911570753334
 20
795.3166634232924
 30
0.0
 10
877.2796533577385
 20
795.2121882162446
 30
0.0
 10
877.176620535277
 20
795.1018928670876
 30
0.0
 10
877.0911792981814
 20
794.9819126457065
 30
0.0
 10
877.0140144158561
 20
794.858200798449
 30
0.0
 10
876.9523045243477
 20
794.7266156485032
 30
0.0
 10
876.9017848731949
 20
794.5889810745574
 30
0.0
 10
876.8648056998039
 20
794.4450271725838
 30
0.0
 10
876.850708853253
 20
794.3460285486439
 30
0.0
 10
876.8436110970548
 20
794.2961827839079
 30
0.0
  0
SPLINE
  5
F1
330
1F
100
AcDbEntity
  8
0
  6
Continuous
 62
     7
370
    25
100
AcDbSpline
210
0.0
220
0.0
230
1.0
 70
     8
 71
     3
 72
    19
 73
    15
 74
     0
 42
0.00000001
 43
0.00000001
 40
0.0
 40
0.0
 40
0.0
 40
0.0
 40
0.085818208814027
 40
0.1710614737429204
 40
0.2563606426535792
 40
0.3439497981338798
 40
0.4307534363955494
 40
0.5156279939744423
 40
0.599927124189211
 40
0.6848282821907514
 40
0.7687216667844624
 40
0.8479199568698939
 40
0.9249795268402311
 40
1.0
 40
1.0
 40
1.0
 40
1.0
 10
876.8436110970548
 20
794.2961827839079
 30
0.0
 10
876.8387015146894
 20
794.231569538179
 30
0.0
 10
876.8289152419802
 20
794.1027759267713
 30
0.0
 10
876.844696553418
 20
793.909339953003
 30
0.0
 10
876.8831582932204
 20
793.7180979114956
 30
0.0
 10
876.9469255960245
 20
793.532288765842
 30
0.0
 10
877.0333636755262
 20
793.3564225456216
 30
0.0
 10
877.1392027464179
 20
793.19425555532
 30
0.0
 10
877.2672267662039
 20
793.0507931718839
 30
0.0
 10
877.4126522965456
 20
792.9263397286982
 30
0.0
 10
877.5696367444889
 20
792.8238570794908
 30
0.0
 10
877.731515584417
 20
792.7419336253652
 30
0.0
 10
877.8970901450957
 20
792.6843359915944
 30
0.0
 10
878.0104483574294
 20
792.6658692676023
 30
0.0
 10
878.0663675073112
 20
792.6567597069848
 30
0.0
  0
SPLINE
  5
F2
330
1F
100
AcDbEntity
  8
0
  6
Continuous
 62
     7
370
    25
100
AcDbSpline
210
0.0
220
0.0
230
1.0
 70
     8
 71
     3
 72
    23
 73
    19
 74
     0
 42
0.00000001
 43
0.00000001
 40
0.0
 40
0.0
 40
0.0
 40
0.0
 40
0.0716697085716867
 40
0.1409418042945101
 40
0.2076444602993698
 40
0.272894997661103
 40
0.3373224174222253
 40
0.4008382360281796
 40
0.4640911841068541
 40
0.528344612088563
 40
0.5921385437867148
 40
0.6528760590225453
 40
0.7116619361465512
 40
0.7693029307517536
 40
0.8261434434569591
 40
0.8830937753198528
 40
0.9406850657696351
 40
1.0
 40
1.0
 40
1.0
 40
1.0
 10
879.5198931483368
 20
794.0141315018566
 30
0.0
 10
879.5250115454954
 20
794.066957916113
 30
0.0
 10
879.5350771107812
 20
794.170843508619
 30
0.0
 10
879.5354648604512
 20
794.324889206208
 30
0.0
 10
879.5201260356895
 20
794.473238141874
 30
0.0
 10
879.4951112487125
 20
794.6166101658592
 30
0.0
 10
879.4566341502418
 20
794.7546222570696
 30
0.0
 10
879.4052091984097
 20
794.8867440046068
 30
0.0
 10
879.3404302983032
 20
795.0127473294539
 30
0.0
 10
879.2635701585034
 20
795.1318559028198
 30
0.0
 10
879.1789072544922
 20
795.2434065347321
 30
0.0
 10
879.0843851780346
 20
795.340987839065
 30
0.0
 10
878.9873775669156
 20
795.4297137969179
 30
0.0
 10
878.8801637413849
 20
795.5007612286233
 30
0.0
 10
878.7693547401367
 20
795.5628982744778
 30
0.0
 10
878.651726039774
 20
795.6114203186063
 30
0.0
 10
878.527102978206
 20
795.6449489195023
 30
0.0
 10
878.4415204481013
 20
795.6581000256725
 30
0.0
 10
878.3980982765419
 20
795.6647725274977
 30
0.0
  0
SPLINE
  5
F3
330
1F
100
AcDbEntity
  8
0
  6
Continuous
 62
     7
370
    25
100
AcDbSpline
210
0.0
220
0.0
230
1.0
 70
     8
 71
     3
 72
    19
 73
    15
 74
     0
 42
0.00000001
 43
0.00000001
 40
0.0
 40
0.0
 40
0.0
 40
0.0
 40
0.1068044693369247
 40
0.2135065117131387
 40
0.3251309816828681
 40
0.4456185483644134
 40
0.5085456413947139
 40
0.5713567854843895
 40
0.6360303717326375
 40
0.7022631564670325
 40
0.7707682314386585
 40
0.8426557210983976
 40
0.9189700438834427
 40
1.0
 40
1.0
 40
1.0
 40
1.0
 10
878.0663675073112
 20
792.6567597069848
 30
0.0
 10
878.1456174630122
 20
792.6520892570156
 30
0.0
 10
878.3040413726126
 20
792.6427528361032
 30
0.0
 10
878.5418207233407
 20
792.6942955997777
 30
0.0
 10
878.7746505957123
 20
792.7903278912529
 30
0.0
 10
878.9583023504808
 20
792.9111312066027
 30
0.0
 10
879.0969877213108
 20
793.029724476746
 30
0.0
 10
879.1931148920253
 20
793.1334031045002
 30
0.0
 10
879.2758267936165
 20
793.250992934733
 30
0.0
 10
879.3480959285829
 20
793.3799309627259
 30
0.0
 10
879.4099137509396
 20
793.5202250983573
 30
0.0
 10
879.4566557811951
 20
793.6739165611754
 30
0.0
 10
879.4961535362136
 20
793.8391584721976
 30
0.0
 10
879.5118234015019
 20
793.9546533585338
 30
0.0
 10
879.5198931483368
 20
794.0141315018566
 30
0.0
  0
SPLINE
  5
F4
330
1F
100
AcDbEntity
  8
0
  6
Continuous
 62
     7
370
    25
100
AcDbSpline
210
0.0
220
0.0
230
1.0
 70
     8
 71
     3
 72
    27
 73
    23
 74
     0
 42
0.00000001
 43
0.00000001
 40
0.0
 40
0.0
 40
0.0
 40
0.0
 40
0.0739756072073166
 40
0.1432172372011997
 40
0.2081330288241308
 40
0.2684198863454987
 40
0.3241873917195972
 40
0.3758138872875992
 40
0.423163614008597
 40
0.4663411585794514
 40
0.5069235986983099
 40
0.5456314831753444
 40
0.5830849102359035
 40
0.6194614289271604
 40
0.6549547531055505
 40
0.6892638471616873
 40
0.7231159932086171
 40
0.7567441761008618
 40
0.821221205233193
 40
0.8820170964111195
 40
0.9411862114276279
 40
1.0
 40
1.0
 40
1.0
 40
1.0
 10
875.7649514764322
 20
790.5357651857996
 30
0.0
 10
875.6559874977158
 20
790.5387912975107
 30
0.0
 10
875.4450325549268
 20
790.5446498686679
 30
0.0
 10
875.1382888612121
 20
790.5473600599245
 30
0.0
 10
874.8518563477601
 20
790.5388152046548
 30
0.0
 10
874.5854988937281
 20
790.5241735994848
 30
0.0
 10
874.3398086645693
 20
790.4974043879118
 30
0.0
 10
874.1137185749512
 20
790.4671313550002
 30
0.0
 10
873.9082943951578
 20
790.4253592897094
 30
0.0
 10
873.7215125081134
 20
790.3754497386021
 30
0.0
 10
873.5506825958919
 20
790.3169547842228
 30
0.0
 10
873.390858472338
 20
790.2530548256971
 30
0.0
 10
873.2414280872982
 20
790.1808201733907
 30
0.0
 10
873.1015301495049
 20
790.1006626912294
 30
0.0
 10
872.971941783272
 20
790.0127189797491
 30
0.0
 10
872.8522447042427
 20
789.9175965049801
 30
0.0
 10
872.7428086511819
 20
789.8147297020855
 30
0.0
 10
872.6129845406105
 20
789.6697622034831
 30
0.0
 10
872.4762891043619
 20
789.4783670094337
 30
0.0
 10
872.3541519403187
 20
789.2346821174561
 30
0.0
 10
872.2730644170889
 20
788.9818992993851
 30
0.0
 10
872.2580253077205
 20
788.8082338394795
 30
0.0
 10
872.2505283995091
 20
788.721662621697
 30
0.0
  0
SPLINE
  5
F5
330
1F
100
AcDbEntity
  8
0
  6
Continuous
 62
     7
370
    25
100
AcDbSpline
210
0.0
220
0.0
230
1.0
 70
     8
 71
     3
 72
    19
 73
    15
 74
     0
 42
0.00000001
 43
0.00000001
 40
0.0
 40
0.0
 40
0.0
 40
0.0
 40
0.1114318735901585
 40
0.2219621306784589
 40
0.3359824925812947
 40
0.4551090154095566
 40
0.5169913728732292
 40
0.5793393565825565
 40
0.6441201772820664
 40
0.7102550499445289
 40
0.7782608852928135
 40
0.849253637028892
 40
0.9228722123097729
 40
1.0
 40
1.0
 40
1.0
 40
1.0
 10
872.2505283995091
 20
788.721662621697
 30
0.0
 10
872.2509832311908
 20
788.6342697837358
 30
0.0
 10
872.2518892144246
 20
788.4601912199018
 30
0.0
 10
872.3124392574115
 20
788.2024587799441
 30
0.0
 10
872.4124403476995
 20
787.952111339494
 30
0.0
 10
872.5313039359717
 20
787.7531330961574
 30
0.0
 10
872.6462861551347
 20
787.6012093139237
 30
0.0
 10
872.7472297569079
 20
787.4928571282335
 30
0.0
 10
872.8592476092047
 20
787.3912274829247
 30
0.0
 10
872.9809984291645
 20
787.2940534777372
 30
0.0
 10
873.115637926419
 20
787.2065260617277
 30
0.0
 10
873.259234302237
 20
787.1224613559959
 30
0.0
 10
873.4158648677128
 20
787.047573338555
 30
0.0
 10
873.5248801066812
 20
787.002656611942
 30
0.0
 10
873.5806566046373
 20
786.9796754422098
 30
0.0
  0
SPLINE
  5
F6
330
1F
100
AcDbEntity
  8
0
  6
Continuous
 62
     7
370
    25
100
AcDbSpline
210
0.0
220
0.0
230
1.0
 70
     8
 71
     3
 72
    15
 73
    11
 74
     0
 42
0.00000001
 43
0.00000001
 40
0.0
 40
0.0
 40
0.0
 40
0.0
 40
0.1098149964239943
 40
0.2235441467196762
 40
0.3421788068547244
 40
0.4642848414255346
 40
0.5908690291198871
 40
0.7222570906983155
 40
0.8586029110371549
 40
1.0
 40
1.0
 40
1.0
 40
1.0
 10
873.5806566046373
 20
786.9796754422098
 30
0.0
 10
873.6519895651434
 20
786.9533083540426
 30
0.0
 10
873.7971980185293
 20
786.8996343712738
 30
0.0
 10
874.0241921229982
 20
786.8312918510857
 30
0.0
 10
874.2620387334389
 20
786.7704953952516
 30
0.0
 10
874.5112398513414
 20
786.7191423676949
 30
0.0
 10
874.7712450711484
 20
786.6780147037349
 30
0.0
 10
875.0422470899927
 20
786.6446238533456
 30
0.0
 10
875.3243823161723
 20
786.6182176234241
 30
0.0
 10
875.5165030489367
 20
786.6092439038451
 30
0.0
 10
875.6143104507912
 20
786.6046754422098
 30
0.0
  0
SPLINE
  5
F7
330
1F
100
AcDbEntity
  8
0
  6
Continuous
 62
     7
370
    25
100
AcDbSpline
210
0.0
220
0.0
230
1.0
 70
     8
 71
     3
 72
    27
 73
    23
 74
     0
 42
0.00000001
 43
0.00000001
 40
0.0
 40
0.0
 40
0.0
 40
0.0
 40
0.0663926250561643
 40
0.1298687152026788
 40
0.1901186553513516
 40
0.2479542905791972
 40
0.3027518111638937
 40
0.3545705133195842
 40
0.4042240082606036
 40
0.4512106004374749
 40
0.4959437663984985
 40
0.5384448788560642
 40
0.5791804891304031
 40
0.6178278949996174
 40
0.6550516734223585
 40
0.6904586376842589
 40
0.7248611178017274
 40
0.758507662121183
 40
0.8225141994798918
 40
0.8830190816543734
 40
0.9418739254506742
 40
1.0
 40
1.0
 40
1.0
 40
1.0
 10
875.6143104507912
 20
786.6046754422098
 30
0.0
 10
875.7120589232982
 20
786.60196437351
 30
0.0
 10
875.9032619149976
 20
786.596661329556
 30
0.0
 10
876.1833030181402
 20
786.5985488216504
 30
0.0
 10
876.4505911196485
 20
786.6075261537727
 30
0.0
 10
876.7045893584012
 20
786.6264088468765
 30
0.0
 10
876.9451417555538
 20
786.6552974117502
 30
0.0
 10
877.172323696703
 20
786.6923995612633
 30
0.0
 10
877.3866717017903
 20
786.7360928303953
 30
0.0
 10
877.5876266236345
 20
786.7910728226608
 30
0.0
 10
877.775304606533
 20
786.8534690860514
 30
0.0
 10
877.9505954620195
 20
786.9228409584945
 30
0.0
 10
878.1143918076558
 20
786.9967219413916
 30
0.0
 10
878.2639275996722
 20
787.0814672568803
 30
0.0
 10
878.402097887267
 20
787.169915576628
 30
0.0
 10
878.5261229197013
 20
787.2674789905144
 30
0.0
 10
878.6395653128006
 20
787.3695297828599
 30
0.0
 10
878.7688384484493
 20
787.5151912797675
 30
0.0
 10
878.904424475834
 20
787.7057063805904
 30
0.0
 10
879.0267518369545
 20
787.947348139072
 30
0.0
 10
879.1075946246408
 20
788.1980760585735
 30
0.0
 10
879.1227871516255
 20
788.3701406500489
 30
0.0
 10
879.1303360918168
 20
788.4556369806713
 30
0.0
  0
SPLINE
  5
F8
330
1F
100
AcDbEntity
  8
0
  6
Continuous
 62
     7
370
    25
100
AcDbSpline
210
0.0
220
0.0
230
1.0
 70
     8
 71
     3
 72
    27
 73
    23
 74
     0
 42
0.00000001
 43
0.00000001
 40
0.0
 40
0.0
 40
0.0
 40
0.0
 40
0.0594947071745491
 40
0.1184863491095721
 40
0.179583659549934
 40
0.2434648300928656
 40
0.2768022410421087
 40
0.3101455588651451
 40
0.3444935699608196
 40
0.3795790309188691
 40
0.4160623659029811
 40
0.4534116994485866
 40
0.4923022979698812
 40
0.5328861924584365
 40
0.5763203757549795
 40
0.6238023564702098
 40
0.6754052169764342
 40
0.7309866002452579
 40
0.7917099332835219
 40
0.8565731563946436
 40
0.9259935253495739
 40
1.0
 40
1.0
 40
1.0
 40
1.0
 10
879.1303360918168
 20
788.4556369806713
 30
0.0
 10
879.1291411669189
 20
788.543532241013
 30
0.0
 10
879.1267614209661
 20
788.7185795518833
 30
0.0
 10
879.0676344825828
 20
788.9786882419935
 30
0.0
 10
878.9632466167187
 20
789.2300840201591
 30
0.0
 10
878.8418006980773
 20
789.4304439407156
 30
0.0
 10
878.7250297987501
 20
789.5837138621899
 30
0.0
 10
878.62406322042
 20
789.693419487132
 30
0.0
 10
878.5142068229766
 20
789.7980485194024
 30
0.0
 10
878.390732817289
 20
789.8939232753236
 30
0.0
 10
878.2586410542287
 20
789.985400210225
 30
0.0
 10
878.1147433422256
 20
790.0688660140036
 30
0.0
 10
877.9605169686739
 20
790.1457213689938
 30
0.0
 10
877.7938302038962
 20
790.2170833580727
 30
0.0
 10
877.6108435812116
 20
790.2815024463523
 30
0.0
 10
877.4086554104666
 20
790.3391821307854
 30
0.0
 10
877.1857563260256
 20
790.3877095095395
 30
0.0
 10
876.9420407789885
 20
790.4313548048696
 30
0.0
 10
876.677318972466
 20
790.46736467601
 30
0.0
 10
876.3913963443399
 20
790.497561095209
 30
0.0
 10
876.0852410836777
 20
790.5221402192485
 30
0.0
 10
875.8739665293668
 20
790.5311277376395
 30
0.0
 10
875.7649514764322
 20
790.5357651857996
 30
0.0
  0
LINE
  5
F9
330
1F
100
AcDbEntity
  8
0
  6
Continuous
 62
     7
370
    25
100
AcDbLine
 10
876.0772587243
 20
776.2496049052
 30
0.0
 11
873.0564253909
 21
775.8137074693
 31
0.0
  0
LINE
  5
FA
330
1F
100
AcDbEntity
  8
0
  6
Continuous
 62
     7
370
    25
100
AcDbLine
 10
873.0564253909
 20
775.8137074693
 30
0.0
 11
873.1958484679
 21
774.8377459309
 31
0.0
  0
SPLINE
  5
FB
330
1F
100
AcDbEntity
  8
0
  6
Continuous
 62
     7
370
    25
100
AcDbSpline
210
0.0
220
0.0
230
1.0
 70
     8
 71
     3
 72
    23
 73
    19
 74
     0
 42
0.00000001
 43
0.00000001
 40
0.0
 40
0.0
 40
0.0
 40
0.0
 40
0.0706343482388519
 40
0.1362501212594128
 40
0.1972371170380964
 40
0.2533810680049036
 40
0.3055386930375981
 40
0.3524291358910632
 40
0.3954513489786735
 40
0.4343697733461119
 40
0.5064769863304904
 40
0.5771439903030522
 40
0.6482666002177981
 40
0.720205637554206
 40
0.792006235929334
 40
0.8615626364116233
 40
0.9300199059858777
 40
1.0
 40
1.0
 40
1.0
 40
1.0
 10
873.1958484678604
 20
774.837745930863
 30
0.0
 10
873.2058882087374
 20
774.7681900619314
 30
0.0
 10
873.2252543662235
 20
774.6340202732584
 30
0.0
 10
873.2636957471186
 20
774.4415951777665
 30
0.0
 10
873.3001772258351
 20
774.2634443927286
 30
0.0
 10
873.3450408471759
 20
774.101063662761
 30
0.0
 10
873.388260055332
 20
773.9528511436127
 30
0.0
 10
873.4362791099841
 20
773.8197669587902
 30
0.0
 10
873.4895785263699
 20
773.7031369730505
 30
0.0
 10
873.56044739306
 20
773.5671126961173
 30
0.0
 10
873.665755414935
 20
773.4192361091197
 30
0.0
 10
873.8109749414808
 20
773.2628595303138
 30
0.0
 10
873.9789738627908
 20
773.1311252121709
 30
0.0
 10
874.1647130614484
 20
773.0241804705148
 30
0.0
 10
874.3619513642295
 20
772.9437233442184
 30
0.0
 10
874.5657136428925
 20
772.895910775861
 30
0.0
 10
874.7728240563752
 20
772.8757210761003
 30
0.0
 10
874.9101061892047
 20
772.8898823021848
 30
0.0
 10
874.9795023140142
 20
772.8970408026579
 30
0.0
  0
SPLINE
  5
FC
330
1F
100
AcDbEntity
  8
0
  6
Continuous
 62
     7
370
    25
100
AcDbSpline
210
0.0
220
0.0
230
1.0
 70
     8
 71
     3
 72
    19
 73
    15
 74
     0
 42
0.00000001
 43
0.00000001
 40
0.0
 40
0.0
 40
0.0
 40
0.0
 40
0.0614291197215814
 40
0.121664418212635
 40
0.1806720993900666
 40
0.2387260976088778
 40
0.2969711037196973
 40
0.3552356649783173
 40
0.4150915247422746
 40
0.4759664414640768
 40
0.5999346632262273
 40
0.726168028496276
 40
0.8586732197433179
 40
1.0
 40
1.0
 40
1.0
 40
1.0
 10
874.9795023140142
 20
772.8970408026579
 30
0.0
 10
875.022375753398
 20
772.9043703547374
 30
0.0
 10
875.1072894243582
 20
772.9188870154605
 30
0.0
 10
875.2309679936454
 20
772.9523847041742
 30
0.0
 10
875.3482370927314
 20
772.9976141485868
 30
0.0
 10
875.459617179122
 20
773.0526350957402
 30
0.0
 10
875.565544453415
 20
773.1165604310688
 30
0.0
 10
875.665936484368
 20
773.191087443285
 30
0.0
 10
875.7601432083113
 20
773.2760529784679
 30
0.0
 10
875.8785536804327
 20
773.4027552145171
 30
0.0
 10
876.0052948868441
 20
773.5842082736132
 30
0.0
 10
876.1260859406309
 20
773.8277331445636
 30
0.0
 10
876.2082898391526
 20
774.1003997302639
 30
0.0
 10
876.2328514957363
 20
774.2928882891123
 30
0.0
 10
876.2455279550398
 20
774.3922331103502
 30
0.0
  0
SPLINE
  5
FD
330
1F
100
AcDbEntity
  8
0
  6
Continuous
 62
     7
370
    25
100
AcDbSpline
210
0.0
220
0.0
230
1.0
 70
     8
 71
     3
 72
    15
 73
    11
 74
     0
 42
0.00000001
 43
0.00000001
 40
0.0
 40
0.0
 40
0.0
 40
0.0
 40
0.0792331221790786
 40
0.1719047895146173
 40
0.2770548733440518
 40
0.3959045566126694
 40
0.5274775067569395
 40
0.6718642855203067
 40
0.828991155026663
 40
1.0
 40
1.0
 40
1.0
 40
1.0
 10
876.2455279550398
 20
774.3922331103502
 30
0.0
 10
876.2479877326872
 20
774.429611265636
 30
0.0
 10
876.2533244851347
 20
774.5107071979955
 30
0.0
 10
876.2545737242451
 20
774.6417491426596
 30
0.0
 10
876.2488772833939
 20
774.7913523094506
 30
0.0
 10
876.2396670407052
 20
774.9591966813475
 30
0.0
 10
876.2232885844768
 20
775.1451406027394
 30
0.0
 10
876.200295562732
 20
775.3485757345265
 30
0.0
 10
876.173050759086
 20
775.5702777876976
 30
0.0
 10
876.152218222866
 20
775.7239864076805
 30
0.0
 10
876.1413612883732
 20
775.8040920847092
 30
0.0
  0
LINE
  5
FE
330
1F
100
AcDbEntity
  8
0
  6
Continuous
 62
     7
370
    25
100
AcDbLine
 10
876.1413612884
 20
775.8040920847
 30
0.0
 11
876.0772587243
 21
776.2496049052
 31
0.0
  0
ENDSEC
  0
SECTION
  2
OBJECTS
  0
DICTIONARY
  5
C
330
0
100
AcDbDictionary
281
     1
  3
ACAD_DETAILVIEWSTYLE
350
106
  3
ACAD_GROUP
350
D
  3
ACAD_LAYOUT
350
1A
  3
ACAD_MATERIAL
350
43
  3
ACAD_MLEADERSTYLE
350
5B
  3
ACAD_MLINESTYLE
350
17
  3
ACAD_PLOTSETTINGS
350
19
  3
ACAD_PLOTSTYLENAME
350
E
  3
ACAD_SCALELIST
350
47
  3
ACAD_SECTIONVIEWSTYLE
350
107
  3
ACAD_TABLESTYLE
350
59
  3
ACAD_VISUALSTYLE
350
2A
  3
ACDB_RECOMPOSE_DATA
350
103
  3
AcDbVariableDictionary
350
FF
  0
SUN
  5
5D
330
29
100
AcDbSun
 90
        1
290
     0
 63
     7
421
 16777215
 40
1.0
291
     1
 91
  2455826
 92
 54000000
292
     0
 70
     2
 71
   256
280
     1
  0
DICTIONARY
  5
106
102
{ACAD_REACTORS
330
C
102
}
330
C
100
AcDbDictionary
281
     1
  0
DICTIONARY
  5
D
102
{ACAD_REACTORS
330
C
102
}
330
C
100
AcDbDictionary
281
     1
  0
DICTIONARY
  5
1A
102
{ACAD_REACTORS
330
C
102
}
330
C
100
AcDbDictionary
281
     1
  3
Layout1
350
1E
  3
Layout2
350
26
  3
Model
350
22
  0
DICTIONARY
  5
43
102
{ACAD_REACTORS
330
C
102
}
330
C
100
AcDbDictionary
281
     1
  3
ByBlock
350
45
  3
ByLayer
350
44
  3
Global
350
46
  0
DICTIONARY
  5
5B
102
{ACAD_REACTORS
330
C
102
}
330
C
100
AcDbDictionary
281
     1
  3
Standard
350
5C
  0
DICTIONARY
  5
17
102
{ACAD_REACTORS
330
C
102
}
330
C
100
AcDbDictionary
281
     1
  3
Standard
350
18
  0
DICTIONARY
  5
19
102
{ACAD_REACTORS
330
C
102
}
330
C
100
AcDbDictionary
281
     1
  0
ACDBDICTIONARYWDFLT
  5
E
102
{ACAD_REACTORS
330
C
102
}
330
C
100
AcDbDictionary
281
     1
  3
Normal
350
F
100
AcDbDictionaryWithDefault
340
F
  0
DICTIONARY
  5
47
102
{ACAD_REACTORS
330
C
102
}
330
C
100
AcDbDictionary
281
     1
  3
A0
350
48
  3
A1
350
49
  3
A2
350
4A
  3
A3
350
4B
  3
A4
350
4C
  3
A5
350
4D
  3
A6
350
4E
  3
A7
350
4F
  3
A8
350
50
  3
A9
350
51
  3
B0
350
52
  3
B1
350
53
  3
B2
350
54
  3
B3
350
55
  3
B4
350
56
  3
B5
350
57
  3
B6
350
58
  0
DICTIONARY
  5
107
102
{ACAD_REACTORS
330
C
102
}
330
C
100
AcDbDictionary
281
     1
  0
DICTIONARY
  5
59
102
{ACAD_REACTORS
330
C
102
}
330
C
100
AcDbDictionary
281
     1
  3
Standard
350
5A
  0
DICTIONARY
  5
2A
102
{ACAD_REACTORS
330
C
102
}
330
C
100
AcDbDictionary
281
     1
  3
2dWireframe
350
2F
  3
Basic
350
32
  3
Brighten
350
36
  3
ColorChange
350
3A
  3
Conceptual
350
34
  3
Dim
350
35
  3
EdgeColorOff
350
3D
  3
Facepattern
350
39
  3
Flat
350
2B
  3
FlatWithEdges
350
2C
  3
Gouraud
350
2D
  3
GouraudWithEdges
350
2E
  3
Hidden
350
31
  3
JitterOff
350
3B
  3
Linepattern
350
38
  3
OverhangOff
350
3C
  3
Realistic
350
33
  3
Shaded
350
42
  3
Shaded with edges
350
41
  3
Shades of Gray
350
3E
  3
Sketchy
350
3F
  3
Thicken
350
37
  3
Wireframe
350
30
  3
X-Ray
350
40
  0
XRECORD
  5
103
102
{ACAD_REACTORS
330
C
102
}
330
C
100
AcDbXrecord
280
     1
 90
        1
330
5A
  0
DICTIONARY
  5
FF
102
{ACAD_REACTORS
330
C
102
}
330
C
100
AcDbDictionary
281
     1
  3
CANNOSCALE
350
100
  3
CENTEREXE
350
108
  3
CENTERLTYPEFILE
350
109
  3
CMLEADERSTYLE
350
105
  3
CTABLESTYLE
350
104
  0
LAYOUT
  5
1E
102
{ACAD_REACTORS
330
1A
102
}
330
1A
100
AcDbPlotSettings
  1

  2
none_device
  4

  6

 40
0.0
 41
0.0
 42
0.0
 43
0.0
 44
0.0
 45
0.0
 46
0.0
 47
0.0
 48
0.0
 49
0.0
140
0.0
141
0.0
142
1.0
143
1.0
 70
   688
 72
     1
 73
     0
 74
     5
  7

 75
    16
 76
     0
 77
     2
 78
   300
147
1.0
148
0.0
149
0.0
100
AcDbLayout
  1
Layout1
 70
     1
 71
     1
 10
0.0
 20
0.0
 11
420.0
 21
297.0
 12
0.0
 22
0.0
 32
0.0
 14
1.0000000000E+20
 24
1.0000000000E+20
 34
1.0000000000E+20
 15
-1.0000000000E+20
 25
-1.0000000000E+20
 35
-1.0000000000E+20
146
0.0
 13
0.0
 23
0.0
 33
0.0
 16
1.0
 26
0.0
 36
0.0
 17
0.0
 27
1.0
 37
0.0
 76
     0
330
1B
  0
LAYOUT
  5
26
102
{ACAD_REACTORS
330
1A
102
}
330
1A
100
AcDbPlotSettings
  1

  2
none_device
  4

  6

 40
0.0
 41
0.0
 42
0.0
 43
0.0
 44
0.0
 45
0.0
 46
0.0
 47
0.0
 48
0.0
 49
0.0
140
0.0
141
0.0
142
1.0
143
1.0
 70
   688
 72
     1
 73
     0
 74
     5
  7

 75
    16
 76
     0
 77
     2
 78
   300
147
1.0
148
0.0
149
0.0
100
AcDbLayout
  1
Layout2
 70
     1
 71
     2
 10
0.0
 20
0.0
 11
0.0
 21
0.0
 12
0.0
 22
0.0
 32
0.0
 14
0.0
 24
0.0
 34
0.0
 15
0.0
 25
0.0
 35
0.0
146
0.0
 13
0.0
 23
0.0
 33
0.0
 16
1.0
 26
0.0
 36
0.0
 17
0.0
 27
1.0
 37
0.0
 76
     0
330
23
  0
LAYOUT
  5
22
102
{ACAD_REACTORS
330
1A
102
}
330
1A
100
AcDbPlotSettings
  1

  2
none_device
  4
Letter_(8.50_x_11.00_Inches)
  6

 40
6.35
 41
6.35
 42
6.35000508
 43
6.35000508
 44
215.9
 45
279.4
 46
0.0
 47
0.0
 48
0.0
 49
0.0
140
0.0
141
0.0
142
1.0
143
1.0
 70
  1712
 72
     1
 73
     0
 74
     0
  7

 75
     0
 76
     0
 77
     2
 78
   300
147
1.0
148
0.0
149
0.0
100
AcDbLayout
  1
Model
 70
     1
 71
     0
 10
0.0
 20
0.0
 11
420.0
 21
297.0
 12
0.0
 22
0.0
 32
0.0
 14
0.0
 24
0.0
 34
0.0
 15
420.0
 25
297.0
 35
0.0
146
0.0
 13
0.0
 23
0.0
 33
0.0
 16
1.0
 26
0.0
 36
0.0
 17
0.0
 27
1.0
 37
0.0
 76
     0
330
1F
331
29
  0
MATERIAL
  5
45
102
{ACAD_REACTORS
330
43
102
}
330
43
100
AcDbMaterial
  1
ByBlock
 72
     1
 94
      127
  0
MATERIAL
  5
44
102
{ACAD_REACTORS
330
43
102
}
330
43
100
AcDbMaterial
  1
ByLayer
 72
     1
 94
      127
  0
MATERIAL
  5
46
102
{ACAD_REACTORS
330
43
102
}
330
43
100
AcDbMaterial
  1
Global
 72
     1
 94
      127
  0
MLEADERSTYLE
  5
5C
102
{ACAD_REACTORS
330
5B
102
}
330
5B
100
AcDbMLeaderStyle
179
     2
170
     2
171
     1
172
     0
 90
        2
 40
0.0
 41
0.0
173
     1
 91
-1056964608
340
14
 92
       -2
290
     1
 42
2.0
291
     1
 43
8.0
  3
Standard
341
0
 44
4.0
300

342
11
174
     1
178
     6
175
     1
176
     0
 93
-1056964608
 45
4.0
292
     0
297
     0
 46
4.0
343
0
 94
-1056964608
 47
1.0
 49
1.0
140
1.0
293
     1
141
0.0
294
     1
177
     0
142
1.0
295
     0
296
     0
143
3.75
271
     0
272
     9
273
     9
298
     0
  0
MLINESTYLE
  5
18
102
{ACAD_REACTORS
330
17
102
}
330
17
100
AcDbMlineStyle
  2
Standard
 70
     0
  3

 62
   256
 51
90.0
 52
90.0
 71
     2
 49
0.5
 62
   256
  6
BYLAYER
 49
-0.5
 62
   256
  6
BYLAYER
  0
ACDBPLACEHOLDER
  5
F
102
{ACAD_REACTORS
330
E
102
}
330
E
  0
SCALE
  5
48
102
{ACAD_REACTORS
330
47
102
}
330
47
100
AcDbScale
 70
     0
300
1:1
140
1.0
141
1.0
290
     1
  0
SCALE
  5
49
102
{ACAD_REACTORS
330
47
102
}
330
47
100
AcDbScale
 70
     0
300
1:2
140
1.0
141
2.0
290
     0
  0
SCALE
  5
4A
102
{ACAD_REACTORS
330
47
102
}
330
47
100
AcDbScale
 70
     0
300
1:4
140
1.0
141
4.0
290
     0
  0
SCALE
  5
4B
102
{ACAD_REACTORS
330
47
102
}
330
47
100
AcDbScale
 70
     0
300
1:5
140
1.0
141
5.0
290
     0
  0
SCALE
  5
4C
102
{ACAD_REACTORS
330
47
102
}
330
47
100
AcDbScale
 70
     0
300
1:8
140
1.0
141
8.0
290
     0
  0
SCALE
  5
4D
102
{ACAD_REACTORS
330
47
102
}
330
47
100
AcDbScale
 70
     0
300
1:10
140
1.0
141
10.0
290
     0
  0
SCALE
  5
4E
102
{ACAD_REACTORS
330
47
102
}
330
47
100
AcDbScale
 70
     0
300
1:16
140
1.0
141
16.0
290
     0
  0
SCALE
  5
4F
102
{ACAD_REACTORS
330
47
102
}
330
47
100
AcDbScale
 70
     0
300
1:20
140
1.0
141
20.0
290
     0
  0
SCALE
  5
50
102
{ACAD_REACTORS
330
47
102
}
330
47
100
AcDbScale
 70
     0
300
1:30
140
1.0
141
30.0
290
     0
  0
SCALE
  5
51
102
{ACAD_REACTORS
330
47
102
}
330
47
100
AcDbScale
 70
     0
300
1:40
140
1.0
141
40.0
290
     0
  0
SCALE
  5
52
102
{ACAD_REACTORS
330
47
102
}
330
47
100
AcDbScale
 70
     0
300
1:50
140
1.0
141
50.0
290
     0
  0
SCALE
  5
53
102
{ACAD_REACTORS
330
47
102
}
330
47
100
AcDbScale
 70
     0
300
1:100
140
1.0
141
100.0
290
     0
  0
SCALE
  5
54
102
{ACAD_REACTORS
330
47
102
}
330
47
100
AcDbScale
 70
     0
300
2:1
140
2.0
141
1.0
290
     0
  0
SCALE
  5
55
102
{ACAD_REACTORS
330
47
102
}
330
47
100
AcDbScale
 70
     0
300
4:1
140
4.0
141
1.0
290
     0
  0
SCALE
  5
56
102
{ACAD_REACTORS
330
47
102
}
330
47
100
AcDbScale
 70
     0
300
8:1
140
8.0
141
1.0
290
     0
  0
SCALE
  5
57
102
{ACAD_REACTORS
330
47
102
}
330
47
100
AcDbScale
 70
     0
300
10:1
140
10.0
141
1.0
290
     0
  0
SCALE
  5
58
102
{ACAD_REACTORS
330
47
102
}
330
47
100
AcDbScale
 70
     0
300
100:1
140
100.0
141
1.0
290
     0
  0
TABLESTYLE
  5
5A
102
{ACAD_REACTORS
330
59
102
}
102
{ACAD_XDICTIONARY
360
101
102
}
330
59
100
AcDbTableStyle
  3
Standard
 70
     0
 71
     0
 40
0.06
 41
0.06
280
     0
281
     0
  7
Standard
140
4.5
170
     2
 62
     0
 63
   257
283
     0
 90
        4
 91
        0
  1

274
    -2
284
     1
 64
     0
275
    -2
285
     1
 65
     0
276
    -2
286
     1
 66
     0
277
    -2
287
     1
 67
     0
278
    -2
288
     1
 68
     0
279
    -2
289
     1
 69
     0
  7
Standard
140
6.0
170
     5
 62
     0
 63
   257
283
     0
 90
        4
 91
        0
  1

274
    -2
284
     1
 64
     0
275
    -2
285
     1
 65
     0
276
    -2
286
     1
 66
     0
277
    -2
287
     1
 67
     0
278
    -2
288
     1
 68
     0
279
    -2
289
     1
 69
     0
  7
Standard
140
4.5
170
     5
 62
     0
 63
   257
283
     0
 90
        4
 91
        0
  1

274
    -2
284
     1
 64
     0
275
    -2
285
     1
 65
     0
276
    -2
286
     1
 66
     0
277
    -2
287
     1
 67
     0
278
    -2
288
     1
 68
     0
279
    -2
289
     1
 69
     0
  0
VISUALSTYLE
  5
2F
102
{ACAD_REACTORS
330
2A
102
}
330
2A
100
AcDbVisualStyle
  2
2dWireframe
 70
     4
177
     3
291
     0
 70
    58
 90
        0
176
     1
 90
        2
176
     1
 90
        0
176
     1
 90
        0
176
     1
 40
0.6
176
     1
 40
30.0
176
     1
 62
     7
420
 16777215
176
     1
 90
        1
176
     1
 90
        4
176
     1
 62
     7
176
     1
 62
   257
176
     1
 90
        1
176
     1
 90
        1
176
     1
 40
1.0
176
     1
 90
        0
176
     1
 62
   257
176
     1
 40
1.0
176
     1
 90
        1
176
     1
 90
        6
176
     1
 90
        2
176
     1
 62
     7
176
     1
 90
        5
176
     1
 90
        0
176
     1
 90
        0
176
     1
290
     0
176
     1
 90
        1
176
     1
 40
0.0
176
     1
 90
        0
176
     1
290
     1
176
     1
290
     1
176
     1
290
     0
176
     1
290
     0
176
     1
290
     0
176
     1
290
     0
176
     1
290
     0
176
     1
290
     0
176
     1
290
     0
176
     1
 90
       50
176
     1
 40
0.0
176
     1
 40
1.0
176
     1
 90
        0
176
     1
 62
    18
420
        0
176
     1
 90
       50
176
     1
 90
        3
176
     1
 62
     5
420
      255
176
     1
290
     0
176
     1
 90
       50
176
     1
 90
       50
176
     1
 90
       50
176
     1
290
     0
176
     1
 90
       50
176
     1
 62
   256
176
     0
 40
1.0
176
     0
 90
        2
176
     1
  1
strokes_ogs.tif
176
     1
290
     0
176
     1
 40
1.0
176
     1
 40
1.0
176
     1
  0
VISUALSTYLE
  5
32
102
{ACAD_REACTORS
330
2A
102
}
330
2A
100
AcDbVisualStyle
  2
Basic
 70
     7
177
     3
291
     1
 70
    58
 90
        1
176
     1
 90
        0
176
     1
 90
        1
176
     1
 90
        0
176
     1
 40
0.6
176
     1
 40
30.0
176
     1
 62
     7
420
 16777215
176
     1
 90
        0
176
     1
 90
        4
176
     1
 62
     7
176
     1
 62
   257
176
     1
 90
        1
176
     1
 90
        1
176
     1
 40
1.0
176
     1
 90
        8
176
     1
 62
     7
176
     1
 40
1.0
176
     1
 90
        1
176
     1
 90
        6
176
     1
 90
        2
176
     1
 62
     7
176
     1
 90
        5
176
     1
 90
        0
176
     1
 90
        0
176
     1
290
     0
176
     1
 90
        1
176
     1
 40
0.0
176
     1
 90
        0
176
     1
290
     0
176
     1
290
     1
176
     1
290
     1
176
     1
290
     0
176
     1
290
     0
176
     1
290
     0
176
     1
290
     0
176
     1
290
     0
176
     1
290
     0
176
     1
 90
       50
176
     1
 40
0.0
176
     1
 40
1.0
176
     1
 90
        0
176
     1
 62
    18
420
        0
176
     1
 90
       50
176
     1
 90
        3
176
     1
 62
     5
420
      255
176
     1
290
     0
176
     1
 90
       50
176
     1
 90
       50
176
     1
 90
       50
176
     1
290
     0
176
     1
 90
       50
176
     1
 62
   256
176
     0
 40
1.0
176
     0
 90
        2
176
     1
  1
strokes_ogs.tif
176
     1
290
     0
176
     1
 40
1.0
176
     1
 40
1.0
176
     1
  0
VISUALSTYLE
  5
36
102
{ACAD_REACTORS
330
2A
102
}
330
2A
100
AcDbVisualStyle
  2
Brighten
 70
    12
177
     3
291
     1
 70
    58
 90
        2
176
     1
 90
        2
176
     1
 90
        0
176
     1
 90
        0
176
     1
 40
0.6
176
     1
 40
30.0
176
     1
 62
     7
420
 16777215
176
     1
 90
        1
176
     1
 90
        4
176
     1
 62
     7
176
     1
 62
   257
176
     1
 90
        1
176
     1
 90
        1
176
     1
 40
1.0
176
     1
 90
        8
176
     1
 62
     7
176
     1
 40
1.0
176
     1
 90
        1
176
     1
 90
        6
176
     1
 90
        2
176
     1
 62
     7
176
     1
 90
        5
176
     1
 90
        0
176
     1
 90
        0
176
     1
290
     0
176
     1
 90
        1
176
     1
 40
50.0
176
     1
 90
        0
176
     1
290
     0
176
     1
290
     1
176
     1
290
     1
176
     1
290
     0
176
     1
290
     0
176
     1
290
     0
176
     1
290
     0
176
     1
290
     0
176
     1
290
     0
176
     1
 90
       50
176
     1
 40
0.0
176
     1
 40
1.0
176
     1
 90
        0
176
     1
 62
    18
420
        0
176
     1
 90
       50
176
     1
 90
        3
176
     1
 62
     5
420
      255
176
     1
290
     0
176
     1
 90
       50
176
     1
 90
       50
176
     1
 90
       50
176
     1
290
     0
176
     1
 90
       50
176
     1
 62
   256
176
     0
 40
1.0
176
     0
 90
        2
176
     1
  1
strokes_ogs.tif
176
     1
290
     0
176
     1
 40
1.0
176
     1
 40
1.0
176
     1
  0
VISUALSTYLE
  5
3A
102
{ACAD_REACTORS
330
2A
102
}
330
2A
100
AcDbVisualStyle
  2
ColorChange
 70
    16
177
     3
291
     1
 70
    58
 90
        2
176
     1
 90
        2
176
     1
 90
        3
176
     1
 90
        0
176
     1
 40
0.6
176
     1
 40
30.0
176
     1
 62
     8
420
  8421504
176
     1
 90
        1
176
     1
 90
        4
176
     1
 62
     7
176
     1
 62
   257
176
     1
 90
        1
176
     1
 90
        1
176
     1
 40
1.0
176
     1
 90
        8
176
     1
 62
     8
420
  8421504
176
     1
 40
1.0
176
     1
 90
        1
176
     1
 90
        6
176
     1
 90
        2
176
     1
 62
     7
176
     1
 90
        5
176
     1
 90
        0
176
     1
 90
        0
176
     1
290
     0
176
     1
 90
        1
176
     1
 40
0.0
176
     1
 90
        0
176
     1
290
     0
176
     1
290
     1
176
     1
290
     1
176
     1
290
     0
176
     1
290
     0
176
     1
290
     0
176
     1
290
     0
176
     1
290
     0
176
     1
290
     0
176
     1
 90
       50
176
     1
 40
0.0
176
     1
 40
1.0
176
     1
 90
        0
176
     1
 62
    18
420
        0
176
     1
 90
       50
176
     1
 90
        3
176
     1
 62
     5
420
      255
176
     1
290
     0
176
     1
 90
       50
176
     1
 90
       50
176
     1
 90
       50
176
     1
290
     0
176
     1
 90
       50
176
     1
 62
   256
176
     0
 40
1.0
176
     0
 90
        2
176
     1
  1
strokes_ogs.tif
176
     1
290
     0
176
     1
 40
1.0
176
     1
 40
1.0
176
     1
  0
VISUALSTYLE
  5
34
102
{ACAD_REACTORS
330
2A
102
}
330
2A
100
AcDbVisualStyle
  2
Conceptual
 70
     9
177
     3
291
     0
 70
    58
 90
        3
176
     1
 90
        2
176
     1
 90
        0
176
     1
 90
        0
176
     1
 40
0.6
176
     1
 40
30.0
176
     1
 62
     7
420
 16777215
176
     1
 90
        2
176
     1
 90
        2
176
     1
 62
     7
176
     1
 62
   257
176
     1
 90
        1
176
     1
 90
        1
176
     1
 40
179.0
176
     1
 90
        8
176
     1
 62
     7
176
     1
 40
1.0
176
     1
 90
        1
176
     1
 90
        6
176
     1
 90
        2
176
     1
 62
     7
176
     1
 90
        3
176
     1
 90
        0
176
     1
 90
        0
176
     1
290
     0
176
     1
 90
        1
176
     1
 40
0.0
176
     1
 90
        0
176
     1
290
     0
176
     1
290
     1
176
     1
290
     1
176
     1
290
     0
176
     1
290
     0
176
     1
290
     0
176
     1
290
     0
176
     1
290
     0
176
     1
290
     0
176
     1
 90
       50
176
     1
 40
0.0
176
     1
 40
1.0
176
     1
 90
        0
176
     1
 62
    18
420
        0
176
     1
 90
       50
176
     1
 90
        3
176
     1
 62
     5
420
      255
176
     1
290
     0
176
     1
 90
       50
176
     1
 90
       50
176
     1
 90
       50
176
     1
290
     0
176
     1
 90
       50
176
     1
 62
   256
176
     0
 40
1.0
176
     0
 90
        2
176
     1
  1
strokes_ogs.tif
176
     1
290
     0
176
     1
 40
1.0
176
     1
 40
1.0
176
     1
  0
VISUALSTYLE
  5
35
102
{ACAD_REACTORS
330
2A
102
}
330
2A
100
AcDbVisualStyle
  2
Dim
 70
    11
177
     3
291
     1
 70
    58
 90
        2
176
     1
 90
        2
176
     1
 90
        0
176
     1
 90
        0
176
     1
 40
0.6
176
     1
 40
30.0
176
     1
 62
     7
420
 16777215
176
     1
 90
        1
176
     1
 90
        4
176
     1
 62
     7
176
     1
 62
   257
176
     1
 90
        1
176
     1
 90
        1
176
     1
 40
1.0
176
     1
 90
        8
176
     1
 62
     7
176
     1
 40
1.0
176
     1
 90
        1
176
     1
 90
        6
176
     1
 90
        2
176
     1
 62
     7
176
     1
 90
        5
176
     1
 90
        0
176
     1
 90
        0
176
     1
290
     0
176
     1
 90
        1
176
     1
 40
-50.0
176
     1
 90
        0
176
     1
290
     0
176
     1
290
     1
176
     1
290
     1
176
     1
290
     0
176
     1
290
     0
176
     1
290
     0
176
     1
290
     0
176
     1
290
     0
176
     1
290
     0
176
     1
 90
       50
176
     1
 40
0.0
176
     1
 40
1.0
176
     1
 90
        0
176
     1
 62
    18
420
        0
176
     1
 90
       50
176
     1
 90
        3
176
     1
 62
     5
420
      255
176
     1
290
     0
176
     1
 90
       50
176
     1
 90
       50
176
     1
 90
       50
176
     1
290
     0
176
     1
 90
       50
176
     1
 62
   256
176
     0
 40
1.0
176
     0
 90
        2
176
     1
  1
strokes_ogs.tif
176
     1
290
     0
176
     1
 40
1.0
176
     1
 40
1.0
176
     1
  0
VISUALSTYLE
  5
3D
102
{ACAD_REACTORS
330
2A
102
}
330
2A
100
AcDbVisualStyle
  2
EdgeColorOff
 70
    22
177
     3
291
     1
 70
    58
 90
        2
176
     0
 90
        2
176
     0
 90
        0
176
     0
 90
        0
176
     0
 40
0.6
176
     0
 40
30.0
176
     0
 62
     7
420
 16777215
176
     0
 90
        1
176
     0
 90
        4
176
     0
 62
     7
176
     0
 62
   257
176
     0
 90
        1
176
     0
 90
        1
176
     0
 40
1.0
176
     0
 90
        8
176
     2
 62
     7
176
     0
 40
1.0
176
     0
 90
        1
176
     0
 90
        6
176
     0
 90
        2
176
     0
 62
     7
176
     0
 90
        5
176
     0
 90
        0
176
     0
 90
        0
176
     0
290
     0
176
     0
 90
        1
176
     0
 40
0.0
176
     0
 90
        0
176
     0
290
     0
176
     0
290
     1
176
     0
290
     1
176
     0
290
     0
176
     0
290
     0
176
     0
290
     0
176
     0
290
     0
176
     0
290
     0
176
     0
290
     0
176
     0
 90
       50
176
     0
 40
0.0
176
     0
 40
1.0
176
     0
 90
        0
176
     0
 62
    18
420
        0
176
     0
 90
       50
176
     0
 90
        3
176
     0
 62
     5
420
      255
176
     0
290
     0
176
     0
 90
       50
176
     0
 90
       50
176
     0
 90
       50
176
     0
290
     0
176
     0
 90
       50
176
     0
 62
   256
176
     0
 40
1.0
176
     0
 90
        2
176
     0
  1
strokes_ogs.tif
176
     0
290
     0
176
     0
 40
1.0
176
     0
 40
1.0
176
     0
  0
VISUALSTYLE
  5
39
102
{ACAD_REACTORS
330
2A
102
}
330
2A
100
AcDbVisualStyle
  2
Facepattern
 70
    15
177
     3
291
     1
 70
    58
 90
        2
176
     1
 90
        2
176
     1
 90
        0
176
     1
 90
        0
176
     1
 40
0.6
176
     1
 40
30.0
176
     1
 62
     7
420
 16777215
176
     1
 90
        1
176
     1
 90
        4
176
     1
 62
     7
176
     1
 62
   257
176
     1
 90
        1
176
     1
 90
        1
176
     1
 40
1.0
176
     1
 90
        8
176
     1
 62
     7
176
     1
 40
1.0
176
     1
 90
        1
176
     1
 90
        6
176
     1
 90
        2
176
     1
 62
     7
176
     1
 90
        5
176
     1
 90
        0
176
     1
 90
        0
176
     1
290
     0
176
     1
 90
        1
176
     1
 40
0.0
176
     1
 90
        0
176
     1
290
     0
176
     1
290
     1
176
     1
290
     1
176
     1
290
     0
176
     1
290
     0
176
     1
290
     0
176
     1
290
     0
176
     1
290
     0
176
     1
290
     0
176
     1
 90
       50
176
     1
 40
0.0
176
     1
 40
1.0
176
     1
 90
        0
176
     1
 62
    18
420
        0
176
     1
 90
       50
176
     1
 90
        3
176
     1
 62
     5
420
      255
176
     1
290
     0
176
     1
 90
       50
176
     1
 90
       50
176
     1
 90
       50
176
     1
290
     0
176
     1
 90
       50
176
     1
 62
   256
176
     0
 40
1.0
176
     0
 90
        2
176
     1
  1
strokes_ogs.tif
176
     1
290
     0
176
     1
 40
1.0
176
     1
 40
1.0
176
     1
  0
VISUALSTYLE
  5
2B
102
{ACAD_REACTORS
330
2A
102
}
330
2A
100
AcDbVisualStyle
  2
Flat
 70
     0
177
     3
291
     1
 70
    58
 90
        2
176
     1
 90
        1
176
     1
 90
        1
176
     1
 90
        2
176
     1
 40
0.6
176
     1
 40
30.0
176
     1
 62
     7
420
 16777215
176
     1
 90
        0
176
     1
 90
        0
176
     1
 62
     7
176
     1
 62
   257
176
     1
 90
        1
176
     1
 90
        1
176
     1
 40
1.0
176
     1
 90
        8
176
     1
 62
     7
176
     1
 40
1.0
176
     1
 90
        1
176
     1
 90
        6
176
     1
 90
        2
176
     1
 62
     7
176
     1
 90
        5
176
     1
 90
        0
176
     1
 90
        0
176
     1
290
     0
176
     1
 90
       13
176
     1
 40
0.0
176
     1
 90
        0
176
     1
290
     0
176
     1
290
     1
176
     1
290
     1
176
     1
290
     0
176
     1
290
     0
176
     1
290
     0
176
     1
290
     0
176
     1
290
     0
176
     1
290
     0
176
     1
 90
       50
176
     1
 40
0.0
176
     1
 40
1.0
176
     1
 90
        0
176
     1
 62
    18
420
        0
176
     1
 90
       50
176
     1
 90
        3
176
     1
 62
     5
420
      255
176
     1
290
     0
176
     1
 90
       50
176
     1
 90
       50
176
     1
 90
       50
176
     1
290
     0
176
     1
 90
       50
176
     1
 62
   256
176
     0
 40
1.0
176
     0
 90
        2
176
     1
  1
strokes_ogs.tif
176
     1
290
     0
176
     1
 40
1.0
176
     1
 40
1.0
176
     1
  0
VISUALSTYLE
  5
2C
102
{ACAD_REACTORS
330
2A
102
}
330
2A
100
AcDbVisualStyle
  2
FlatWithEdges
 70
     1
177
     3
291
     1
 70
    58
 90
        2
176
     1
 90
        1
176
     1
 90
        1
176
     1
 90
        2
176
     1
 40
0.6
176
     1
 40
30.0
176
     1
 62
     7
420
 16777215
176
     1
 90
        1
176
     1
 90
        0
176
     1
 62
     7
176
     1
 62
   257
176
     1
 90
        1
176
     1
 90
        1
176
     1
 40
1.0
176
     1
 90
        0
176
     1
 62
   257
176
     1
 40
1.0
176
     1
 90
        1
176
     1
 90
        6
176
     1
 90
        2
176
     1
 62
     7
176
     1
 90
        5
176
     1
 90
        0
176
     1
 90
        0
176
     1
290
     0
176
     1
 90
       13
176
     1
 40
0.0
176
     1
 90
        0
176
     1
290
     0
176
     1
290
     1
176
     1
290
     1
176
     1
290
     0
176
     1
290
     0
176
     1
290
     0
176
     1
290
     0
176
     1
290
     0
176
     1
290
     0
176
     1
 90
       50
176
     1
 40
0.0
176
     1
 40
1.0
176
     1
 90
        0
176
     1
 62
    18
420
        0
176
     1
 90
       50
176
     1
 90
        3
176
     1
 62
     5
420
      255
176
     1
290
     0
176
     1
 90
       50
176
     1
 90
       50
176
     1
 90
       50
176
     1
290
     0
176
     1
 90
       50
176
     1
 62
   256
176
     0
 40
1.0
176
     0
 90
        2
176
     1
  1
strokes_ogs.tif
176
     1
290
     0
176
     1
 40
1.0
176
     1
 40
1.0
176
     1
  0
VISUALSTYLE
  5
2D
102
{ACAD_REACTORS
330
2A
102
}
330
2A
100
AcDbVisualStyle
  2
Gouraud
 70
     2
177
     3
291
     1
 70
    58
 90
        2
176
     1
 90
        2
176
     1
 90
        1
176
     1
 90
        2
176
     1
 40
0.6
176
     1
 40
30.0
176
     1
 62
     7
420
 16777215
176
     1
 90
        0
176
     1
 90
        0
176
     1
 62
     7
176
     1
 62
   257
176
     1
 90
        1
176
     1
 90
        1
176
     1
 40
1.0
176
     1
 90
        0
176
     1
 62
     7
176
     1
 40
1.0
176
     1
 90
        1
176
     1
 90
        6
176
     1
 90
        2
176
     1
 62
     7
176
     1
 90
        5
176
     1
 90
        0
176
     1
 90
        0
176
     1
290
     0
176
     1
 90
       13
176
     1
 40
0.0
176
     1
 90
        0
176
     1
290
     0
176
     1
290
     1
176
     1
290
     1
176
     1
290
     0
176
     1
290
     0
176
     1
290
     0
176
     1
290
     0
176
     1
290
     0
176
     1
290
     0
176
     1
 90
       50
176
     1
 40
0.0
176
     1
 40
1.0
176
     1
 90
        0
176
     1
 62
    18
420
        0
176
     1
 90
       50
176
     1
 90
        3
176
     1
 62
     5
420
      255
176
     1
290
     0
176
     1
 90
       50
176
     1
 90
       50
176
     1
 90
       50
176
     1
290
     0
176
     1
 90
       50
176
     1
 62
   256
176
     0
 40
1.0
176
     0
 90
        2
176
     1
  1
strokes_ogs.tif
176
     1
290
     0
176
     1
 40
1.0
176
     1
 40
1.0
176
     1
  0
VISUALSTYLE
  5
2E
102
{ACAD_REACTORS
330
2A
102
}
330
2A
100
AcDbVisualStyle
  2
GouraudWithEdges
 70
     3
177
     3
291
     1
 70
    58
 90
        2
176
     1
 90
        2
176
     1
 90
        1
176
     1
 90
        2
176
     1
 40
0.6
176
     1
 40
30.0
176
     1
 62
     7
420
 16777215
176
     1
 90
        1
176
     1
 90
        0
176
     1
 62
     7
176
     1
 62
   257
176
     1
 90
        1
176
     1
 90
        1
176
     1
 40
1.0
176
     1
 90
        0
176
     1
 62
   257
176
     1
 40
1.0
176
     1
 90
        1
176
     1
 90
        6
176
     1
 90
        2
176
     1
 62
     7
176
     1
 90
        5
176
     1
 90
        0
176
     1
 90
        0
176
     1
290
     0
176
     1
 90
       13
176
     1
 40
0.0
176
     1
 90
        0
176
     1
290
     0
176
     1
290
     1
176
     1
290
     1
176
     1
290
     0
176
     1
290
     0
176
     1
290
     0
176
     1
290
     0
176
     1
290
     0
176
     1
290
     0
176
     1
 90
       50
176
     1
 40
0.0
176
     1
 40
1.0
176
     1
 90
        0
176
     1
 62
    18
420
        0
176
     1
 90
       50
176
     1
 90
        3
176
     1
 62
     5
420
      255
176
     1
290
     0
176
     1
 90
       50
176
     1
 90
       50
176
     1
 90
       50
176
     1
290
     0
176
     1
 90
       50
176
     1
 62
   256
176
     0
 40
1.0
176
     0
 90
        2
176
     1
  1
strokes_ogs.tif
176
     1
290
     0
176
     1
 40
1.0
176
     1
 40
1.0
176
     1
  0
VISUALSTYLE
  5
31
102
{ACAD_REACTORS
330
2A
102
}
330
2A
100
AcDbVisualStyle
  2
Hidden
 70
     6
177
     3
291
     0
 70
    58
 90
        1
176
     1
 90
        2
176
     1
 90
        2
176
     1
 90
        0
176
     1
 40
0.6
176
     1
 40
30.0
176
     1
 62
     7
420
 16777215
176
     1
 90
        2
176
     1
 90
        2
176
     1
 62
     7
176
     1
 62
   257
176
     1
 90
        2
176
     1
 90
        1
176
     1
 40
40.0
176
     1
 90
        0
176
     1
 62
   257
176
     1
 40
1.0
176
     1
 90
        1
176
     1
 90
        6
176
     1
 90
        2
176
     1
 62
     7
176
     1
 90
        3
176
     1
 90
        0
176
     1
 90
        0
176
     1
290
     0
176
     1
 90
        1
176
     1
 40
0.0
176
     1
 90
        0
176
     1
290
     0
176
     1
290
     1
176
     1
290
     1
176
     1
290
     0
176
     1
290
     0
176
     1
290
     0
176
     1
290
     0
176
     1
290
     0
176
     1
290
     0
176
     1
 90
       50
176
     1
 40
0.0
176
     1
 40
1.0
176
     1
 90
        0
176
     1
 62
    18
420
        0
176
     1
 90
       50
176
     1
 90
        3
176
     1
 62
     5
420
      255
176
     1
290
     0
176
     1
 90
       50
176
     1
 90
       50
176
     1
 90
       50
176
     1
290
     0
176
     1
 90
       50
176
     1
 62
   256
176
     0
 40
1.0
176
     0
 90
        2
176
     1
  1
strokes_ogs.tif
176
     1
290
     0
176
     1
 40
1.0
176
     1
 40
1.0
176
     1
  0
VISUALSTYLE
  5
3B
102
{ACAD_REACTORS
330
2A
102
}
330
2A
100
AcDbVisualStyle
  2
JitterOff
 70
    20
177
     3
291
     1
 70
    58
 90
        2
176
     0
 90
        2
176
     0
 90
        0
176
     0
 90
        0
176
     0
 40
0.6
176
     0
 40
30.0
176
     0
 62
     7
420
 16777215
176
     0
 90
        1
176
     0
 90
        4
176
     0
 62
     7
176
     0
 62
   257
176
     0
 90
        1
176
     0
 90
        1
176
     0
 40
1.0
176
     0
 90
       10
176
     2
 62
     7
176
     0
 40
1.0
176
     0
 90
        1
176
     0
 90
        6
176
     0
 90
        2
176
     0
 62
     7
176
     0
 90
        5
176
     0
 90
        0
176
     0
 90
        0
176
     0
290
     0
176
     0
 90
        1
176
     0
 40
0.0
176
     0
 90
        0
176
     0
290
     0
176
     0
290
     1
176
     0
290
     1
176
     0
290
     0
176
     0
290
     0
176
     0
290
     0
176
     0
290
     0
176
     0
290
     0
176
     0
290
     0
176
     0
 90
       50
176
     0
 40
0.0
176
     0
 40
1.0
176
     0
 90
        0
176
     0
 62
    18
420
        0
176
     0
 90
       50
176
     0
 90
        3
176
     0
 62
     5
420
      255
176
     0
290
     0
176
     0
 90
       50
176
     0
 90
       50
176
     0
 90
       50
176
     0
290
     0
176
     0
 90
       50
176
     0
 62
   256
176
     0
 40
1.0
176
     0
 90
        2
176
     0
  1
strokes_ogs.tif
176
     0
290
     0
176
     0
 40
1.0
176
     0
 40
1.0
176
     0
  0
VISUALSTYLE
  5
38
102
{ACAD_REACTORS
330
2A
102
}
330
2A
100
AcDbVisualStyle
  2
Linepattern
 70
    14
177
     3
291
     1
 70
    58
 90
        2
176
     1
 90
        2
176
     1
 90
        0
176
     1
 90
        0
176
     1
 40
0.6
176
     1
 40
30.0
176
     1
 62
     7
420
 16777215
176
     1
 90
        1
176
     1
 90
        4
176
     1
 62
     7
176
     1
 62
   257
176
     1
 90
        7
176
     1
 90
        7
176
     1
 40
1.0
176
     1
 90
        8
176
     1
 62
     7
176
     1
 40
1.0
176
     1
 90
        1
176
     1
 90
        6
176
     1
 90
        2
176
     1
 62
     7
176
     1
 90
        5
176
     1
 90
        0
176
     1
 90
        0
176
     1
290
     0
176
     1
 90
        1
176
     1
 40
0.0
176
     1
 90
        0
176
     1
290
     0
176
     1
290
     1
176
     1
290
     1
176
     1
290
     0
176
     1
290
     0
176
     1
290
     0
176
     1
290
     0
176
     1
290
     0
176
     1
290
     0
176
     1
 90
       50
176
     1
 40
0.0
176
     1
 40
1.0
176
     1
 90
        0
176
     1
 62
    18
420
        0
176
     1
 90
       50
176
     1
 90
        3
176
     1
 62
     5
420
      255
176
     1
290
     0
176
     1
 90
       50
176
     1
 90
       50
176
     1
 90
       50
176
     1
290
     0
176
     1
 90
       50
176
     1
 62
   256
176
     0
 40
1.0
176
     0
 90
        2
176
     1
  1
strokes_ogs.tif
176
     1
290
     0
176
     1
 40
1.0
176
     1
 40
1.0
176
     1
  0
VISUALSTYLE
  5
3C
102
{ACAD_REACTORS
330
2A
102
}
330
2A
100
AcDbVisualStyle
  2
OverhangOff
 70
    21
177
     3
291
     1
 70
    58
 90
        2
176
     0
 90
        2
176
     0
 90
        0
176
     0
 90
        0
176
     0
 40
0.6
176
     0
 40
30.0
176
     0
 62
     7
420
 16777215
176
     0
 90
        1
176
     0
 90
        4
176
     0
 62
     7
176
     0
 62
   257
176
     0
 90
        1
176
     0
 90
        1
176
     0
 40
1.0
176
     0
 90
        9
176
     2
 62
     7
176
     0
 40
1.0
176
     0
 90
        1
176
     0
 90
        6
176
     0
 90
        2
176
     0
 62
     7
176
     0
 90
        5
176
     0
 90
        0
176
     0
 90
        0
176
     0
290
     0
176
     0
 90
        1
176
     0
 40
0.0
176
     0
 90
        0
176
     0
290
     0
176
     0
290
     1
176
     0
290
     1
176
     0
290
     0
176
     0
290
     0
176
     0
290
     0
176
     0
290
     0
176
     0
290
     0
176
     0
290
     0
176
     0
 90
       50
176
     0
 40
0.0
176
     0
 40
1.0
176
     0
 90
        0
176
     0
 62
    18
420
        0
176
     0
 90
       50
176
     0
 90
        3
176
     0
 62
     5
420
      255
176
     0
290
     0
176
     0
 90
       50
176
     0
 90
       50
176
     0
 90
       50
176
     0
290
     0
176
     0
 90
       50
176
     0
 62
   256
176
     0
 40
1.0
176
     0
 90
        2
176
     0
  1
strokes_ogs.tif
176
     0
290
     0
176
     0
 40
1.0
176
     0
 40
1.0
176
     0
  0
VISUALSTYLE
  5
33
102
{ACAD_REACTORS
330
2A
102
}
330
2A
100
AcDbVisualStyle
  2
Realistic
 70
     8
177
     3
291
     0
 70
    58
 90
        2
176
     1
 90
        3
176
     1
 90
        0
176
     1
 90
        2
176
     1
 40
0.6
176
     1
 40
30.0
176
     1
 62
     7
420
 16777215
176
     1
 90
        0
176
     1
 90
        0
176
     1
 62
     7
176
     1
 62
   257
176
     1
 90
        1
176
     1
 90
        1
176
     1
 40
1.0
176
     1
 90
        8
176
     1
 62
   257
176
     1
 40
1.0
176
     1
 90
        1
176
     1
 90
        6
176
     1
 90
        2
176
     1
 62
     7
176
     1
 90
        3
176
     1
 90
        0
176
     1
 90
        0
176
     1
290
     0
176
     1
 90
       13
176
     1
 40
0.0
176
     1
 90
        0
176
     1
290
     0
176
     1
290
     1
176
     1
290
     1
176
     1
290
     0
176
     1
290
     0
176
     1
290
     0
176
     1
290
     0
176
     1
290
     0
176
     1
290
     0
176
     1
 90
       50
176
     1
 40
0.0
176
     1
 40
1.0
176
     1
 90
        0
176
     1
 62
    18
420
        0
176
     1
 90
       50
176
     1
 90
        3
176
     1
 62
     5
420
      255
176
     1
290
     0
176
     1
 90
       50
176
     1
 90
       50
176
     1
 90
       50
176
     1
290
     0
176
     1
 90
       50
176
     1
 62
   256
176
     0
 40
1.0
176
     0
 90
        2
176
     1
  1
strokes_ogs.tif
176
     1
290
     0
176
     1
 40
1.0
176
     1
 40
1.0
176
     1
  0
VISUALSTYLE
  5
42
102
{ACAD_REACTORS
330
2A
102
}
330
2A
100
AcDbVisualStyle
  2
Shaded
 70
    27
177
     3
291
     0
 70
    58
 90
        2
176
     1
 90
        2
176
     1
 90
        1
176
     1
 90
        2
176
     1
 40
0.6
176
     1
 40
30.0
176
     1
 62
     7
420
 16777215
176
     1
 90
        0
176
     1
 90
        4
176
     1
 62
     7
176
     1
 62
   257
176
     1
 90
        1
176
     1
 90
        1
176
     1
 40
1.0
176
     1
 90
        8
176
     1
 62
   257
176
     1
 40
1.0
176
     1
 90
        1
176
     1
 90
        6
176
     1
 90
        2
176
     1
 62
     8
420
  7895160
176
     1
 90
        3
176
     1
 90
        0
176
     1
 90
        0
176
     1
290
     0
176
     1
 90
        5
176
     1
 40
0.0
176
     1
 90
        0
176
     1
290
     0
176
     1
290
     1
176
     1
290
     1
176
     1
290
     0
176
     1
290
     0
176
     1
290
     0
176
     1
290
     0
176
     1
290
     0
176
     1
290
     0
176
     1
 90
       50
176
     1
 40
0.0
176
     1
 40
1.0
176
     1
 90
        0
176
     1
 62
    18
420
        0
176
     1
 90
       50
176
     1
 90
        3
176
     1
 62
     5
420
      255
176
     1
290
     0
176
     1
 90
       50
176
     1
 90
       50
176
     1
 90
       50
176
     1
290
     0
176
     1
 90
       50
176
     1
 62
   256
176
     0
 40
1.0
176
     0
 90
        2
176
     1
  1
strokes_ogs.tif
176
     1
290
     0
176
     1
 40
1.0
176
     1
 40
1.0
176
     1
  0
VISUALSTYLE
  5
41
102
{ACAD_REACTORS
330
2A
102
}
330
2A
100
AcDbVisualStyle
  2
Shaded with edges
 70
    26
177
     3
291
     0
 70
    58
 90
        2
176
     1
 90
        2
176
     1
 90
        1
176
     1
 90
        2
176
     1
 40
0.6
176
     1
 40
30.0
176
     1
 62
     7
420
 16777215
176
     1
 90
        1
176
     1
 90
       10
176
     1
 62
     7
176
     1
 62
   257
176
     1
 90
        2
176
     1
 90
        1
176
     1
 40
1.0
176
     1
 90
        8
176
     1
 62
   257
176
     1
 40
1.0
176
     1
 90
        1
176
     1
 90
        6
176
     1
 90
        2
176
     1
 62
     7
176
     1
 90
        3
176
     1
 90
        0
176
     1
 90
        0
176
     1
290
     0
176
     1
 90
        5
176
     1
 40
0.0
176
     1
 90
        0
176
     1
290
     0
176
     1
290
     1
176
     1
290
     1
176
     1
290
     0
176
     1
290
     0
176
     1
290
     0
176
     1
290
     0
176
     1
290
     0
176
     1
290
     0
176
     1
 90
       50
176
     1
 40
0.0
176
     1
 40
1.0
176
     1
 90
        0
176
     1
 62
    18
420
        0
176
     1
 90
       50
176
     1
 90
        3
176
     1
 62
     5
420
      255
176
     1
290
     0
176
     1
 90
       50
176
     1
 90
       50
176
     1
 90
       50
176
     1
290
     0
176
     1
 90
       50
176
     1
 62
   256
176
     0
 40
1.0
176
     0
 90
        2
176
     1
  1
strokes_ogs.tif
176
     1
290
     0
176
     1
 40
1.0
176
     1
 40
1.0
176
     1
  0
VISUALSTYLE
  5
3E
102
{ACAD_REACTORS
330
2A
102
}
330
2A
100
AcDbVisualStyle
  2
Shades of Gray
 70
    23
177
     3
291
     0
 70
    58
 90
        2
176
     1
 90
        2
176
     1
 90
        3
176
     1
 90
        0
176
     1
 40
0.6
176
     1
 40
30.0
176
     1
 62
     7
420
 16777215
176
     1
 90
        2
176
     1
 90
        2
176
     1
 62
     7
176
     1
 62
     7
176
     1
 90
        1
176
     1
 90
        1
176
     1
 40
40.0
176
     1
 90
        8
176
     1
 62
     7
176
     1
 40
1.0
176
     1
 90
        1
176
     1
 90
        6
176
     1
 90
        2
176
     1
 62
     7
176
     1
 90
        3
176
     1
 90
        0
176
     1
 90
        0
176
     1
290
     0
176
     1
 90
        1
176
     1
 40
0.0
176
     1
 90
        0
176
     1
290
     0
176
     1
290
     1
176
     1
290
     1
176
     1
290
     0
176
     1
290
     0
176
     1
290
     0
176
     1
290
     0
176
     1
290
     0
176
     1
290
     0
176
     1
 90
       50
176
     1
 40
0.0
176
     1
 40
1.0
176
     1
 90
        0
176
     1
 62
    18
420
        0
176
     1
 90
       50
176
     1
 90
        3
176
     1
 62
     5
420
      255
176
     1
290
     0
176
     1
 90
       50
176
     1
 90
       50
176
     1
 90
       50
176
     1
290
     0
176
     1
 90
       50
176
     1
 62
   256
176
     0
 40
1.0
176
     0
 90
        2
176
     1
  1
strokes_ogs.tif
176
     1
290
     0
176
     1
 40
1.0
176
     1
 40
1.0
176
     1
  0
VISUALSTYLE
  5
3F
102
{ACAD_REACTORS
330
2A
102
}
330
2A
100
AcDbVisualStyle
  2
Sketchy
 70
    24
177
     3
291
     0
 70
    58
 90
        1
176
     1
 90
        2
176
     1
 90
        2
176
     1
 90
        0
176
     1
 40
0.6
176
     1
 40
30.0
176
     1
 62
     7
420
 16777215
176
     1
 90
        2
176
     1
 90
        2
176
     1
 62
     7
176
     1
 62
     7
176
     1
 90
        1
176
     1
 90
        1
176
     1
 40
40.0
176
     1
 90
       11
176
     1
 62
     7
176
     1
 40
1.0
176
     1
 90
        1
176
     1
 90
        6
176
     1
 90
        2
176
     1
 62
     7
176
     1
 90
        6
176
     1
 90
        0
176
     1
 90
        0
176
     1
290
     0
176
     1
 90
        1
176
     1
 40
0.0
176
     1
 90
        0
176
     1
290
     0
176
     1
290
     1
176
     1
290
     1
176
     1
290
     0
176
     1
290
     0
176
     1
290
     0
176
     1
290
     0
176
     1
290
     0
176
     1
290
     0
176
     1
 90
       50
176
     1
 40
0.0
176
     1
 40
1.0
176
     1
 90
        0
176
     1
 62
    18
420
        0
176
     1
 90
       50
176
     1
 90
        3
176
     1
 62
     5
420
      255
176
     1
290
     0
176
     1
 90
       50
176
     1
 90
       50
176
     1
 90
       50
176
     1
290
     0
176
     1
 90
       50
176
     1
 62
   256
176
     0
 40
1.0
176
     0
 90
        2
176
     1
  1
strokes_ogs.tif
176
     1
290
     0
176
     1
 40
1.0
176
     1
 40
1.0
176
     1
  0
VISUALSTYLE
  5
37
102
{ACAD_REACTORS
330
2A
102
}
330
2A
100
AcDbVisualStyle
  2
Thicken
 70
    13
177
     3
291
     1
 70
    58
 90
        2
176
     1
 90
        2
176
     1
 90
        0
176
     1
 90
        0
176
     1
 40
0.6
176
     1
 40
30.0
176
     1
 62
     7
420
 16777215
176
     1
 90
        1
176
     1
 90
        4
176
     1
 62
     7
176
     1
 62
   257
176
     1
 90
        1
176
     1
 90
        1
176
     1
 40
1.0
176
     1
 90
       12
176
     1
 62
     7
176
     1
 40
1.0
176
     1
 90
        1
176
     1
 90
        6
176
     1
 90
        2
176
     1
 62
     7
176
     1
 90
        5
176
     1
 90
        0
176
     1
 90
        0
176
     1
290
     0
176
     1
 90
        1
176
     1
 40
0.0
176
     1
 90
        0
176
     1
290
     0
176
     1
290
     1
176
     1
290
     1
176
     1
290
     0
176
     1
290
     0
176
     1
290
     0
176
     1
290
     0
176
     1
290
     0
176
     1
290
     0
176
     1
 90
       50
176
     1
 40
0.0
176
     1
 40
1.0
176
     1
 90
        0
176
     1
 62
    18
420
        0
176
     1
 90
       50
176
     1
 90
        3
176
     1
 62
     5
420
      255
176
     1
290
     0
176
     1
 90
       50
176
     1
 90
       50
176
     1
 90
       50
176
     1
290
     0
176
     1
 90
       50
176
     1
 62
   256
176
     0
 40
1.0
176
     0
 90
        2
176
     1
  1
strokes_ogs.tif
176
     1
290
     0
176
     1
 40
1.0
176
     1
 40
1.0
176
     1
  0
VISUALSTYLE
  5
30
102
{ACAD_REACTORS
330
2A
102
}
330
2A
100
AcDbVisualStyle
  2
Wireframe
 70
     5
177
     3
291
     0
 70
    58
 90
        0
176
     1
 90
        2
176
     1
 90
        0
176
     1
 90
        0
176
     1
 40
0.6
176
     1
 40
30.0
176
     1
 62
     7
420
 16777215
176
     1
 90
        1
176
     1
 90
        4
176
     1
 62
     7
176
     1
 62
   257
176
     1
 90
        1
176
     1
 90
        1
176
     1
 40
1.0
176
     1
 90
        0
176
     1
 62
   257
176
     1
 40
1.0
176
     1
 90
        1
176
     1
 90
        6
176
     1
 90
        2
176
     1
 62
     7
176
     1
 90
        3
176
     1
 90
        0
176
     1
 90
        0
176
     1
290
     0
176
     1
 90
        1
176
     1
 40
0.0
176
     1
 90
        0
176
     1
290
     0
176
     1
290
     1
176
     1
290
     1
176
     1
290
     0
176
     1
290
     0
176
     1
290
     0
176
     1
290
     0
176
     1
290
     0
176
     1
290
     0
176
     1
 90
       50
176
     1
 40
0.0
176
     1
 40
1.0
176
     1
 90
        0
176
     1
 62
    18
420
        0
176
     1
 90
       50
176
     1
 90
        3
176
     1
 62
     5
420
      255
176
     1
290
     0
176
     1
 90
       50
176
     1
 90
       50
176
     1
 90
       50
176
     1
290
     0
176
     1
 90
       50
176
     1
 62
   256
176
     0
 40
1.0
176
     0
 90
        2
176
     1
  1
strokes_ogs.tif
176
     1
290
     0
176
     1
 40
1.0
176
     1
 40
1.0
176
     1
  0
VISUALSTYLE
  5
40
102
{ACAD_REACTORS
330
2A
102
}
330
2A
100
AcDbVisualStyle
  2
X-Ray
 70
    25
177
     3
291
     0
 70
    58
 90
        2
176
     1
 90
        2
176
     1
 90
        1
176
     1
 90
        1
176
     1
 40
0.5
176
     1
 40
30.0
176
     1
 62
     7
420
 16777215
176
     1
 90
        1
176
     1
 90
        0
176
     1
 62
     7
176
     1
 62
   257
176
     1
 90
        1
176
     1
 90
        1
176
     1
 40
1.0
176
     1
 90
        8
176
     1
 62
     7
176
     1
 40
1.0
176
     1
 90
        1
176
     1
 90
        6
176
     1
 90
        2
176
     1
 62
     7
176
     1
 90
        3
176
     1
 90
        0
176
     1
 90
        0
176
     1
290
     0
176
     1
 90
       13
176
     1
 40
0.0
176
     1
 90
        0
176
     1
290
     0
176
     1
290
     1
176
     1
290
     1
176
     1
290
     0
176
     1
290
     0
176
     1
290
     0
176
     1
290
     0
176
     1
290
     0
176
     1
290
     0
176
     1
 90
       50
176
     1
 40
0.0
176
     1
 40
1.0
176
     1
 90
        0
176
     1
 62
    18
420
        0
176
     1
 90
       50
176
     1
 90
        3
176
     1
 62
     5
420
      255
176
     1
290
     0
176
     1
 90
       50
176
     1
 90
       50
176
     1
 90
       50
176
     1
290
     0
176
     1
 90
       50
176
     1
 62
   256
176
     0
 40
1.0
176
     0
 90
        2
176
     1
  1
strokes_ogs.tif
176
     1
290
     0
176
     1
 40
1.0
176
     1
 40
1.0
176
     1
  0
DICTIONARYVAR
  5
100
102
{ACAD_REACTORS
330
FF
102
}
330
FF
100
DictionaryVariables
280
     0
  1
1:1
  0
DICTIONARYVAR
  5
108
102
{ACAD_REACTORS
330
FF
102
}
330
FF
100
DictionaryVariables
280
     0
  1
3.500000
  0
DICTIONARYVAR
  5
109
102
{ACAD_REACTORS
330
FF
102
}
330
FF
100
DictionaryVariables
280
     0
  1
acadiso.lin
  0
DICTIONARYVAR
  5
105
102
{ACAD_REACTORS
330
FF
102
}
330
FF
100
DictionaryVariables
280
     0
  1
Standard
  0
DICTIONARYVAR
  5
104
102
{ACAD_REACTORS
330
FF
102
}
330
FF
100
DictionaryVariables
280
     0
  1
Standard
  0
DICTIONARY
  5
101
330
5A
100
AcDbDictionary
280
     1
281
     1
  3
ACAD_ROUNDTRIP_2008_TABLESTYLE_CELLSTYLEMAP
360
102
  0
CELLSTYLEMAP
  5
102
102
{ACAD_REACTORS
330
101
102
}
330
101
100
AcDbCellStyleMap
 90
        3
300
CELLSTYLE
  1
TABLEFORMAT_BEGIN
 90
        5
170
     1
 91
        0
 92
    32768
 62
   257
 93
        1
300
CONTENTFORMAT
  1
CONTENTFORMAT_BEGIN
 90
        0
 91
        0
 92
        4
 93
        0
300

 40
0.0
140
1.0
 94
        5
 62
     0
340
11
144
6.0
309
CONTENTFORMAT_END
171
     1
301
MARGIN
  1
CELLMARGIN_BEGIN
 40
1.5
 40
1.5
 40
1.5
 40
1.5
 40
1.5
 40
1.5
309
CELLMARGIN_END
 94
        6
 95
        1
302
GRIDFORMAT
  1
GRIDFORMAT_BEGIN
 90
        0
 91
        1
 62
     0
 92
       -2
340
14
 93
        0
 40
0.045
309
GRIDFORMAT_END
 95
        2
302
GRIDFORMAT
  1
GRIDFORMAT_BEGIN
 90
        0
 91
        1
 62
     0
 92
       -2
340
14
 93
        0
 40
0.045
309
GRIDFORMAT_END
 95
        4
302
GRIDFORMAT
  1
GRIDFORMAT_BEGIN
 90
        0
 91
        1
 62
     0
 92
       -2
340
14
 93
        0
 40
0.045
309
GRIDFORMAT_END
 95
        8
302
GRIDFORMAT
  1
GRIDFORMAT_BEGIN
 90
        0
 91
        1
 62
     0
 92
       -2
340
14
 93
        0
 40
0.045
309
GRIDFORMAT_END
 95
       16
302
GRIDFORMAT
  1
GRIDFORMAT_BEGIN
 90
        0
 91
        1
 62
     0
 92
       -2
340
14
 93
        0
 40
0.045
309
GRIDFORMAT_END
 95
       32
302
GRIDFORMAT
  1
GRIDFORMAT_BEGIN
 90
        0
 91
        1
 62
     0
 92
       -2
340
14
 93
        0
 40
0.045
309
GRIDFORMAT_END
309
TABLEFORMAT_END
  1
CELLSTYLE_BEGIN
 90
        1
 91
        1
300
_TITLE
309
CELLSTYLE_END
300
CELLSTYLE
  1
TABLEFORMAT_BEGIN
 90
        5
170
     1
 91
        0
 92
        0
 62
   257
 93
        1
300
CONTENTFORMAT
  1
CONTENTFORMAT_BEGIN
 90
        0
 91
        0
 92
        4
 93
        0
300

 40
0.0
140
1.0
 94
        5
 62
     0
340
11
144
4.5
309
CONTENTFORMAT_END
171
     1
301
MARGIN
  1
CELLMARGIN_BEGIN
 40
1.5
 40
1.5
 40
1.5
 40
1.5
 40
1.5
 40
1.5
309
CELLMARGIN_END
 94
        6
 95
        1
302
GRIDFORMAT
  1
GRIDFORMAT_BEGIN
 90
        0
 91
        1
 62
     0
 92
       -2
340
14
 93
        0
 40
0.045
309
GRIDFORMAT_END
 95
        2
302
GRIDFORMAT
  1
GRIDFORMAT_BEGIN
 90
        0
 91
        1
 62
     0
 92
       -2
340
14
 93
        0
 40
0.045
309
GRIDFORMAT_END
 95
        4
302
GRIDFORMAT
  1
GRIDFORMAT_BEGIN
 90
        0
 91
        1
 62
     0
 92
       -2
340
14
 93
        0
 40
0.045
309
GRIDFORMAT_END
 95
        8
302
GRIDFORMAT
  1
GRIDFORMAT_BEGIN
 90
        0
 91
        1
 62
     0
 92
       -2
340
14
 93
        0
 40
0.045
309
GRIDFORMAT_END
 95
       16
302
GRIDFORMAT
  1
GRIDFORMAT_BEGIN
 90
        0
 91
        1
 62
     0
 92
       -2
340
14
 93
        0
 40
0.045
309
GRIDFORMAT_END
 95
       32
302
GRIDFORMAT
  1
GRIDFORMAT_BEGIN
 90
        0
 91
        1
 62
     0
 92
       -2
340
14
 93
        0
 40
0.045
309
GRIDFORMAT_END
309
TABLEFORMAT_END
  1
CELLSTYLE_BEGIN
 90
        2
 91
        1
300
_HEADER
309
CELLSTYLE_END
300
CELLSTYLE
  1
TABLEFORMAT_BEGIN
 90
        5
170
     1
 91
        0
 92
        0
 62
   257
 93
        1
300
CONTENTFORMAT
  1
CONTENTFORMAT_BEGIN
 90
        0
 91
        0
 92
        4
 93
        0
300

 40
0.0
140
1.0
 94
        2
 62
     0
340
11
144
4.5
309
CONTENTFORMAT_END
171
     1
301
MARGIN
  1
CELLMARGIN_BEGIN
 40
1.5
 40
1.5
 40
1.5
 40
1.5
 40
1.5
 40
1.5
309
CELLMARGIN_END
 94
        6
 95
        1
302
GRIDFORMAT
  1
GRIDFORMAT_BEGIN
 90
        0
 91
        1
 62
     0
 92
       -2
340
14
 93
        0
 40
0.045
309
GRIDFORMAT_END
 95
        2
302
GRIDFORMAT
  1
GRIDFORMAT_BEGIN
 90
        0
 91
        1
 62
     0
 92
       -2
340
14
 93
        0
 40
0.045
309
GRIDFORMAT_END
 95
        4
302
GRIDFORMAT
  1
GRIDFORMAT_BEGIN
 90
        0
 91
        1
 62
     0
 92
       -2
340
14
 93
        0
 40
0.045
309
GRIDFORMAT_END
 95
        8
302
GRIDFORMAT
  1
GRIDFORMAT_BEGIN
 90
        0
 91
        1
 62
     0
 92
       -2
340
14
 93
        0
 40
0.045
309
GRIDFORMAT_END
 95
       16
302
GRIDFORMAT
  1
GRIDFORMAT_BEGIN
 90
        0
 91
        1
 62
     0
 92
       -2
340
14
 93
        0
 40
0.045
309
GRIDFORMAT_END
 95
       32
302
GRIDFORMAT
  1
GRIDFORMAT_BEGIN
 90
        0
 91
        1
 62
     0
 92
       -2
340
14
 93
        0
 40
0.045
309
GRIDFORMAT_END
309
TABLEFORMAT_END
  1
CELLSTYLE_BEGIN
 90
        3
 91
        2
300
_DATA
309
CELLSTYLE_END
  0
ENDSEC
  0
EOF
