  0
SECTION
  2
HEADER
  9
$ACADVER
  1
AC1027
  9
$ACADMAINTVER
 70
   105
  9
$DWGCODEPAGE
  3
ANSI_1252
  9
$LASTSAVEDBY
  1
Nick
  9
$REQUIREDVERSIONS
160
                 0
  9
$INSBASE
 10
0.0
 20
0.0
 30
0.0
  9
$EXTMIN
 10
0.0
 20
0.0
 30
0.0
  9
$EXTMAX
 10
420.0
 20
297.0
 30
0.0
  9
$LIMMIN
 10
0.0
 20
0.0
  9
$LIMMAX
 10
420.0
 20
297.0
  9
$ORTHOMODE
 70
     0
  9
$REGENMODE
 70
     1
  9
$FILLMODE
 70
     1
  9
$QTEXTMODE
 70
     0
  9
$MIRRTEXT
 70
     1
  9
$LTSCALE
 40
1.0
  9
$ATTMODE
 70
     1
  9
$TEXTSIZE
 40
4.2333333333
  9
$TRACEWID
 40
1.0
  9
$TEXTSTYLE
  7
Standard
  9
$CLAYER
  8
0
  9
$CELTYPE
  6
ByLayer
  9
$CECOLOR
 62
   256
  9
$CELTSCALE
 40
1.0
  9
$DISPSILH
 70
     0
  9
$DIMSCALE
 40
1.0
  9
$DIMASZ
 40
3.302
  9
$DIMEXO
 40
1.0
  9
$DIMDLI
 40
3.75
  9
$DIMRND
 40
0.0
  9
$DIMDLE
 40
0.0
  9
$DIMEXE
 40
1.0
  9
$DIMTP
 40
0.0
  9
$DIMTM
 40
0.0
  9
$DIMTXT
 40
4.2333333333
  9
$DIMCEN
 40
2.5
  9
$DIMTSZ
 40
0.0
  9
$DIMTOL
 70
     0
  9
$DIMLIM
 70
     0
  9
$DIMTIH
 70
     1
  9
$DIMTOH
 70
     1
  9
$DIMSE1
 70
     0
  9
$DIMSE2
 70
     0
  9
$DIMTAD
 70
     1
  9
$DIMZIN
 70
     1
  9
$DIMBLK
  1

  9
$DIMASO
 70
     1
  9
$DIMSHO
 70
     1
  9
$DIMPOST
  1

  9
$DIMAPOST
  1

  9
$DIMALT
 70
     0
  9
$DIMALTD
 70
     3
  9
$DIMALTF
 40
0.0393700787
  9
$DIMLFAC
 40
1.0
  9
$DIMTOFL
 70
     1
  9
$DIMTVP
 40
0.0
  9
$DIMTIX
 70
     0
  9
$DIMSOXD
 70
     0
  9
$DIMSAH
 70
     0
  9
$DIMBLK1
  1

  9
$DIMBLK2
  1

  9
$DIMSTYLE
  2
ISO-25
  9
$DIMCLRD
 70
     0
  9
$DIMCLRE
 70
     0
  9
$DIMCLRT
 70
     0
  9
$DIMTFAC
 40
1.0
  9
$DIMGAP
 40
1.524
  9
$DIMJUST
 70
     0
  9
$DIMSD1
 70
     0
  9
$DIMSD2
 70
     0
  9
$DIMTOLJ
 70
     0
  9
$DIMTZIN
 70
     1
  9
$DIMALTZ
 70
     0
  9
$DIMALTTZ
 70
     0
  9
$DIMUPT
 70
     0
  9
$DIMDEC
 70
     0
  9
$DIMTDEC
 70
     0
  9
$DIMALTU
 70
     2
  9
$DIMALTTD
 70
     3
  9
$DIMTXSTY
  7
Standard
  9
$DIMAUNIT
 70
     0
  9
$DIMADEC
 70
     2
  9
$DIMALTRND
 40
0.0
  9
$DIMAZIN
 70
     0
  9
$DIMDSEP
 70
    44
  9
$DIMATFIT
 70
     3
  9
$DIMFRAC
 70
     0
  9
$DIMLDRBLK
  1

  9
$DIMLUNIT
 70
     2
  9
$DIMLWD
 70
    -2
  9
$DIMLWE
 70
    -2
  9
$DIMTMOVE
 70
     0
  9
$DIMFXL
 40
1.0
  9
$DIMFXLON
 70
     0
  9
$DIMJOGANG
 40
0.7853981634
  9
$DIMTFILL
 70
     0
  9
$DIMTFILLCLR
 70
     0
  9
$DIMARCSYM
 70
     0
  9
$DIMLTYPE
  6

  9
$DIMLTEX1
  6

  9
$DIMLTEX2
  6

  9
$DIMTXTDIRECTION
 70
     0
  9
$LUNITS
 70
     2
  9
$LUPREC
 70
     0
  9
$SKETCHINC
 40
1.0
  9
$FILLETRAD
 40
0.0
  9
$AUNITS
 70
     0
  9
$AUPREC
 70
     2
  9
$MENU
  1
.
  9
$ELEVATION
 40
0.0
  9
$PELEVATION
 40
0.0
  9
$THICKNESS
 40
0.0
  9
$LIMCHECK
 70
     0
  9
$CHAMFERA
 40
0.0
  9
$CHAMFERB
 40
0.0
  9
$CHAMFERC
 40
0.0
  9
$CHAMFERD
 40
0.0
  9
$SKPOLY
 70
     0
  9
$TDCREATE
 40
2460934.44273926
  9
$TDUCREATE
 40
2460934.026072593
  9
$TDUPDATE
 40
2460934.442739491
  9
$TDUUPDATE
 40
2460934.026072824
  9
$TDINDWG
 40
0.0000000116
  9
$TDUSRTIMER
 40
0.0000000116
  9
$USRTIMER
 70
     1
  9
$ANGBASE
 50
0.0
  9
$ANGDIR
 70
     0
  9
$PDMODE
 70
     0
  9
$PDSIZE
 40
-1.0
  9
$PLINEWID
 40
0.0
  9
$SPLFRAME
 70
     0
  9
$SPLINETYPE
 70
     6
  9
$SPLINESEGS
 70
     8
  9
$HANDSEED
  5
123
  9
$SURFTAB1
 70
     6
  9
$SURFTAB2
 70
     6
  9
$SURFTYPE
 70
     6
  9
$SURFU
 70
     6
  9
$SURFV
 70
     6
  9
$UCSBASE
  2

  9
$UCSNAME
  2

  9
$UCSORG
 10
0.0
 20
0.0
 30
0.0
  9
$UCSXDIR
 10
1.0
 20
0.0
 30
0.0
  9
$UCSYDIR
 10
0.0
 20
1.0
 30
0.0
  9
$UCSORTHOREF
  2

  9
$UCSORTHOVIEW
 70
     0
  9
$UCSORGTOP
 10
0.0
 20
0.0
 30
0.0
  9
$UCSORGBOTTOM
 10
0.0
 20
0.0
 30
0.0
  9
$UCSORGLEFT
 10
0.0
 20
0.0
 30
0.0
  9
$UCSORGRIGHT
 10
0.0
 20
0.0
 30
0.0
  9
$UCSORGFRONT
 10
0.0
 20
0.0
 30
0.0
  9
$UCSORGBACK
 10
0.0
 20
0.0
 30
0.0
  9
$PUCSBASE
  2

  9
$PUCSNAME
  2

  9
$PUCSORG
 10
0.0
 20
0.0
 30
0.0
  9
$PUCSXDIR
 10
1.0
 20
0.0
 30
0.0
  9
$PUCSYDIR
 10
0.0
 20
1.0
 30
0.0
  9
$PUCSORTHOREF
  2

  9
$PUCSORTHOVIEW
 70
     0
  9
$PUCSORGTOP
 10
0.0
 20
0.0
 30
0.0
  9
$PUCSORGBOTTOM
 10
0.0
 20
0.0
 30
0.0
  9
$PUCSORGLEFT
 10
0.0
 20
0.0
 30
0.0
  9
$PUCSORGRIGHT
 10
0.0
 20
0.0
 30
0.0
  9
$PUCSORGFRONT
 10
0.0
 20
0.0
 30
0.0
  9
$PUCSORGBACK
 10
0.0
 20
0.0
 30
0.0
  9
$USERI1
 70
     0
  9
$USERI2
 70
     0
  9
$USERI3
 70
     0
  9
$USERI4
 70
     0
  9
$USERI5
 70
     0
  9
$USERR1
 40
0.0
  9
$USERR2
 40
0.0
  9
$USERR3
 40
0.0
  9
$USERR4
 40
0.0
  9
$USERR5
 40
0.0
  9
$WORLDVIEW
 70
     1
  9
$SHADEDGE
 70
     3
  9
$SHADEDIF
 70
    70
  9
$TILEMODE
 70
     1
  9
$MAXACTVP
 70
    64
  9
$PINSBASE
 10
0.0
 20
0.0
 30
0.0
  9
$PLIMCHECK
 70
     0
  9
$PEXTMIN
 10
1.0000000000E+20
 20
1.0000000000E+20
 30
1.0000000000E+20
  9
$PEXTMAX
 10
-1.0000000000E+20
 20
-1.0000000000E+20
 30
-1.0000000000E+20
  9
$PLIMMIN
 10
0.0
 20
0.0
  9
$PLIMMAX
 10
420.0
 20
297.0
  9
$UNITMODE
 70
     0
  9
$VISRETAIN
 70
     1
  9
$PLINEGEN
 70
     0
  9
$PSLTSCALE
 70
     1
  9
$TREEDEPTH
 70
  3020
  9
$CMLSTYLE
  2
Standard
  9
$CMLJUST
 70
     0
  9
$CMLSCALE
 40
20.0
  9
$PROXYGRAPHICS
 70
     1
  9
$MEASUREMENT
 70
     1
  9
$CELWEIGHT
370
    -1
  9
$ENDCAPS
280
     0
  9
$JOINSTYLE
280
     0
  9
$LWDISPLAY
290
     1
  9
$INSUNITS
 70
     4
  9
$HYPERLINKBASE
  1

  9
$STYLESHEET
  1

  9
$XEDIT
290
     1
  9
$CEPSNTYPE
380
     0
  9
$PSTYLEMODE
290
     1
  9
$FINGERPRINTGUID
  2
{59423981-40bc-4dfe-8fb8-6226da1d998c}
  9
$VERSIONGUID
  2
{FAEB1C32-E019-11D5-929B-00C0DF256EC4}
  9
$EXTNAMES
290
     1
  9
$PSVPSCALE
 40
0.0
  9
$OLESTARTUP
290
     0
  9
$SORTENTS
280
   127
  9
$INDEXCTL
280
     0
  9
$HIDETEXT
280
     1
  9
$XCLIPFRAME
280
     2
  9
$HALOGAP
280
     0
  9
$OBSCOLOR
 70
   257
  9
$OBSLTYPE
280
     0
  9
$INTERSECTIONDISPLAY
280
     0
  9
$INTERSECTIONCOLOR
 70
   257
  9
$DIMASSOC
280
     2
  9
$PROJECTNAME
  1

  9
$CAMERADISPLAY
290
     0
  9
$LENSLENGTH
 40
50.0
  9
$CAMERAHEIGHT
 40
0.0
  9
$STEPSPERSEC
 40
2.0
  9
$STEPSIZE
 40
6.0
  9
$3DDWFPREC
 40
2.0
  9
$PSOLWIDTH
 40
5.0
  9
$PSOLHEIGHT
 40
80.0
  9
$LOFTANG1
 40
1.5707963268
  9
$LOFTANG2
 40
1.5707963268
  9
$LOFTMAG1
 40
0.0
  9
$LOFTMAG2
 40
0.0
  9
$LOFTPARAM
 70
     7
  9
$LOFTNORMALS
280
     1
  9
$LATITUDE
 40
37.795
  9
$LONGITUDE
 40
-122.394
  9
$NORTHDIRECTION
 40
0.0
  9
$TIMEZONE
 70
 -8000
  9
$LIGHTGLYPHDISPLAY
280
     1
  9
$TILEMODELIGHTSYNCH
280
     1
  9
$CMATERIAL
347
44
  9
$SOLIDHIST
280
     0
  9
$SHOWHIST
280
     1
  9
$DWFFRAME
280
     2
  9
$DGNFRAME
280
     2
  9
$REALWORLDSCALE
290
     1
  9
$INTERFERECOLOR
 62
   256
  9
$CSHADOW
280
     0
  9
$SHADOWPLANELOCATION
 40
0.0
  0
ENDSEC
  0
SECTION
  2
CLASSES
  0
CLASS
  1
ACDBDICTIONARYWDFLT
  2
AcDbDictionaryWithDefault
  3
ObjectDBX Classes
 90
        0
 91
        3
280
     0
281
     0
  0
CLASS
  1
VISUALSTYLE
  2
AcDbVisualStyle
  3
ObjectDBX Classes
 90
     4095
 91
        3
280
     0
281
     0
  0
CLASS
  1
MATERIAL
  2
AcDbMaterial
  3
ObjectDBX Classes
 90
     1153
 91
        3
280
     0
281
     0
  0
CLASS
  1
SCALE
  2
AcDbScale
  3
ObjectDBX Classes
 90
     1153
 91
        3
280
     0
281
     0
  0
CLASS
  1
TABLESTYLE
  2
AcDbTableStyle
  3
ObjectDBX Classes
 90
     4095
 91
        3
280
     0
281
     0
  0
CLASS
  1
MLEADERSTYLE
  2
AcDbMLeaderStyle
  3
ACDB_MLEADERSTYLE_CLASS
 90
     4095
 91
        3
280
     0
281
     0
  0
CLASS
  1
SUN
  2
AcDbSun
  3
SCENEOE
 90
     1153
 91
        3
280
     0
281
     0
  0
CLASS
  1
DICTIONARYVAR
  2
AcDbDictionaryVar
  3
ObjectDBX Classes
 90
        0
 91
        3
280
     0
281
     0
  0
CLASS
  1
CELLSTYLEMAP
  2
AcDbCellStyleMap
  3
ObjectDBX Classes
 90
     1152
 91
        3
280
     0
281
     0
  0
ENDSEC
  0
SECTION
  2
TABLES
  0
TABLE
  2
VPORT
  5
8
330
0
100
AcDbSymbolTable
 70
     1
  0
VPORT
  5
29
330
8
100
AcDbSymbolTableRecord
100
AcDbViewportTableRecord
  2
*Active
 70
     0
 10
0.0
 20
0.0
 11
1.0
 21
1.0
 12
210.0
 22
148.5
 13
0.0
 23
0.0
 14
10.0
 24
10.0
 15
10.0
 25
10.0
 16
0.0
 26
0.0
 36
1.0
 17
0.0
 27
0.0
 37
0.0
 40
297.0
 41
1.4141414141
 42
50.0
 43
0.0
 44
0.0
 50
0.0
 51
0.0
 71
     0
 72
  2000
 73
     1
 74
     3
 75
     0
 76
     0
 77
     0
 78
     0
281
     0
 65
     1
110
0.0
120
0.0
130
0.0
111
1.0
121
0.0
131
0.0
112
0.0
122
1.0
132
0.0
 79
     0
146
0.0
348
2F
 60
     3
 61
     5
292
     1
282
     1
141
0.0
142
0.0
 63
   250
361
5D
  0
ENDTAB
  0
TABLE
  2
LTYPE
  5
5
330
0
100
AcDbSymbolTable
 70
     6
  0
LTYPE
  5
14
330
5
100
AcDbSymbolTableRecord
100
AcDbLinetypeTableRecord
  2
ByBlock
 70
     0
  3

 72
    65
 73
     0
 40
0.0
  0
LTYPE
  5
15
330
5
100
AcDbSymbolTableRecord
100
AcDbLinetypeTableRecord
  2
ByLayer
 70
     0
  3

 72
    65
 73
     0
 40
0.0
  0
LTYPE
  5
16
330
5
100
AcDbSymbolTableRecord
100
AcDbLinetypeTableRecord
  2
Continuous
 70
     0
  3
Solid line
 72
    65
 73
     0
 40
0.0
  0
LTYPE
  5
5E
330
5
100
AcDbSymbolTableRecord
100
AcDbLinetypeTableRecord
  2
HIDDEN
 70
     0
  3
Hidden __ __ __ __ __ __ __ __ __ __ __ __ __ __
 72
    65
 73
     2
 40
1.905
 49
1.27
 74
     0
 49
-0.635
 74
     0
  0
LTYPE
  5
5F
330
5
100
AcDbSymbolTableRecord
100
AcDbLinetypeTableRecord
  2
PHANTOM
 70
     0
  3
Phantom ______  __  __  ______  __  __  ______
 72
    65
 73
     6
 40
12.7
 49
6.35
 74
     0
 49
-1.27
 74
     0
 49
1.27
 74
     0
 49
-1.27
 74
     0
 49
1.27
 74
     0
 49
-1.27
 74
     0
  0
LTYPE
  5
60
330
5
100
AcDbSymbolTableRecord
100
AcDbLinetypeTableRecord
  2
CENTER
 70
     0
  3
Center ____ _ ____ _ ____ _ ____ _ ____ _ ____
 72
    65
 73
     4
 40
10.16
 49
6.35
 74
     0
 49
-1.27
 74
     0
 49
1.27
 74
     0
 49
-1.27
 74
     0
  0
LTYPE
  5
61
330
5
100
AcDbSymbolTableRecord
100
AcDbLinetypeTableRecord
  2
CENTERX2
 70
     0
  3
Center (2x) ________  __  ________  __  _____
 72
    65
 73
     4
 40
20.32
 49
12.7
 74
     0
 49
-2.54
 74
     0
 49
2.54
 74
     0
 49
-2.54
 74
     0
  0
LTYPE
  5
62
330
5
100
AcDbSymbolTableRecord
100
AcDbLinetypeTableRecord
  2
DOT2
 70
     0
  3
Dot (.5x) ........................................
 72
    65
 73
     2
 40
0.635
 49
0.0
 74
     0
 49
-0.635
 74
     0
  0
ENDTAB
  0
TABLE
  2
LAYER
  5
2
330
0
100
AcDbSymbolTable
 70
    13
  0
LAYER
  5
10
330
2
100
AcDbSymbolTableRecord
100
AcDbLayerTableRecord
  2
0
 70
     0
 62
     7
  6
Continuous
370
    -3
390
F
347
46
348
0
  0
LAYER
  5
63
330
2
100
AcDbSymbolTableRecord
100
AcDbLayerTableRecord
  2
DRAWING-SHEET
 70
     0
 62
   179
  6
Continuous
370
    -3
390
F
347
46
348
0
  0
LAYER
  5
64
330
2
100
AcDbSymbolTableRecord
100
AcDbLayerTableRecord
  2
BORDER
 70
     0
 62
   179
  6
Continuous
370
    -3
390
F
347
46
348
0
  0
LAYER
  5
65
330
2
100
AcDbSymbolTableRecord
100
AcDbLayerTableRecord
  2
DIMENSIONS
 70
     0
 62
     7
  6
Continuous
370
    -3
390
F
347
46
348
0
  0
LAYER
  5
66
330
2
100
AcDbSymbolTableRecord
100
AcDbLayerTableRecord
  2
CENTRE_LINES
 70
     0
 62
     7
  6
Continuous
370
    -3
390
F
347
46
348
0
  0
LAYER
  5
67
330
2
100
AcDbSymbolTableRecord
100
AcDbLayerTableRecord
  2
FORMAT
 70
     0
 62
     7
  6
Continuous
370
    -3
390
F
347
46
348
0
  0
LAYER
  5
68
330
2
100
AcDbSymbolTableRecord
100
AcDbLayerTableRecord
  2
SLD-0
 70
     0
 62
   179
  6
Continuous
370
    -3
390
F
347
46
348
0
  0
LAYER
  5
69
330
2
100
AcDbSymbolTableRecord
100
AcDbLayerTableRecord
  2
OUTLINE
 70
     0
 62
     4
  6
Continuous
370
    -3
390
F
347
46
348
0
  0
LAYER
  5
6A
330
2
100
AcDbSymbolTableRecord
100
AcDbLayerTableRecord
  2
4
 70
     0
 62
     7
  6
Continuous
370
    70
390
F
347
46
348
0
  0
LAYER
  5
6B
330
2
100
AcDbSymbolTableRecord
100
AcDbLayerTableRecord
  2
TEXT25
 70
     0
 62
   179
  6
Continuous
370
    -3
390
F
347
46
348
0
  0
LAYER
  5
6C
330
2
100
AcDbSymbolTableRecord
100
AcDbLayerTableRecord
  2
TEXT35
 70
     0
 62
     7
  6
Continuous
370
    -3
390
F
347
46
348
0
  0
LAYER
  5
6D
330
2
100
AcDbSymbolTableRecord
100
AcDbLayerTableRecord
  2
TEXT5
 70
     0
 62
     7
  6
Continuous
370
    -3
390
F
347
46
348
0
  0
LAYER
  5
6E
330
2
100
AcDbSymbolTableRecord
100
AcDbLayerTableRecord
  2
5
 70
     0
 62
     7
  6
Continuous
370
    35
390
F
347
46
348
0
  0
ENDTAB
  0
TABLE
  2
STYLE
  5
3
330
0
100
AcDbSymbolTable
 70
     3
  0
STYLE
  5
11
330
3
100
AcDbSymbolTableRecord
100
AcDbTextStyleTableRecord
  2
Standard
 70
     0
 40
0.0
 41
1.0
 50
0.0
 71
     0
 42
4.2333333333
  3
txt
  4

  0
STYLE
  5
75
330
3
100
AcDbSymbolTableRecord
100
AcDbTextStyleTableRecord
  2
SLDTEXTSTYLE0
 70
     0
 40
0.0
 41
0.75
 50
0.0
 71
     0
 42
4.2333333333
  3
TXT
  4

  0
STYLE
  5
7B
330
3
100
AcDbSymbolTableRecord
100
AcDbTextStyleTableRecord
  2
SLDTEXTSTYLE1
 70
     0
 40
0.0
 41
0.6
 50
0.0
 71
     0
 42
4.2333333333
  3
TXT
  4

  0
ENDTAB
  0
TABLE
  2
VIEW
  5
6
330
0
100
AcDbSymbolTable
 70
     0
  0
ENDTAB
  0
TABLE
  2
UCS
  5
7
330
0
100
AcDbSymbolTable
 70
     0
  0
ENDTAB
  0
TABLE
  2
APPID
  5
9
330
0
100
AcDbSymbolTable
 70
     1
  0
APPID
  5
12
330
9
100
AcDbSymbolTableRecord
100
AcDbRegAppTableRecord
  2
ACAD
 70
     0
  0
ENDTAB
  0
TABLE
  2
DIMSTYLE
  5
A
330
0
100
AcDbSymbolTable
 70
     1
100
AcDbDimStyleTable
  0
DIMSTYLE
105
27
330
A
100
AcDbSymbolTableRecord
100
AcDbDimStyleTableRecord
  2
ISO-25
 70
     0
 41
2.5
 42
0.625
 43
3.75
 44
1.25
 73
     0
 74
     0
 77
     1
 78
     8
140
2.5
141
2.5
143
0.0393700787
147
0.625
171
     3
172
     1
178
     0
271
     2
272
     2
274
     3
278
    44
283
     0
284
     8
340
11
  0
ENDTAB
  0
TABLE
  2
BLOCK_RECORD
  5
1
330
0
100
AcDbSymbolTable
 70
     6
  0
BLOCK_RECORD
  5
1F
330
1
100
AcDbSymbolTableRecord
100
AcDbBlockTableRecord
  2
*Model_Space
340
22
 70
     0
280
     1
281
     0
  0
BLOCK_RECORD
  5
1B
330
1
100
AcDbSymbolTableRecord
100
AcDbBlockTableRecord
  2
*Paper_Space
340
1E
 70
     0
280
     1
281
     0
  0
BLOCK_RECORD
  5
23
330
1
100
AcDbSymbolTableRecord
100
AcDbBlockTableRecord
  2
*Paper_Space0
340
26
 70
     0
280
     1
281
     0
  0
BLOCK_RECORD
  5
6F
330
1
100
AcDbSymbolTableRecord
100
AcDbBlockTableRecord
  2
Block1
340
0
 70
     0
280
     1
281
     0
  0
BLOCK_RECORD
  5
72
330
1
100
AcDbSymbolTableRecord
100
AcDbBlockTableRecord
  2
SW_NOTE_0
340
0
102
{BLKREFS
331
77
102
}
 70
     0
280
     1
281
     0
  0
BLOCK_RECORD
  5
78
330
1
100
AcDbSymbolTableRecord
100
AcDbBlockTableRecord
  2
SW_NOTE_0_1
340
0
102
{BLKREFS
331
7D
102
}
 70
     0
280
     1
281
     0
  0
BLOCK_RECORD
  5
7E
330
1
100
AcDbSymbolTableRecord
100
AcDbBlockTableRecord
  2
SW_NOTE_0_2
340
0
102
{BLKREFS
331
82
102
}
 70
     0
280
     1
281
     0
  0
BLOCK_RECORD
  5
83
330
1
100
AcDbSymbolTableRecord
100
AcDbBlockTableRecord
  2
SW_NOTE_0_3
340
0
102
{BLKREFS
331
87
102
}
 70
     0
280
     1
281
     0
  0
ENDTAB
  0
ENDSEC
  0
SECTION
  2
BLOCKS
  0
BLOCK
  5
20
330
1F
100
AcDbEntity
  8
0
100
AcDbBlockBegin
  2
*Model_Space
 70
     0
 10
0.0
 20
0.0
 30
0.0
  3
*Model_Space
  1

  0
ENDBLK
  5
21
330
1F
100
AcDbEntity
  8
0
100
AcDbBlockEnd
  0
BLOCK
  5
1C
330
1B
100
AcDbEntity
 67
     1
  8
0
100
AcDbBlockBegin
  2
*Paper_Space
 70
     0
 10
0.0
 20
0.0
 30
0.0
  3
*Paper_Space
  1

  0
ENDBLK
  5
1D
330
1B
100
AcDbEntity
 67
     1
  8
0
100
AcDbBlockEnd
  0
BLOCK
  5
24
330
23
100
AcDbEntity
  8
0
100
AcDbBlockBegin
  2
*Paper_Space0
 70
     0
 10
0.0
 20
0.0
 30
0.0
  3
*Paper_Space0
  1

  0
ENDBLK
  5
25
330
23
100
AcDbEntity
  8
0
100
AcDbBlockEnd
  0
BLOCK
  5
70
330
6F
100
AcDbEntity
  8
0
100
AcDbBlockBegin
  2
Block1
 70
     0
 10
0.0
 20
0.0
 30
0.0
  3
Block1
  1

  0
INSERT
  5
77
330
6F
100
AcDbEntity
  8
0
  6
Continuous
 62
     7
370
     0
100
AcDbBlockReference
  2
SW_NOTE_0
 10
40.5248655077
 20
20.5912386523
 30
0.0
  0
INSERT
  5
7D
330
6F
100
AcDbEntity
  8
DRAWING-SHEET
 62
     7
100
AcDbBlockReference
  2
SW_NOTE_0_1
 10
3.556761253
 20
-0.3611706024
 30
0.0
  0
INSERT
  5
82
330
6F
100
AcDbEntity
  8
DRAWING-SHEET
 62
     7
100
AcDbBlockReference
  2
SW_NOTE_0_2
 10
7.9590819428
 20
3.0109637777
 30
0.0
  0
INSERT
  5
87
330
6F
100
AcDbEntity
  8
DRAWING-SHEET
 62
     7
100
AcDbBlockReference
  2
SW_NOTE_0_3
 10
0.0721004934
 20
6.5234823937
 30
0.0
  0
ENDBLK
  5
71
330
6F
100
AcDbEntity
  8
0
100
AcDbBlockEnd
  0
BLOCK
  5
73
330
72
100
AcDbEntity
  8
0
100
AcDbBlockBegin
  2
SW_NOTE_0
 70
     0
 10
0.0
 20
0.0
 30
0.0
  3
SW_NOTE_0
  1

  0
MTEXT
  5
76
330
72
100
AcDbEntity
  8
0
  6
Continuous
 62
     0
370
     0
100
AcDbMText
 10
0.0
 20
1.9336016097
 30
0.0
 40
1.5
 41
0.0
 46
0.0
 71
     1
 72
     1
  1
TITLE:
  7
SLDTEXTSTYLE0
 73
     1
 44
1.0
  0
ENDBLK
  5
74
330
72
100
AcDbEntity
  8
0
100
AcDbBlockEnd
  0
BLOCK
  5
79
330
78
100
AcDbEntity
  8
0
100
AcDbBlockBegin
  2
SW_NOTE_0_1
 70
     0
 10
0.0
 20
0.0
 30
0.0
  3
SW_NOTE_0_1
  1

  0
MTEXT
  5
7C
330
78
100
AcDbEntity
  8
DRAWING-SHEET
 62
     0
100
AcDbMText
 10
0.0
 20
2.7285267159
 30
0.0
 40
2.1166666667
 41
0.0
 46
0.0
 71
     1
 72
     1
  1
Email: roddyeng.com.au
  7
SLDTEXTSTYLE1
 73
     1
 44
1.0
  0
ENDBLK
  5
7A
330
78
100
AcDbEntity
  8
0
100
AcDbBlockEnd
  0
BLOCK
  5
7F
330
7E
100
AcDbEntity
  8
0
100
AcDbBlockBegin
  2
SW_NOTE_0_2
 70
     0
 10
0.0
 20
0.0
 30
0.0
  3
SW_NOTE_0_2
  1

  0
MTEXT
  5
81
330
7E
100
AcDbEntity
  8
DRAWING-SHEET
 62
     0
100
AcDbMText
 10
0.0
 20
2.7285267159
 30
0.0
 40
2.1166666667
 41
0.0
 46
0.0
 71
     1
 72
     1
  1
Ph: - 02 6947 4039
  7
SLDTEXTSTYLE1
 73
     1
 44
1.0
  0
ENDBLK
  5
80
330
7E
100
AcDbEntity
  8
0
100
AcDbBlockEnd
  0
BLOCK
  5
84
330
83
100
AcDbEntity
  8
0
100
AcDbBlockBegin
  2
SW_NOTE_0_3
 70
     0
 10
0.0
 20
0.0
 30
0.0
  3
SW_NOTE_0_3
  1

  0
MTEXT
  5
86
330
83
100
AcDbEntity
  8
DRAWING-SHEET
 62
     0
100
AcDbMText
 10
0.0
 20
2.7285267159
 30
0.0
 40
2.1166666667
 41
0.0
 46
0.0
 71
     1
 72
     1
  1
14 Waratah St TUMUT NSW 2720
  7
SLDTEXTSTYLE1
 73
     1
 44
1.0
  0
ENDBLK
  5
85
330
83
100
AcDbEntity
  8
0
100
AcDbBlockEnd
  0
ENDSEC
  0
SECTION
  2
ENTITIES
  0
SPLINE
  5
88
330
1F
100
AcDbEntity
  8
0
  6
Continuous
 62
     7
370
    25
100
AcDbSpline
210
0.0
220
0.0
230
1.0
 70
     8
 71
     3
 72
    19
 73
    15
 74
     0
 42
0.00000001
 43
0.00000001
 40
0.0
 40
0.0
 40
0.0
 40
0.0
 40
0.0740584262733828
 40
0.1488703523168769
 40
0.2266676683691774
 40
0.3077347594511122
 40
0.3911572038059801
 40
0.4739293555425552
 40
0.5579277515150594
 40
0.6449892900513596
 40
0.7333640555176194
 40
0.8210920421841619
 40
0.9092872149973401
 40
1.0
 40
1.0
 40
1.0
 40
1.0
 10
885.7241783147279
 20
687.4671180844789
 30
0.0
 10
885.7279164269514
 20
687.5523696464942
 30
0.0
 10
885.7354306844331
 20
687.7237401536923
 30
0.0
 10
885.7961925600567
 20
687.9788398641394
 30
0.0
 10
885.8952098549437
 20
688.2293920127662
 30
0.0
 10
886.0298864195453
 20
688.4741822134988
 30
0.0
 10
886.1976286278798
 20
688.704925561298
 30
0.0
 10
886.3988778754933
 20
688.9118762956638
 30
0.0
 10
886.6288282682265
 20
689.093159684201
 30
0.0
 10
886.8863319642344
 20
689.2453337933404
 30
0.0
 10
887.163443360197
 20
689.369182156283
 30
0.0
 10
887.4558221576449
 20
689.4546185512974
 30
0.0
 10
887.7583741420069
 20
689.510472532343
 30
0.0
 10
887.9643117862321
 20
689.5167963143745
 30
0.0
 10
888.0687295967791
 20
689.5200026998635
 30
0.0
  0
SPLINE
  5
89
330
1F
100
AcDbEntity
  8
0
  6
Continuous
 62
     7
370
    25
100
AcDbSpline
210
0.0
220
0.0
230
1.0
 70
     8
 71
     3
 72
    15
 73
    11
 74
     0
 42
0.00000001
 43
0.00000001
 40
0.0
 40
0.0
 40
0.0
 40
0.0
 40
0.1458600603916681
 40
0.2824259030758174
 40
0.4108504003575516
 40
0.5350294213479317
 40
0.6547010781259428
 40
0.7701334325965061
 40
0.8845558441988612
 40
1.0
 40
1.0
 40
1.0
 40
1.0
 10
886.892447545497
 20
685.7716052639662
 30
0.0
 10
886.7996672605315
 20
685.8221990208115
 30
0.0
 10
886.6200186596831
 20
685.9201626952309
 30
0.0
 10
886.3821456513804
 20
686.1001553948722
 30
0.0
 10
886.1778242263421
 20
686.2950989715928
 30
0.0
 10
886.0126705860785
 20
686.5091099311893
 30
0.0
 10
885.8826769219136
 20
686.7355027867412
 30
0.0
 10
885.7934915400924
 20
686.972861077894
 30
0.0
 10
885.7331567195117
 20
687.2167836230492
 30
0.0
 10
885.7271799717603
 20
687.383426358084
 30
0.0
 10
885.7241783147279
 20
687.4671180844789
 30
0.0
  0
SPLINE
  5
8A
330
1F
100
AcDbEntity
  8
0
  6
Continuous
 62
     7
370
    25
100
AcDbSpline
210
0.0
220
0.0
230
1.0
 70
     8
 71
     3
 72
    23
 73
    19
 74
     0
 42
0.00000001
 43
0.00000001
 40
0.0
 40
0.0
 40
0.0
 40
0.0
 40
0.058853586028665
 40
0.1163154589633495
 40
0.1726748434114562
 40
0.2287803868808987
 40
0.2845803591252749
 40
0.3402565063845431
 40
0.396629805012459
 40
0.4535072628751914
 40
0.5123181897799947
 40
0.5726484440568312
 40
0.6360219358218006
 40
0.7023629463891943
 40
0.7714830560569291
 40
0.8441844774899022
 40
0.9200697939721565
 40
1.0
 40
1.0
 40
1.0
 40
1.0
 10
885.3139219044715
 20
683.5792975716585
 30
0.0
 10
885.3152427753943
 20
683.6354328677427
 30
0.0
 10
885.3178532825527
 20
683.7463760263277
 30
0.0
 10
885.3359215070806
 20
683.9102830624082
 30
0.0
 10
885.3649694186311
 20
684.0698170847495
 30
0.0
 10
885.4044196055877
 20
684.2255673560121
 30
0.0
 10
885.4578848089438
 20
684.3763999789165
 30
0.0
 10
885.5224382561312
 20
684.5230296330408
 30
0.0
 10
885.5977112903645
 20
684.6656218591988
 30
0.0
 10
885.6847539533405
 20
684.8049564444992
 30
0.0
 10
885.7860157224861
 20
684.9390810438806
 30
0.0
 10
885.9006754934277
 20
685.0702718887029
 30
0.0
 10
886.0310249075194
 20
685.1964932993025
 30
0.0
 10
886.1756138421492
 20
685.3192874133977
 30
0.0
 10
886.332789932356
 20
685.440832496414
 30
0.0
 10
886.5066357163223
 20
685.5545598760968
 30
0.0
 10
886.6925426141298
 20
685.6685209384123
 30
0.0
 10
886.824669255518
 20
685.7366542536939
 30
0.0
 10
886.892447545497
 20
685.7716052639662
 30
0.0
  0
SPLINE
  5
8B
330
1F
100
AcDbEntity
  8
0
  6
Continuous
 62
     7
370
    25
100
AcDbSpline
210
0.0
220
0.0
230
1.0
 70
     8
 71
     3
 72
    23
 73
    19
 74
     0
 42
0.00000001
 43
0.00000001
 40
0.0
 40
0.0
 40
0.0
 40
0.0
 40
0.0785564333527045
 40
0.1528628401420923
 40
0.2235596934382881
 40
0.2903749439782079
 40
0.3554030728222046
 40
0.4182911570440929
 40
0.4803885637756449
 40
0.5430726152062788
 40
0.6049239444620933
 40
0.6643983091132979
 40
0.7219425547367019
 40
0.7783748910546731
 40
0.8338299406509386
 40
0.8888612363188843
 40
0.9440889395778861
 40
1.0
 40
1.0
 40
1.0
 40
1.0
 10
888.0206526737022
 20
681.1097462896072
 30
0.0
 10
887.9131934997226
 20
681.1123805249321
 30
0.0
 10
887.7040888620402
 20
681.1175064793088
 30
0.0
 10
887.3997279990897
 20
681.1522366086285
 30
0.0
 10
887.1160181251578
 20
681.2131003038932
 30
0.0
 10
886.8513096261894
 20
681.2964022680578
 30
0.0
 10
886.6071983271279
 20
681.4047685042091
 30
0.0
 10
886.3843798101614
 20
681.5396448670605
 30
0.0
 10
886.1796393021526
 20
681.6956024491428
 30
0.0
 10
885.9991902197155
 20
681.877120342174
 30
0.0
 10
885.8389880623297
 20
682.071538336054
 30
0.0
 10
885.6982610838897
 20
682.2721134440786
 30
0.0
 10
885.5812917615405
 20
682.4788639755966
 30
0.0
 10
885.4822584007509
 20
682.6887071005929
 30
0.0
 10
885.4064457774736
 20
682.9045840243211
 30
0.0
 10
885.3539378681513
 20
683.1253840543405
 30
0.0
 10
885.3205908646237
 20
683.3507215237167
 30
0.0
 10
885.3161539848464
 20
683.5027938740574
 30
0.0
 10
885.3139219044715
 20
683.5792975716585
 30
0.0
  0
SPLINE
  5
8C
330
1F
100
AcDbEntity
  8
0
  6
Continuous
 62
     7
370
    25
100
AcDbSpline
210
0.0
220
0.0
230
1.0
 70
     8
 71
     3
 72
    15
 73
    11
 74
     0
 42
0.00000001
 43
0.00000001
 40
0.0
 40
0.0
 40
0.0
 40
0.0
 40
0.119283450373371
 40
0.2370928820686313
 40
0.3547960442151277
 40
0.4745763009408491
 40
0.597460065814975
 40
0.7249261546156142
 40
0.8588831991927638
 40
1.0
 40
1.0
 40
1.0
 40
1.0
 10
890.1440501095997
 20
681.9879514178123
 30
0.0
 10
890.0804238826183
 20
681.9180227910903
 30
0.0
 10
889.9539576755886
 20
681.7790296650807
 30
0.0
 10
889.7373109838945
 20
681.5985706708157
 30
0.0
 10
889.4995466780296
 20
681.4469149128885
 30
0.0
 10
889.2415847748554
 20
681.3233220110625
 30
0.0
 10
888.964114828785
 20
681.2271257620913
 30
0.0
 10
888.6671959611043
 20
681.1580000068607
 30
0.0
 10
888.350249325862
 20
681.1184058829372
 30
0.0
 10
888.1324082490261
 20
681.1126824779097
 30
0.0
 10
888.0206526737022
 20
681.1097462896072
 30
0.0
  0
SPLINE
  5
8D
330
1F
100
AcDbEntity
  8
0
  6
Continuous
 62
     7
370
    25
100
AcDbSpline
210
0.0
220
0.0
230
1.0
 70
     8
 71
     3
 72
    15
 73
    11
 74
     0
 42
0.00000001
 43
0.00000001
 40
0.0
 40
0.0
 40
0.0
 40
0.0
 40
0.1281581855276733
 40
0.253673136153169
 40
0.3773253059734922
 40
0.4993845547646106
 40
0.6229183680423486
 40
0.7458393931045793
 40
0.87139528501403
 40
0.9999999999999999
 40
0.9999999999999999
 40
0.9999999999999999
 40
0.9999999999999999
 10
890.7498193403688
 20
683.6450026998637
 30
0.0
 10
890.7480560934214
 20
683.5679793110047
 30
0.0
 10
890.744565966114
 20
683.4155211240495
 30
0.0
 10
890.7141660026297
 20
683.1905014406267
 30
0.0
 10
890.6686506232371
 20
682.9719602247901
 30
0.0
 10
890.6021831666
 20
682.7599453886413
 30
0.0
 10
890.5159811303722
 20
682.5556268210023
 30
0.0
 10
890.4097483624183
 20
682.358829624561
 30
0.0
 10
890.2894941792259
 20
682.1663283464495
 30
0.0
 10
890.1929176324691
 20
682.047883999883
 30
0.0
 10
890.1440501095997
 20
681.9879514178123
 30
0.0
  0
SPLINE
  5
8E
330
1F
100
AcDbEntity
  8
0
  6
Continuous
 62
     7
370
    25
100
AcDbSpline
210
0.0
220
0.0
230
1.0
 70
     8
 71
     3
 72
    23
 73
    19
 74
     0
 42
0.00000001
 43
0.00000001
 40
0.0
 40
0.0
 40
0.0
 40
0.0
 40
0.0795248295850135
 40
0.1550999763495363
 40
0.2272198200732709
 40
0.2959105041914701
 40
0.3620558809471798
 40
0.4255201169126375
 40
0.4858127192253093
 40
0.5444947060018126
 40
0.6014596357222242
 40
0.6578405937966504
 40
0.7139744721931366
 40
0.7694679515974543
 40
0.8261299671813294
 40
0.882885359309069
 40
0.9407008816662019
 40
1.0
 40
1.0
 40
1.0
 40
1.0
 10
889.2033449813945
 20
685.7716052639662
 30
0.0
 10
889.26882737488
 20
685.737461364632
 30
0.0
 10
889.3965399111271
 20
685.6708693579994
 30
0.0
 10
889.5784306727503
 20
685.5636446089975
 30
0.0
 10
889.7446592470377
 20
685.4506366893027
 30
0.0
 10
889.8998376739816
 20
685.3371832963596
 30
0.0
 10
890.0412396186825
 20
685.2189395217337
 30
0.0
 10
890.1672839909324
 20
685.0954351646868
 30
0.0
 10
890.2810842650304
 20
684.9697530040137
 30
0.0
 10
890.3803454855775
 20
684.8397647979227
 30
0.0
 10
890.4676525409355
 20
684.7058158857076
 30
0.0
 10
890.5431088499722
 20
684.5675546901824
 30
0.0
 10
890.6076053135898
 20
684.4252842129923
 30
0.0
 10
890.6587206021087
 20
684.2774514588539
 30
0.0
 10
890.700827554545
 20
684.1262280036353
 30
0.0
 10
890.7298003660691
 20
683.9696611879731
 30
0.0
 10
890.7453818925092
 20
683.8087826944976
 30
0.0
 10
890.7483277518035
 20
683.7000551477917
 30
0.0
 10
890.7498193403688
 20
683.6450026998637
 30
0.0
  0
SPLINE
  5
8F
330
1F
100
AcDbEntity
  8
0
  6
Continuous
 62
     7
370
    25
100
AcDbSpline
210
0.0
220
0.0
230
1.0
 70
     8
 71
     3
 72
    15
 73
    11
 74
     0
 42
0.00000001
 43
0.00000001
 40
0.0
 40
0.0
 40
0.0
 40
0.0
 40
0.1219040408698848
 40
0.2394126076020048
 40
0.3554101042801751
 40
0.4720907288033044
 40
0.5928589821563583
 40
0.7187034677136818
 40
0.8548923829515249
 40
1.0
 40
1.0
 40
1.0
 40
1.0
 10
890.3395629301124
 20
687.444682187043
 30
0.0
 10
890.3362839343811
 20
687.357878383942
 30
0.0
 10
890.329844173133
 20
687.1874006483235
 30
0.0
 10
890.2756728827849
 20
686.9388828872308
 30
0.0
 10
890.184442451697
 20
686.7061467982454
 30
0.0
 10
890.0598843648784
 20
686.4865514789994
 30
0.0
 10
889.8975403934818
 20
686.284079484463
 30
0.0
 10
889.6995775750893
 20
686.0961561247112
 30
0.0
 10
889.4675741962199
 20
685.9212376599507
 30
0.0
 10
889.2932635991606
 20
685.8225259701751
 30
0.0
 10
889.2033449813945
 20
685.7716052639662
 30
0.0
  0
SPLINE
  5
90
330
1F
100
AcDbEntity
  8
0
  6
Continuous
 62
     7
370
    25
100
AcDbSpline
210
0.0
220
0.0
230
1.0
 70
     8
 71
     3
 72
    19
 73
    15
 74
     0
 42
0.00000001
 43
0.00000001
 40
0.0
 40
0.0
 40
0.0
 40
0.0
 40
0.089409711110136
 40
0.1763057644831093
 40
0.2626259021834216
 40
0.3494457264756554
 40
0.4354982637429572
 40
0.5189281301037162
 40
0.6013546565787422
 40
0.6842564217184173
 40
0.7658067397968332
 40
0.84487686571039
 40
0.9222797948488781
 40
0.9999999999999999
 40
0.9999999999999999
 40
0.9999999999999999
 40
0.9999999999999999
 10
888.0687295967791
 20
689.5200026998635
 30
0.0
 10
888.170452602473
 20
689.5166967727552
 30
0.0
 10
888.371038781107
 20
689.5101778611186
 30
0.0
 10
888.6658836441441
 20
689.4558078541197
 30
0.0
 10
888.947997649712
 20
689.3649975232714
 30
0.0
 10
889.2164079329816
 20
689.2418038699476
 30
0.0
 10
889.4663093443413
 20
689.09006229096
 30
0.0
 10
889.6871146226356
 20
688.9062888645112
 30
0.0
 10
889.8821605242708
 20
688.7002510342924
 30
0.0
 10
890.0434962825756
 20
688.4695776552899
 30
0.0
 10
890.176440029818
 20
688.2257280698374
 30
0.0
 10
890.2690135180846
 20
687.9705908792249
 30
0.0
 10
890.3283323157358
 20
687.7096787446844
 30
0.0
 10
890.3358142909827
 20
687.5331347357554
 30
0.0
 10
890.3395629301124
 20
687.444682187043
 30
0.0
  0
LINE
  5
91
330
1F
100
AcDbEntity
  8
0
  6
Continuous
 62
     7
370
    25
100
AcDbLine
 10
904.3299475455
 20
681.3148744947
 30
0.0
 11
899.0575116481
 21
687.5969257768
 31
0.0
  0
LINE
  5
92
330
1F
100
AcDbEntity
  8
0
  6
Continuous
 62
     7
370
    25
100
AcDbLine
 10
904.493409084
 20
681.3148744947
 30
0.0
 11
904.3299475455
 21
681.3148744947
 31
0.0
  0
LINE
  5
93
330
1F
100
AcDbEntity
  8
0
  6
Continuous
 62
     7
370
    25
100
AcDbLine
 10
904.493409084
 20
689.3148744947
 30
0.0
 11
904.493409084
 21
681.3148744947
 31
0.0
  0
LINE
  5
94
330
1F
100
AcDbEntity
  8
0
  6
Continuous
 62
     7
370
    25
100
AcDbLine
 10
903.775460366
 20
689.3148744947
 30
0.0
 11
904.493409084
 21
689.3148744947
 31
0.0
  0
LINE
  5
95
330
1F
100
AcDbEntity
  8
0
  6
Continuous
 62
     7
370
    25
100
AcDbLine
 10
903.775460366
 20
683.0184001358
 30
0.0
 11
903.775460366
 21
689.3148744947
 31
0.0
  0
LINE
  5
96
330
1F
100
AcDbEntity
  8
0
  6
Continuous
 62
     7
370
    25
100
AcDbLine
 10
898.4902039558
 20
689.3148744947
 30
0.0
 11
903.775460366
 21
683.0184001358
 31
0.0
  0
LINE
  5
97
330
1F
100
AcDbEntity
  8
0
  6
Continuous
 62
     7
370
    25
100
AcDbLine
 10
898.3395629301
 20
689.3148744947
 30
0.0
 11
898.4902039558
 21
689.3148744947
 31
0.0
  0
LINE
  5
98
330
1F
100
AcDbEntity
  8
0
  6
Continuous
 62
     7
370
    25
100
AcDbLine
 10
898.3395629301
 20
681.3148744947
 30
0.0
 11
898.3395629301
 21
689.3148744947
 31
0.0
  0
LINE
  5
99
330
1F
100
AcDbEntity
  8
0
  6
Continuous
 62
     7
370
    25
100
AcDbLine
 10
899.0575116481
 20
681.3148744947
 30
0.0
 11
898.3395629301
 21
681.3148744947
 31
0.0
  0
LINE
  5
9A
330
1F
100
AcDbEntity
  8
0
  6
Continuous
 62
     7
370
    25
100
AcDbLine
 10
899.0575116481
 20
687.5969257768
 30
0.0
 11
899.0575116481
 21
681.3148744947
 31
0.0
  0
SPLINE
  5
9B
330
1F
100
AcDbEntity
  8
0
  6
Continuous
 62
     7
370
    25
100
AcDbSpline
210
0.0
220
0.0
230
1.0
 70
     8
 71
     3
 72
    23
 73
    19
 74
     0
 42
0.00000001
 43
0.00000001
 40
0.0
 40
0.0
 40
0.0
 40
0.0
 40
0.0611602766365183
 40
0.1203345577262036
 40
0.1781802550631266
 40
0.2352351259863656
 40
0.2926829614441807
 40
0.3511862482150804
 40
0.4104566095096935
 40
0.4717198544629947
 40
0.5337612027725879
 40
0.5957390238870934
 40
0.657887515124883
 40
0.7212951802914608
 40
0.7868225145418883
 40
0.8546861538286836
 40
0.9254779862699963
 40
1.0
 40
1.0
 40
1.0
 40
1.0
 10
911.2626398531893
 20
683.5857078280687
 30
0.0
 10
911.2604070622789
 20
683.5076121203616
 30
0.0
 10
911.2560139836095
 20
683.3539566275471
 30
0.0
 10
911.2236026195027
 20
683.1282306057174
 30
0.0
 10
911.1687246606664
 20
682.9125164420309
 30
0.0
 10
911.0931334689756
 20
682.7054188815641
 30
0.0
 10
910.9944767498937
 20
682.5073385742025
 30
0.0
 10
910.8744128314219
 20
682.3180511136619
 30
0.0
 10
910.7312549717125
 20
682.139458357975
 30
0.0
 10
910.571111271251
 20
681.9695757908823
 30
0.0
 10
910.3899406529911
 20
681.8168265626772
 30
0.0
 10
910.194476070311
 20
681.6807906616914
 30
0.0
 10
909.9822559105542
 20
681.5689139482845
 30
0.0
 10
909.7567656385165
 20
681.4749344705638
 30
0.0
 10
909.5154757731125
 20
681.4031465883579
 30
0.0
 10
909.2594698134329
 20
681.3529235623024
 30
0.0
 10
908.9889685520959
 20
681.319083477734
 30
0.0
 10
908.8033462638409
 20
681.3163012951171
 30
0.0
 10
908.7081526737022
 20
681.3148744947354
 30
0.0
  0
SPLINE
  5
9C
330
1F
100
AcDbEntity
  8
0
  6
Continuous
 62
     7
370
    25
100
AcDbSpline
210
0.0
220
0.0
230
1.0
 70
     8
 71
     3
 72
    19
 73
    15
 74
     0
 42
0.00000001
 43
0.00000001
 40
0.0
 40
0.0
 40
0.0
 40
0.0
 40
0.106057493303396
 40
0.2029142570846115
 40
0.2903001653958364
 40
0.3702225656250415
 40
0.4463837207709704
 40
0.5213968999648276
 40
0.5982910828464562
 40
0.6761424688569253
 40
0.7555286995560198
 40
0.8348871724576588
 40
0.9166460487466402
 40
1.0
 40
1.0
 40
1.0
 40
1.0
 10
909.7225757506253
 20
685.6305796229404
 30
0.0
 10
909.8134567279848
 20
685.5956881967905
 30
0.0
 10
909.9873345505662
 20
685.5289322553164
 30
0.0
 10
910.2266168646963
 20
685.4109083376088
 30
0.0
 10
910.4327765104018
 20
685.2825377995715
 30
0.0
 10
910.6073985583679
 20
685.1423507135287
 30
0.0
 10
910.7567417696059
 20
684.9912448602942
 30
0.0
 10
910.8871484932012
 20
684.8270045991551
 30
0.0
 10
910.9984202055689
 20
684.6474874382924
 30
0.0
 10
911.0937640308617
 20
684.4545650717498
 30
0.0
 10
911.1681611874931
 20
684.2502074297912
 30
0.0
 10
911.2238775403382
 20
684.03633137014
 30
0.0
 10
911.2558031383628
 20
683.8137038154102
 30
0.0
 10
911.2603463184273
 20
683.6621943769222
 30
0.0
 10
911.2626398531893
 20
683.5857078280687
 30
0.0
  0
SPLINE
  5
9D
330
1F
100
AcDbEntity
  8
0
  6
Continuous
 62
     7
370
    25
100
AcDbSpline
210
0.0
220
0.0
230
1.0
 70
     8
 71
     3
 72
    15
 73
    11
 74
     0
 42
0.00000001
 43
0.00000001
 40
0.0
 40
0.0
 40
0.0
 40
0.0
 40
0.1305691070873114
 40
0.2565806086940824
 40
0.380551616803684
 40
0.5036229172007121
 40
0.6257393231697926
 40
0.7475485819596293
 40
0.871766118564872
 40
1.0
 40
1.0
 40
1.0
 40
1.0
 10
910.6472552378048
 20
687.3325026998635
 30
0.0
 10
910.6447564527932
 20
687.2441540011711
 30
0.0
 10
910.6398461045986
 20
687.0705404765516
 30
0.0
 10
910.5928912261236
 20
686.8166110839034
 30
0.0
 10
910.5193811268333
 20
686.5748940122979
 30
0.0
 10
910.4171977001728
 20
686.3462714170593
 30
0.0
 10
910.2843931374343
 20
686.1359088727263
 30
0.0
 10
910.1270026947712
 20
685.9421094074805
 30
0.0
 10
909.9371128605062
 20
685.7730784200635
 30
0.0
 10
909.7948425976766
 20
685.6785803570905
 30
0.0
 10
909.7225757506253
 20
685.6305796229404
 30
0.0
  0
SPLINE
  5
9E
330
1F
100
AcDbEntity
  8
0
  6
Continuous
 62
     7
370
    25
100
AcDbSpline
210
0.0
220
0.0
230
1.0
 70
     8
 71
     3
 72
    23
 73
    19
 74
     0
 42
0.00000001
 43
0.00000001
 40
0.0
 40
0.0
 40
0.0
 40
0.0
 40
0.0625940971873305
 40
0.1213229386347483
 40
0.176680142197767
 40
0.2283650957096747
 40
0.2768684458368066
 40
0.3218791276660452
 40
0.364098625109891
 40
0.4033556962427006
 40
0.4779679481633697
 40
0.5505354613647763
 40
0.6235844567403221
 40
0.6981748822642048
 40
0.7733536703408743
 40
0.8472811254977322
 40
0.9228183395566671
 40
1.0
 40
1.0
 40
1.0
 40
1.0
 10
908.1055885711381
 20
689.3148744947354
 30
0.0
 10
908.1819965212816
 20
689.3144727795312
 30
0.0
 10
908.3300941449078
 20
689.313694155488
 30
0.0
 10
908.5454528690877
 20
689.3016184271519
 30
0.0
 10
908.7471644362661
 20
689.2851528960008
 30
0.0
 10
908.9352873444959
 20
689.2590269699568
 30
0.0
 10
909.109734664247
 20
689.2275029079103
 30
0.0
 10
909.2710321207906
 20
689.1893273282755
 30
0.0
 10
909.418666800261
 20
689.1435522113405
 30
0.0
 10
909.594924483475
 20
689.0707607113807
 30
0.0
 10
909.7958859940552
 20
688.9625934694384
 30
0.0
 10
910.0134823202335
 20
688.8027567490977
 30
0.0
 10
910.1995491530548
 20
688.6072539762511
 30
0.0
 10
910.3599750210341
 20
688.3867221924241
 30
0.0
 10
910.4875204372884
 20
688.1441261427076
 30
0.0
 10
910.5797931168671
 20
687.8852479969303
 30
0.0
 10
910.6382111176869
 20
687.6134268725428
 30
0.0
 10
910.6442189673231
 20
687.4268138945339
 30
0.0
 10
910.6472552378048
 20
687.3325026998635
 30
0.0
  0
LINE
  5
9F
330
1F
100
AcDbEntity
  8
0
  6
Continuous
 62
     7
370
    25
100
AcDbLine
 10
906.5446911352
 20
689.3148744947
 30
0.0
 11
908.1055885711
 21
689.3148744947
 31
0.0
  0
LINE
  5
A0
330
1F
100
AcDbEntity
  8
0
  6
Continuous
 62
     7
370
    25
100
AcDbLine
 10
906.5446911352
 20
681.3148744947
 30
0.0
 11
906.5446911352
 21
689.3148744947
 31
0.0
  0
LINE
  5
A1
330
1F
100
AcDbEntity
  8
0
  6
Continuous
 62
     7
370
    25
100
AcDbLine
 10
908.7081526737
 20
681.3148744947
 30
0.0
 11
906.5446911352
 21
681.3148744947
 31
0.0
  0
LINE
  5
A2
330
1F
100
AcDbEntity
  8
0
  6
Continuous
 62
     7
370
    25
100
AcDbLine
 10
946.3395629301
 20
685.1754514178
 30
0.0
 11
946.3395629301
 21
681.3148744947
 31
0.0
  0
LINE
  5
A3
330
1F
100
AcDbEntity
  8
0
  6
Continuous
 62
     7
370
    25
100
AcDbLine
 10
950.0494988275
 20
681.3148744947
 30
0.0
 11
946.3395629301
 21
685.1754514178
 31
0.0
  0
LINE
  5
A4
330
1F
100
AcDbEntity
  8
0
  6
Continuous
 62
     7
370
    25
100
AcDbLine
 10
951.0062295968
 20
681.3148744947
 30
0.0
 11
950.0494988275
 21
681.3148744947
 31
0.0
  0
LINE
  5
A5
330
1F
100
AcDbEntity
  8
0
  6
Continuous
 62
     7
370
    25
100
AcDbLine
 10
946.7674475455
 20
685.725130905
 30
0.0
 11
951.0062295968
 21
681.3148744947
 31
0.0
  0
LINE
  5
A6
330
1F
100
AcDbEntity
  8
0
  6
Continuous
 62
     7
370
    25
100
AcDbLine
 10
950.6985372891
 20
689.3148744947
 30
0.0
 11
946.7674475455
 21
685.725130905
 31
0.0
  0
LINE
  5
A7
330
1F
100
AcDbEntity
  8
0
  6
Continuous
 62
     7
370
    25
100
AcDbLine
 10
949.6744988275
 20
689.3148744947
 30
0.0
 11
950.6985372891
 21
689.3148744947
 31
0.0
  0
LINE
  5
A8
330
1F
100
AcDbEntity
  8
0
  6
Continuous
 62
     7
370
    25
100
AcDbLine
 10
946.3395629301
 20
686.2684001358
 30
0.0
 11
949.6744988275
 21
689.3148744947
 31
0.0
  0
LINE
  5
A9
330
1F
100
AcDbEntity
  8
0
  6
Continuous
 62
     7
370
    25
100
AcDbLine
 10
946.3395629301
 20
689.3148744947
 30
0.0
 11
946.3395629301
 21
686.2684001358
 31
0.0
  0
LINE
  5
AA
330
1F
100
AcDbEntity
  8
0
  6
Continuous
 62
     7
370
    25
100
AcDbLine
 10
945.6216142122
 20
689.3148744947
 30
0.0
 11
946.3395629301
 21
689.3148744947
 31
0.0
  0
LINE
  5
AB
330
1F
100
AcDbEntity
  8
0
  6
Continuous
 62
     7
370
    25
100
AcDbLine
 10
945.6216142122
 20
681.3148744947
 30
0.0
 11
945.6216142122
 21
689.3148744947
 31
0.0
  0
LINE
  5
AC
330
1F
100
AcDbEntity
  8
0
  6
Continuous
 62
     7
370
    25
100
AcDbLine
 10
946.3395629301
 20
681.3148744947
 30
0.0
 11
945.6216142122
 21
681.3148744947
 31
0.0
  0
ARC
  5
AD
330
1F
100
AcDbEntity
  8
0
  6
Continuous
 62
     7
370
    25
100
AcDbCircle
 10
863.4872798434
 20
723.0261044578
 30
0.0
 40
3.0
100
AcDbArc
 50
0.0
 51
35.4309446873
  0
ARC
  5
AE
330
1F
100
AcDbEntity
  8
0
  6
Continuous
 62
     7
370
    25
100
AcDbCircle
 10
951.4872798434
 20
785.6360078278
 30
0.0
 40
105.0000000000001
100
AcDbArc
 50
324.5690553127
 51
215.4309446873
  0
ARC
  5
AF
330
1F
100
AcDbEntity
  8
0
  6
Continuous
 62
     7
370
    25
100
AcDbCircle
 10
1039.4872798434
 20
723.0261044578
 30
0.0
 40
3.0
100
AcDbArc
 50
144.5690553127
 51
180.0
  0
LINE
  5
B0
330
1F
100
AcDbEntity
  8
0
  6
Continuous
 62
     7
370
    25
100
AcDbLine
 10
1036.4872798434
 20
673.5360078278
 30
0.0
 11
1036.4872798434
 21
723.0261044578
 31
0.0
  0
ARC
  5
B1
330
1F
100
AcDbEntity
  8
0
  6
Continuous
 62
     7
370
    25
100
AcDbCircle
 10
1033.4872798434
 20
673.5360078278
 30
0.0
 40
3.0
100
AcDbArc
 50
270.0
 51
0.0
  0
LINE
  5
B2
330
1F
100
AcDbEntity
  8
0
  6
Continuous
 62
     7
370
    25
100
AcDbLine
 10
869.4872798434
 20
670.5360078278
 30
0.0
 11
1033.4872798434
 21
670.5360078278
 31
0.0
  0
ARC
  5
B3
330
1F
100
AcDbEntity
  8
0
  6
Continuous
 62
     7
370
    25
100
AcDbCircle
 10
869.4872798434
 20
673.5360078278
 30
0.0
 40
3.0
100
AcDbArc
 50
180.0
 51
270.0
  0
LINE
  5
B4
330
1F
100
AcDbEntity
  8
0
  6
Continuous
 62
     7
370
    25
100
AcDbLine
 10
866.4872798434
 20
723.0261044578
 30
0.0
 11
866.4872798434
 21
673.5360078278
 31
0.0
  0
CIRCLE
  5
B5
330
1F
100
AcDbEntity
  8
0
  6
Continuous
 62
     7
370
    25
100
AcDbCircle
 10
984.0153715945
 20
864.1657680912
 30
0.0
 40
11.5
  0
CIRCLE
  5
B6
330
1F
100
AcDbEntity
  8
0
  6
Continuous
 62
     7
370
    25
100
AcDbCircle
 10
1030.0170401069
 20
818.1640995788
 30
0.0
 40
11.50000000000009
  0
CIRCLE
  5
B7
330
1F
100
AcDbEntity
  8
0
  6
Continuous
 62
     7
370
    25
100
AcDbCircle
 10
1030.0170401069
 20
753.1079160768
 30
0.0
 40
11.5
  0
CIRCLE
  5
B8
330
1F
100
AcDbEntity
  8
0
  6
Continuous
 62
     7
370
    25
100
AcDbCircle
 10
984.0153715945
 20
707.1062475643
 30
0.0
 40
11.49999999999993
  0
CIRCLE
  5
B9
330
1F
100
AcDbEntity
  8
0
  6
Continuous
 62
     7
370
    25
100
AcDbCircle
 10
918.9591880924
 20
707.1062475643
 30
0.0
 40
11.50000000000011
  0
CIRCLE
  5
BA
330
1F
100
AcDbEntity
  8
0
  6
Continuous
 62
     7
370
    25
100
AcDbCircle
 10
872.95751958
 20
753.1079160768
 30
0.0
 40
11.50000000000009
  0
CIRCLE
  5
BB
330
1F
100
AcDbEntity
  8
0
  6
Continuous
 62
     7
370
    25
100
AcDbCircle
 10
872.95751958
 20
818.1640995788
 30
0.0
 40
11.5
  0
CIRCLE
  5
BC
330
1F
100
AcDbEntity
  8
0
  6
Continuous
 62
     7
370
    25
100
AcDbCircle
 10
918.9591880924
 20
864.1657680912
 30
0.0
 40
11.50000000000001
  0
CIRCLE
  5
BD
330
1F
100
AcDbEntity
  8
0
  6
Continuous
 62
     7
370
    25
100
AcDbCircle
 10
951.4872798434
 20
785.6360078278
 30
0.0
 40
57.70000000000005
  0
SPLINE
  5
BE
330
1F
100
AcDbEntity
  8
0
  6
Continuous
 62
     7
370
    25
100
AcDbSpline
210
0.0
220
0.0
230
1.0
 70
     8
 71
     3
 72
    31
 73
    27
 74
     0
 42
0.00000001
 43
0.00000001
 40
0.0
 40
0.0
 40
0.0
 40
0.0
 40
0.0337881161627101
 40
0.0671939323738797
 40
0.0998624108568243
 40
0.1325666121262585
 40
0.1651511732547859
 40
0.197913187355792
 40
0.2313190035669613
 40
0.2650832782673722
 40
0.2992553087581143
 40
0.3343985665049789
 40
0.3699428235093069
 40
0.4062835607000597
 40
0.4440638196985086
 40
0.4829977068727742
 40
0.5233544466133038
 40
0.5655365896041497
 40
0.6096129240658182
 40
0.6563908113764167
 40
0.7058854949364558
 40
0.7583245002617313
 40
0.8138317829411499
 40
0.8727945590393889
 40
0.9347222295400733
 40
1.0
 40
1.0
 40
1.0
 40
1.0
 10
941.4244988275483
 20
689.5200026998635
 30
0.0
 10
941.4881227783696
 20
689.5188876937477
 30
0.0
 10
941.6146507987027
 20
689.5166702973952
 30
0.0
 10
941.8017145135506
 20
689.4953584287447
 30
0.0
 10
941.9844566431839
 20
689.4599958616659
 30
0.0
 10
942.1620981030775
 20
689.4098907769055
 30
0.0
 10
942.3360980721467
 20
689.3477292302555
 30
0.0
 10
942.5050955753368
 20
689.2698158197202
 30
0.0
 10
942.6701403333757
 20
689.17912126579
 30
0.0
 10
942.8286095619926
 20
689.0725524033749
 30
0.0
 10
942.982242968498
 20
688.953735772068
 30
0.0
 10
943.1272668838628
 20
688.8194211005174
 30
0.0
 10
943.2636945087712
 20
688.670964599332
 30
0.0
 10
943.3932380639399
 20
688.509954624734
 30
0.0
 10
943.5122222861096
 20
688.3333030022573
 30
0.0
 10
943.6255329883619
 20
688.144082179825
 30
0.0
 10
943.7269547847086
 20
687.9389830602962
 30
0.0
 10
943.8246340422597
 20
687.7214277052309
 30
0.0
 10
943.9089471548066
 20
687.4853964851014
 30
0.0
 10
943.9849842868575
 20
687.2322198896316
 30
0.0
 10
944.0464219293145
 20
686.9589074625381
 30
0.0
 10
944.0975974089445
 20
686.6668931875779
 30
0.0
 10
944.1372428853916
 20
686.3551046544575
 30
0.0
 10
944.1661174958568
 20
686.024210219002
 30
0.0
 10
944.1813702616657
 20
685.6739921832518
 30
0.0
 10
944.1842427215666
 20
685.4345456708468
 30
0.0
 10
944.1857167762663
 20
685.3116693665302
 30
0.0
  0
SPLINE
  5
BF
330
1F
100
AcDbEntity
  8
0
  6
Continuous
 62
     7
370
    25
100
AcDbSpline
210
0.0
220
0.0
230
1.0
 70
     8
 71
     3
 72
    31
 73
    27
 74
     0
 42
0.00000001
 43
0.00000001
 40
0.0
 40
0.0
 40
0.0
 40
0.0
 40
0.0685946222587427
 40
0.1332460424433001
 40
0.1943125864682571
 40
0.2512792231169661
 40
0.3045134392563468
 40
0.354234906653326
 40
0.4004805887739902
 40
0.4434107549384917
 40
0.4840148686163453
 40
0.5232523007732024
 40
0.5610423727283604
 40
0.5979002393643995
 40
0.633518488856196
 40
0.6683143511696525
 40
0.7024956712863808
 40
0.7366853535134578
 40
0.7702931693607887
 40
0.8034372550192488
 40
0.8359129516660292
 40
0.8684602457892902
 40
0.9008465382431821
 40
0.9334665246307076
 40
0.9662575752981226
 40
1.0
 40
1.0
 40
1.0
 40
1.0
 10
938.7498193403688
 20
685.3116693665302
 30
0.0
 10
938.7505690961574
 20
685.4398919670657
 30
0.0
 10
938.7520255075833
 20
685.6889662167742
 30
0.0
 10
938.7682276125942
 20
686.0519025414983
 30
0.0
 10
938.7951426807385
 20
686.3923832020587
 30
0.0
 10
938.8320281043963
 20
686.7104244958608
 30
0.0
 10
938.876914916336
 20
687.0061085290442
 30
0.0
 10
938.9368360285674
 20
687.2786451167842
 30
0.0
 10
939.0049795774017
 20
687.5292956461856
 30
0.0
 10
939.0839565963971
 20
687.7588774712735
 30
0.0
 10
939.1730715427248
 20
687.9704836496098
 30
0.0
 10
939.270064138661
 20
688.1680269668528
 30
0.0
 10
939.3787836687719
 20
688.3512085264865
 30
0.0
 10
939.4930166126053
 20
688.5229520474466
 30
0.0
 10
939.6173870620404
 20
688.6804462069717
 30
0.0
 10
939.7483557259654
 20
688.8259151498713
 30
0.0
 10
939.8910343002904
 20
688.9559968652171
 30
0.0
 10
940.0405726049154
 20
689.0745026992402
 30
0.0
 10
940.198324523525
 20
689.178387205919
 30
0.0
 10
940.3597934747095
 20
689.2698906084693
 30
0.0
 10
940.526090859523
 20
689.3480617336295
 30
0.0
 10
940.6976707061468
 20
689.4095255870227
 30
0.0
 10
940.8729908384662
 20
689.4602932367887
 30
0.0
 10
941.0526641337606
 20
689.4950108314094
 30
0.0
 10
941.2369872513293
 20
689.516855193671
 30
0.0
 10
941.3614019594393
 20
689.518943577077
 30
0.0
 10
941.4244988275483
 20
689.5200026998635
 30
0.0
  0
SPLINE
  5
C0
330
1F
100
AcDbEntity
  8
0
  6
Continuous
 62
     7
370
    25
100
AcDbSpline
210
0.0
220
0.0
230
1.0
 70
     8
 71
     3
 72
    31
 73
    27
 74
     0
 42
0.00000001
 43
0.00000001
 40
0.0
 40
0.0
 40
0.0
 40
0.0
 40
0.0337871463469916
 40
0.0666216577242942
 40
0.0992848780959728
 40
0.1313611650426511
 40
0.1635851875953437
 40
0.1961039269870691
 40
0.2289022543238179
 40
0.2621580559050076
 40
0.2959912222583163
 40
0.3302178457247996
 40
0.3650598258919542
 40
0.4009507373401082
 40
0.4376203820767382
 40
0.4757075294370929
 40
0.51538069162505
 40
0.5564135414931652
 40
0.5997648298727324
 40
0.6464241555840877
 40
0.6964314445175678
 40
0.7497815178015586
 40
0.8065733069755331
 40
0.8674355315654004
 40
0.9318867532508747
 40
0.9999999999999999
 40
0.9999999999999999
 40
0.9999999999999999
 40
0.9999999999999999
 10
941.4244988275483
 20
681.1097462896072
 30
0.0
 10
941.3614037098678
 20
681.1108122449416
 30
0.0
 10
941.2369924532609
 20
681.1129141007985
 30
0.0
 10
941.0526440522564
 20
681.1346597727716
 30
0.0
 10
940.873712752965
 20
681.1696209229711
 30
0.0
 10
940.6993156008791
 20
681.2185731608937
 30
0.0
 10
940.5285578521164
 20
681.2784927867575
 30
0.0
 10
940.3637663397603
 20
681.3565583492787
 30
0.0
 10
940.2031087770388
 20
681.4464647926067
 30
0.0
 10
940.0470137918546
 20
681.5488543273226
 30
0.0
 10
939.8984145666207
 20
681.6661610316162
 30
0.0
 10
939.7564748973319
 20
681.7959079771853
 30
0.0
 10
939.6247605679674
 20
681.9413329172936
 30
0.0
 10
939.5021683494135
 20
682.1001395986826
 30
0.0
 10
939.3856561478233
 20
682.2708670097289
 30
0.0
 10
939.2784804373792
 20
682.4558461481184
 30
0.0
 10
939.1793470566523
 20
682.6543435435234
 30
0.0
 10
939.0887333636957
 20
682.8676416250664
 30
0.0
 10
939.0083935613759
 20
683.0988528887459
 30
0.0
 10
938.9374273714022
 20
683.3506224396087
 30
0.0
 10
938.8813950114708
 20
683.6251724650123
 30
0.0
 10
938.8334339707098
 20
683.9202978755388
 30
0.0
 10
938.7947496666105
 20
684.237266859278
 30
0.0
 10
938.7683397801685
 20
684.5762514951336
 30
0.0
 10
938.7520167743725
 20
684.9370405441077
 30
0.0
 10
938.7505651848408
 20
685.1845143139743
 30
0.0
 10
938.7498193403688
 20
685.3116693665302
 30
0.0
  0
SPLINE
  5
C1
330
1F
100
AcDbEntity
  8
0
  6
Continuous
 62
     7
370
    25
100
AcDbSpline
210
0.0
220
0.0
230
1.0
 70
     8
 71
     3
 72
    31
 73
    27
 74
     0
 42
0.00000001
 43
0.00000001
 40
0.0
 40
0.0
 40
0.0
 40
0.0
 40
0.0650632896172783
 40
0.1267731664665233
 40
0.1855157632260795
 40
0.2407646791677158
 40
0.2929797960235991
 40
0.3422503727797678
 40
0.3889192861856594
 40
0.4327756640583106
 40
0.4746284326311176
 40
0.5147746906379526
 40
0.5536058934984418
 40
0.591426406431174
 40
0.6280281199460681
 40
0.6638036341103205
 40
0.6989843361316638
 40
0.7335914893067057
 40
0.7676284691511398
 40
0.8012083477865926
 40
0.8342638397266235
 40
0.8669806947287766
 40
0.8997197415181607
 40
0.9327019124985384
 40
0.9661758834327498
 40
1.0
 40
1.0
 40
1.0
 40
1.0
 10
944.1857167762663
 20
685.3116693665302
 30
0.0
 10
944.184227440166
 20
685.1893290055224
 30
0.0
 10
944.181325529511
 20
684.9509538012737
 30
0.0
 10
944.1662884854705
 20
684.6023115719714
 30
0.0
 10
944.136668757062
 20
684.2731731872889
 30
0.0
 10
944.0996173552135
 20
683.9627492730975
 30
0.0
 10
944.048300868417
 20
683.6723318586222
 30
0.0
 10
943.9852033455569
 20
683.4009159764098
 30
0.0
 10
943.9151454648214
 20
683.1473295268889
 30
0.0
 10
943.8286659354276
 20
682.9136499574947
 30
0.0
 10
943.7340128832053
 20
682.6966174480896
 30
0.0
 10
943.6310295776617
 20
682.4939496804787
 30
0.0
 10
943.5206985466087
 20
682.3038552972109
 30
0.0
 10
943.4004957008875
 20
682.1278558756541
 30
0.0
 10
943.2723736135813
 20
681.9647046594874
 30
0.0
 10
943.1335900963402
 20
681.8172815219983
 30
0.0
 10
942.9880573303928
 20
681.6820342717967
 30
0.0
 10
942.8339718084867
 20
681.5616876947405
 30
0.0
 10
942.673031119956
 20
681.4563509984288
 30
0.0
 10
942.5085532298419
 20
681.3621479118281
 30
0.0
 10
942.3376197821912
 20
681.2861874659998
 30
0.0
 10
942.1641044616664
 20
681.2209645151935
 30
0.0
 10
941.9855253391181
 20
681.1711349108823
 30
0.0
 10
941.8021050175421
 20
681.1366803839782
 30
0.0
 10
941.6147764782766
 20
681.1125161589387
 30
0.0
 10
941.4881443295194
 20
681.1106727763665
 30
0.0
 10
941.4244988275483
 20
681.1097462896072
 30
0.0
  0
SPLINE
  5
C2
330
1F
100
AcDbEntity
  8
0
  6
Continuous
 62
     7
370
    25
100
AcDbSpline
210
0.0
220
0.0
230
1.0
 70
     8
 71
     3
 72
    19
 73
    15
 74
     0
 42
0.00000001
 43
0.00000001
 40
0.0
 40
0.0
 40
0.0
 40
0.0
 40
0.1101655532114423
 40
0.2157872561749706
 40
0.318027434909417
 40
0.4175739541655093
 40
0.5116504876474446
 40
0.5961620971027616
 40
0.6729345334849961
 40
0.7436695573498568
 40
0.8106770010653599
 40
0.8740589623137343
 40
0.9366963019193723
 40
1.0
 40
1.0
 40
1.0
 40
1.0
 10
934.8523834429329
 20
686.1353873152482
 30
0.0
 10
934.9513575360078
 20
686.137066866611
 30
0.0
 10
935.1452234709978
 20
686.1403566951429
 30
0.0
 10
935.4284104533061
 20
686.1801464331887
 30
0.0
 10
935.6992065953295
 20
686.2351878687447
 30
0.0
 10
935.9516105770459
 20
686.3194968796483
 30
0.0
 10
936.1816647789905
 20
686.4174175581838
 30
0.0
 10
936.381252440892
 20
686.5313654656484
 30
0.0
 10
936.5475773489467
 20
686.658027749641
 30
0.0
 10
936.679831226641
 20
686.7993594281377
 30
0.0
 10
936.7793266064068
 20
686.9509366795282
 30
0.0
 10
936.8520735719521
 20
687.1089176113853
 30
0.0
 10
936.8950457462266
 20
687.2746868935255
 30
0.0
 10
936.9007821277531
 20
687.3878175630822
 30
0.0
 10
936.903665494215
 20
687.444682187043
 30
0.0
  0
LINE
  5
C3
330
1F
100
AcDbEntity
  8
0
  6
Continuous
 62
     7
370
    25
100
AcDbLine
 10
934.8523834429
 20
685.3148744947
 30
0.0
 11
934.8523834429
 21
686.1353873152
 31
0.0
  0
SPLINE
  5
C4
330
1F
100
AcDbEntity
  8
0
  6
Continuous
 62
     7
370
    25
100
AcDbSpline
210
0.0
220
0.0
230
1.0
 70
     8
 71
     3
 72
    23
 73
    19
 74
     0
 42
0.00000001
 43
0.00000001
 40
0.0
 40
0.0
 40
0.0
 40
0.0
 40
0.0669091856056583
 40
0.1334854404229663
 40
0.2010351165700833
 40
0.2712343400187657
 40
0.3428799841615853
 40
0.41383612961002
 40
0.4859766219744224
 40
0.5602295572555492
 40
0.5998841807523934
 40
0.6440548396425974
 40
0.6918919315842555
 40
0.7446875244737721
 40
0.8014917751698765
 40
0.8628576982200935
 40
0.9293283793947436
 40
1.0
 40
1.0
 40
1.0
 40
1.0
 10
937.3139219044714
 20
683.6225668024277
 30
0.0
 10
937.3104240724124
 20
683.6971070055592
 30
0.0
 10
937.3034458130196
 20
683.8458165101536
 30
0.0
 10
937.2501690600106
 20
684.0645995370621
 30
0.0
 10
937.1625373703936
 20
684.2753959083515
 30
0.0
 10
937.0398573445466
 20
684.4746091427697
 30
0.0
 10
936.8905185362142
 20
684.6592397748484
 30
0.0
 10
936.7159701776795
 20
684.8239745919411
 30
0.0
 10
936.5147627985403
 20
684.9599062286751
 30
0.0
 10
936.3295745264645
 20
685.0538231575863
 30
0.0
 10
936.1655398830085
 20
685.1179079008634
 30
0.0
 10
936.0251618614367
 20
685.1605935338905
 30
0.0
 10
935.8680039108688
 20
685.1967390325786
 30
0.0
 10
935.6959665420069
 20
685.230367081778
 30
0.0
 10
935.5077534758516
 20
685.258987306125
 30
0.0
 10
935.3035696176157
 20
685.2828543135386
 30
0.0
 10
935.0833735910903
 20
685.3019515499832
 30
0.0
 10
934.930936640557
 20
685.3104797677694
 30
0.0
 10
934.8523834429329
 20
685.3148744947354
 30
0.0
  0
SPLINE
  5
C5
330
1F
100
AcDbEntity
  8
0
  6
Continuous
 62
     7
370
    25
100
AcDbSpline
210
0.0
220
0.0
230
1.0
 70
     8
 71
     3
 72
    23
 73
    19
 74
     0
 42
0.00000001
 43
0.00000001
 40
0.0
 40
0.0
 40
0.0
 40
0.0
 40
0.0760717369555653
 40
0.1487517145745113
 40
0.2184027938458459
 40
0.2857595810623855
 40
0.3505980236748801
 40
0.4149640445981299
 40
0.4780693385717844
 40
0.5417606760069072
 40
0.6043498585387185
 40
0.6640750210708968
 40
0.7214636230802003
 40
0.7775871282364453
 40
0.8326444469271318
 40
0.8878435110684629
 40
0.9434603426519486
 40
0.9999999999999999
 40
0.9999999999999999
 40
0.9999999999999999
 40
0.9999999999999999
 10
935.2770629301125
 20
681.93025911012
 30
0.0
 10
935.3519280790229
 20
681.931666893542
 30
0.0
 10
935.4983204148364
 20
681.9344196924941
 30
0.0
 10
935.711931521878
 20
681.9597355938567
 30
0.0
 10
935.9151485448856
 20
681.9966051103012
 30
0.0
 10
936.1057152323572
 20
682.0535490710281
 30
0.0
 10
936.2861278205881
 20
682.1239053029296
 30
0.0
 10
936.4538573054407
 20
682.2122445153562
 30
0.0
 10
936.6111055481687
 20
682.3158895933842
 30
0.0
 10
936.7558584748575
 20
682.433693384564
 30
0.0
 10
936.8860196348869
 20
682.5626568018918
 30
0.0
 10
937.0006242365816
 20
682.6975438215728
 30
0.0
 10
937.0980520342488
 20
682.837785717595
 30
0.0
 10
937.1766430701093
 20
682.9841585654045
 30
0.0
 10
937.2387014707964
 20
683.1360562314163
 30
0.0
 10
937.2809487863824
 20
683.2939049842264
 30
0.0
 10
937.3103236780966
 20
683.4564130212641
 30
0.0
 10
937.3127159345024
 20
683.5668792359879
 30
0.0
 10
937.3139219044714
 20
683.6225668024277
 30
0.0
  0
SPLINE
  5
C6
330
1F
100
AcDbEntity
  8
0
  6
Continuous
 62
     7
370
    25
100
AcDbSpline
210
0.0
220
0.0
230
1.0
 70
     8
 71
     3
 72
    15
 73
    11
 74
     0
 42
0.00000001
 43
0.00000001
 40
0.0
 40
0.0
 40
0.0
 40
0.0
 40
0.1182713048357283
 40
0.2361775330837641
 40
0.3556629329485117
 40
0.4759041646706826
 40
0.6001273417110856
 40
0.7286081161551207
 40
0.8613134756739449
 40
1.0
 40
1.0
 40
1.0
 40
1.0
 10
933.940524468574
 20
682.3629514178124
 30
0.0
 10
933.9853166434887
 20
682.3284180832169
 30
0.0
 10
934.0747627300731
 20
682.2594580105666
 30
0.0
 10
934.2205186868695
 20
682.1714542881945
 30
0.0
 10
934.3738098550655
 20
682.0952005160008
 30
0.0
 10
934.5379576818561
 20
682.0369520686494
 30
0.0
 10
934.7094200143224
 20
681.9876317011311
 30
0.0
 10
934.8909682777095
 20
681.9553562288285
 30
0.0
 10
935.0810007739649
 20
681.9332118371868
 30
0.0
 10
935.2107556619262
 20
681.9312577080613
 30
0.0
 10
935.2770629301125
 20
681.93025911012
 30
0.0
  0
SPLINE
  5
C7
330
1F
100
AcDbEntity
  8
0
  6
Continuous
 62
     7
370
    25
100
AcDbSpline
210
0.0
220
0.0
230
1.0
 70
     8
 71
     3
 72
    15
 73
    11
 74
     0
 42
0.00000001
 43
0.00000001
 40
0.0
 40
0.0
 40
0.0
 40
0.0
 40
0.149770386031971
 40
0.2913164099952446
 40
0.4259663731047451
 40
0.5521595739695317
 40
0.6715274135235938
 40
0.7861216286916615
 40
0.8953250730704455
 40
1.0
 40
1.0
 40
1.0
 40
1.0
 10
933.3139219044714
 20
683.4687206485816
 30
0.0
 10
933.3326265706206
 20
683.4071229039675
 30
0.0
 10
933.3690087709815
 20
683.287309940269
 30
0.0
 10
933.4309385950618
 20
683.1148749558693
 30
0.0
 10
933.5014946455086
 20
682.9567994056412
 30
0.0
 10
933.5771850652482
 20
682.811923698263
 30
0.0
 10
933.6566786561572
 20
682.6788210640591
 30
0.0
 10
933.7456270564691
 20
682.5610110776955
 30
0.0
 10
933.8374422453771
 20
682.4533191869302
 30
0.0
 10
933.9066521958945
 20
682.3926457882098
 30
0.0
 10
933.940524468574
 20
682.3629514178124
 30
0.0
  0
LINE
  5
C8
330
1F
100
AcDbEntity
  8
0
  6
Continuous
 62
     7
370
    25
100
AcDbLine
 10
932.5959731865
 20
683.4687206486
 30
0.0
 11
933.3139219045
 21
683.4687206486
 31
0.0
  0
SPLINE
  5
C9
330
1F
100
AcDbEntity
  8
0
  6
Continuous
 62
     7
370
    25
100
AcDbSpline
210
0.0
220
0.0
230
1.0
 70
     8
 71
     3
 72
    23
 73
    19
 74
     0
 42
0.00000001
 43
0.00000001
 40
0.0
 40
0.0
 40
0.0
 40
0.0
 40
0.0655411703374024
 40
0.1289631677825928
 40
0.1903771361885603
 40
0.2500923616690524
 40
0.3085484324592007
 40
0.3663979630552953
 40
0.4245421892666806
 40
0.4831699964229053
 40
0.5422433998311199
 40
0.6017393520173293
 40
0.6625060022496065
 40
0.7248555134488461
 40
0.7891278292811789
 40
0.8563463998785101
 40
0.9262952349869032
 40
1.0
 40
1.0
 40
1.0
 40
1.0
 10
935.2642424172919
 20
681.1097462896072
 30
0.0
 10
935.1787125880734
 20
681.1117307770551
 30
0.0
 10
935.010418405056
 20
681.1156355866032
 30
0.0
 10
934.7630046944587
 20
681.1423295321953
 30
0.0
 10
934.526840810197
 20
681.1910838298817
 30
0.0
 10
934.3016074436674
 20
681.2566913850043
 30
0.0
 10
934.0871045033393
 20
681.3398725097596
 30
0.0
 10
933.8839865486474
 20
681.4434581052369
 30
0.0
 10
933.6910039348871
 20
681.5653129670696
 30
0.0
 10
933.5099777608424
 20
681.7068754534846
 30
0.0
 10
933.3409296060853
 20
681.8652328015002
 30
0.0
 10
933.1883519507021
 20
682.0431962528548
 30
0.0
 10
933.0497009954059
 20
682.2374760332458
 30
0.0
 10
932.9286892497797
 20
682.4503287331286
 30
0.0
 10
932.8198047866578
 20
682.6790036069063
 30
0.0
 10
932.730248314321
 20
682.9264287460645
 30
0.0
 10
932.6514241574381
 20
683.1903922248964
 30
0.0
 10
932.6147762391613
 20
683.3743413452983
 30
0.0
 10
932.5959731865227
 20
683.4687206485816
 30
0.0
  0
SPLINE
  5
CA
330
1F
100
AcDbEntity
  8
0
  6
Continuous
 62
     7
370
    25
100
AcDbSpline
210
0.0
220
0.0
230
1.0
 70
     8
 71
     3
 72
    19
 73
    15
 74
     0
 42
0.00000001
 43
0.00000001
 40
0.0
 40
0.0
 40
0.0
 40
0.0
 40
0.079648251180228
 40
0.1589216764181113
 40
0.2396194947370306
 40
0.3226094298185592
 40
0.4060346366179232
 40
0.4876020954923867
 40
0.5696846265959309
 40
0.6530361450088333
 40
0.7374357177222877
 40
0.8224778158555095
 40
0.9097476551184072
 40
1.0
 40
1.0
 40
1.0
 40
1.0
 10
938.0318706224201
 20
683.6914770588379
 30
0.0
 10
938.0277688772352
 20
683.5794548389813
 30
0.0
 10
938.0195846897434
 20
683.3559375776243
 30
0.0
 10
937.9464325198974
 20
683.0257096424622
 30
0.0
 10
937.8330308268825
 20
682.7029084944024
 30
0.0
 10
937.6719864018137
 20
682.394166004698
 30
0.0
 10
937.4757178102058
 20
682.1052965624116
 30
0.0
 10
937.2422153549412
 20
681.8468364274679
 30
0.0
 10
936.9741321357178
 20
681.6246681889855
 30
0.0
 10
936.6751477954875
 20
681.4390448105744
 30
0.0
 10
936.3512229303807
 20
681.2906609884182
 30
0.0
 10
936.0047644343875
 20
681.187672547626
 30
0.0
 10
935.6407643110388
 20
681.1205959769488
 30
0.0
 10
935.3911476309189
 20
681.1134031337715
 30
0.0
 10
935.2642424172919
 20
681.1097462896072
 30
0.0
  0
SPLINE
  5
CB
330
1F
100
AcDbEntity
  8
0
  6
Continuous
 62
     7
370
    25
100
AcDbSpline
210
0.0
220
0.0
230
1.0
 70
     8
 71
     3
 72
    15
 73
    11
 74
     0
 42
0.00000001
 43
0.00000001
 40
0.0
 40
0.0
 40
0.0
 40
0.0
 40
0.1281355097972549
 40
0.2541727119019762
 40
0.3781116451390003
 40
0.5017122630072811
 40
0.6239863093684818
 40
0.74709561361774
 40
0.87287463665006
 40
1.0
 40
1.0
 40
1.0
 40
1.0
 10
937.554306519856
 20
685.1129514178123
 30
0.0
 10
937.5928010166622
 20
685.0602479855639
 30
0.0
 10
937.6691596362364
 20
684.9557041762616
 30
0.0
 10
937.7634122848118
 20
684.787620917098
 30
0.0
 10
937.8489188317975
 20
684.6176746558818
 30
0.0
 10
937.9155479045445
 20
684.441310299251
 30
0.0
 10
937.9671453144572
 20
684.2605719822266
 30
0.0
 10
938.0040276738625
 20
684.0751493626645
 30
0.0
 10
938.0269399958759
 20
683.8848910256947
 30
0.0
 10
938.0302212576232
 20
683.7561767851909
 30
0.0
 10
938.0318706224201
 20
683.6914770588379
 30
0.0
  0
SPLINE
  5
CC
330
1F
100
AcDbEntity
  8
0
  6
Continuous
 62
     7
370
    25
100
AcDbSpline
210
0.0
220
0.0
230
1.0
 70
     8
 71
     3
 72
    11
 73
     7
 74
     0
 42
0.00000001
 43
0.00000001
 40
0.0
 40
0.0
 40
0.0
 40
0.0
 40
0.2538796003266566
 40
0.5030089172783612
 40
0.7502910806899702
 40
1.0
 40
1.0
 40
1.0
 40
1.0
 10
936.6873193403688
 20
685.7956437255046
 30
0.0
 10
936.7724204936794
 20
685.7545507619812
 30
0.0
 10
936.9410304920044
 20
685.6731337160151
 30
0.0
 10
937.1708602737939
 20
685.5134634131185
 30
0.0
 10
937.379495417467
 20
685.3291060477383
 30
0.0
 10
937.49584677519
 20
685.1852371267929
 30
0.0
 10
937.554306519856
 20
685.1129514178123
 30
0.0
  0
SPLINE
  5
CD
330
1F
100
AcDbEntity
  8
0
  6
Continuous
 62
     7
370
    25
100
AcDbSpline
210
0.0
220
0.0
230
1.0
 70
     8
 71
     3
 72
    15
 73
    11
 74
     0
 42
0.00000001
 43
0.00000001
 40
0.0
 40
0.0
 40
0.0
 40
0.0
 40
0.1280675485958933
 40
0.250608318867666
 40
0.3706301659145066
 40
0.4900722467299484
 40
0.6103747641546199
 40
0.7343130699115245
 40
0.8632165042449879
 40
1.0
 40
1.0
 40
1.0
 40
1.0
 10
937.6216142121638
 20
687.4414770588379
 30
0.0
 10
937.6189545754847
 20
687.3568900995108
 30
0.0
 10
937.6137500792307
 20
687.1913665464524
 30
0.0
 10
937.5695587522312
 20
686.9497174101366
 30
0.0
 10
937.4951901513712
 20
686.72196518092
 30
0.0
 10
937.3921735511932
 20
686.5071510960664
 30
0.0
 10
937.2588214363583
 20
686.3066371764706
 30
0.0
 10
937.0972838434661
 20
686.1199722830753
 30
0.0
 10
936.9064206165507
 20
685.9463284930678
 30
0.0
 10
936.761783043926
 20
685.846855411981
 30
0.0
 10
936.6873193403688
 20
685.7956437255046
 30
0.0
  0
SPLINE
  5
CE
330
1F
100
AcDbEntity
  8
0
  6
Continuous
 62
     7
370
    25
100
AcDbSpline
210
0.0
220
0.0
230
1.0
 70
     8
 71
     3
 72
    19
 73
    15
 74
     0
 42
0.00000001
 43
0.00000001
 40
0.0
 40
0.0
 40
0.0
 40
0.0
 40
0.0902542493426766
 40
0.1785397915286838
 40
0.2660930338538193
 40
0.3546309779571726
 40
0.4418861533505622
 40
0.5257469151636476
 40
0.6081136336036352
 40
0.6901972728278845
 40
0.7708214843303354
 40
0.8483261812554104
 40
0.9240117400247415
 40
1.0
 40
1.0
 40
1.0
 40
1.0
 10
935.2850757506252
 20
689.5200026998635
 30
0.0
 10
935.3894934467969
 20
689.5168501735893
 30
0.0
 10
935.5960511860962
 20
689.5106138867898
 30
0.0
 10
935.899509579126
 20
689.453666603409
 30
0.0
 10
936.1921423085022
 20
689.3635520151709
 30
0.0
 10
936.4707463035109
 20
689.2390406388578
 30
0.0
 10
936.7295312923025
 20
689.0854696373445
 30
0.0
 10
936.9597854334387
 20
688.9026930958706
 30
0.0
 10
937.1583877438477
 20
688.694237549614
 30
0.0
 10
937.3250034642136
 20
688.4639916883143
 30
0.0
 10
937.4554606049078
 20
688.2179219525727
 30
0.0
 10
937.5516580300043
 20
687.9646644505217
 30
0.0
 10
937.610221872287
 20
687.7048199444899
 30
0.0
 10
937.6178117164246
 20
687.5293747349467
 30
0.0
 10
937.6216142121638
 20
687.4414770588379
 30
0.0
  0
SPLINE
  5
CF
330
1F
100
AcDbEntity
  8
0
  6
Continuous
 62
     7
370
    25
100
AcDbSpline
210
0.0
220
0.0
230
1.0
 70
     8
 71
     3
 72
    23
 73
    19
 74
     0
 42
0.00000001
 43
0.00000001
 40
0.0
 40
0.0
 40
0.0
 40
0.0
 40
0.0726253460834353
 40
0.1419766113262346
 40
0.2089849284189411
 40
0.2739568703644455
 40
0.3368893473968434
 40
0.3987449534945903
 40
0.4601158852788621
 40
0.5208249225900291
 40
0.5809944586324847
 40
0.6401519276014658
 40
0.6986224507562547
 40
0.7572710809271636
 40
0.8164266940046606
 40
0.8762540482034701
 40
0.9371652930625375
 40
1.0
 40
1.0
 40
1.0
 40
1.0
 10
932.903665494215
 20
687.4687206485816
 30
0.0
 10
932.9231158957716
 20
687.5492520405253
 30
0.0
 10
932.961139839902
 20
687.7066843248467
 30
0.0
 10
933.0404485792596
 20
687.9316152067835
 30
0.0
 10
933.1268468768473
 20
688.1444689699623
 30
0.0
 10
933.2305934015667
 20
688.3412599955517
 30
0.0
 10
933.3437562683692
 20
688.525943201798
 30
0.0
 10
933.4734082033084
 20
688.6943297720107
 30
0.0
 10
933.6135675691734
 20
688.8507022645069
 30
0.0
 10
933.7685960247203
 20
688.9894753789235
 30
0.0
 10
933.9311758227565
 20
689.1151387599674
 30
0.0
 10
934.1035978107581
 20
689.2222817481785
 30
0.0
 10
934.2823929962909
 20
689.3144512404402
 30
0.0
 10
934.4688001573163
 20
689.3903831990125
 30
0.0
 10
934.6633742640407
 20
689.4475843959636
 30
0.0
 10
934.8643562602027
 20
689.4890856658855
 30
0.0
 10
935.0722728318933
 20
689.5160367840898
 30
0.0
 10
935.2134101818322
 20
689.5186670997158
 30
0.0
 10
935.2850757506252
 20
689.5200026998635
 30
0.0
  0
LINE
  5
D0
330
1F
100
AcDbEntity
  8
0
  6
Continuous
 62
     7
370
    25
100
AcDbLine
 10
933.6216142122
 20
687.4687206486
 30
0.0
 11
932.9036654942
 21
687.4687206486
 31
0.0
  0
SPLINE
  5
D1
330
1F
100
AcDbEntity
  8
0
  6
Continuous
 62
     7
370
    25
100
AcDbSpline
210
0.0
220
0.0
230
1.0
 70
     8
 71
     3
 72
    19
 73
    15
 74
     0
 42
0.00000001
 43
0.00000001
 40
0.0
 40
0.0
 40
0.0
 40
0.0
 40
0.1227119423657784
 40
0.2396849640167735
 40
0.351815855256095
 40
0.4637661328620815
 40
0.52081779316083
 40
0.5794482914480037
 40
0.6406041451203144
 40
0.705297511805981
 40
0.7736338807131315
 40
0.8446693818863732
 40
0.9200565080211415
 40
1.0
 40
1.0
 40
1.0
 40
1.0
 10
935.2946911352407
 20
688.6994898793508
 30
0.0
 10
935.2036016083766
 20
688.6963096233436
 30
0.0
 10
935.0256825766363
 20
688.6900978436919
 30
0.0
 10
934.7691913379956
 20
688.6356909558059
 30
0.0
 10
934.5307471459944
 20
688.548883907821
 30
0.0
 10
934.3484873366473
 20
688.4452655776911
 30
0.0
 10
934.2138985957135
 20
688.342978871746
 30
0.0
 10
934.1177227369633
 20
688.2536477028975
 30
0.0
 10
934.0232758560378
 20
688.1543726773856
 30
0.0
 10
933.9367714518112
 20
688.0390392481797
 30
0.0
 10
933.8492880765549
 20
687.915458013458
 30
0.0
 10
933.7696433644894
 20
687.7773467413629
 30
0.0
 10
933.6922497822005
 20
687.6283081258157
 30
0.0
 10
933.6456153830723
 20
687.5229466754112
 30
0.0
 10
933.6216142121638
 20
687.4687206485816
 30
0.0
  0
SPLINE
  5
D2
330
1F
100
AcDbEntity
  8
0
  6
Continuous
 62
     7
370
    25
100
AcDbSpline
210
0.0
220
0.0
230
1.0
 70
     8
 71
     3
 72
    23
 73
    19
 74
     0
 42
0.00000001
 43
0.00000001
 40
0.0
 40
0.0
 40
0.0
 40
0.0
 40
0.0552745490875268
 40
0.109966093881982
 40
0.163247442851805
 40
0.2180761854823607
 40
0.2733008743735903
 40
0.3309093000114341
 40
0.3909945233652105
 40
0.4541759534308255
 40
0.5188615408488254
 40
0.5833105320111647
 40
0.6485166818638257
 40
0.7150308870971835
 40
0.7825020728543334
 40
0.8523226850768564
 40
0.9249284897844317
 40
1.0
 40
1.0
 40
1.0
 40
1.0
 10
936.903665494215
 20
687.444682187043
 30
0.0
 10
936.9027182691595
 20
687.486459890226
 30
0.0
 10
936.9008338098365
 20
687.5695746493011
 30
0.0
 10
936.8770686034742
 20
687.6910033777317
 30
0.0
 10
936.8413565097994
 20
687.808719825563
 30
0.0
 10
936.7922599856693
 20
687.9222233918581
 30
0.0
 10
936.7265452457683
 20
688.0307268750536
 30
0.0
 10
936.6479029908555
 20
688.1351553297741
 30
0.0
 10
936.5542616187881
 20
688.234912538931
 30
0.0
 10
936.4469577399112
 20
688.3278961264846
 30
0.0
 10
936.3317307571251
 20
688.41651152572
 30
0.0
 10
936.2054455570154
 20
688.4917426959586
 30
0.0
 10
936.0719098433882
 20
688.5560742664189
 30
0.0
 10
935.9309757751597
 20
688.6091245569422
 30
0.0
 10
935.7821859915748
 20
688.6490315014375
 30
0.0
 10
935.6262395740692
 20
688.6776848532131
 30
0.0
 10
935.4628391546123
 20
688.6955994925997
 30
0.0
 10
935.3513609100245
 20
688.6981787289618
 30
0.0
 10
935.2946911352407
 20
688.6994898793508
 30
0.0
  0
SPLINE
  5
D3
330
1F
100
AcDbEntity
  8
0
  6
Continuous
 62
     7
370
    25
100
AcDbSpline
210
0.0
220
0.0
230
1.0
 70
     8
 71
     3
 72
    19
 73
    15
 74
     0
 42
0.00000001
 43
0.00000001
 40
0.0
 40
0.0
 40
0.0
 40
0.0
 40
0.0969723103815145
 40
0.1877734389628681
 40
0.2723961390136929
 40
0.3513209973752901
 40
0.4243347744514652
 40
0.4919087840005268
 40
0.554233219796801
 40
0.6112676582441562
 40
0.7163478449915549
 40
0.8145400858216162
 40
0.9084954561491878
 40
1.0
 40
1.0
 40
1.0
 40
1.0
 10
929.7882808788304
 20
685.856541161402
 30
0.0
 10
929.8751058235331
 20
685.7933609110028
 30
0.0
 10
930.0432302952553
 20
685.6710211127103
 30
0.0
 10
930.2824476207674
 20
685.4872138440762
 30
0.0
 10
930.4993477535556
 20
685.3074475159063
 30
0.0
 10
930.6946922188588
 20
685.1328701282582
 30
0.0
 10
930.8704108667212
 20
684.9648059156783
 30
0.0
 10
931.0245542282636
 20
684.8012329320666
 30
0.0
 10
931.1586929261999
 20
684.64332305165
 30
0.0
 10
931.3031025683946
 20
684.4408714500702
 30
0.0
 10
931.4506632987271
 20
684.1922289717288
 30
0.0
 10
931.5773867442726
 20
683.887592997911
 30
0.0
 10
931.6572915384545
 20
683.5817728367751
 30
0.0
 10
931.6677407165845
 20
683.376225781975
 30
0.0
 10
931.6728962634458
 20
683.2748103921713
 30
0.0
  0
SPLINE
  5
D4
330
1F
100
AcDbEntity
  8
0
  6
Continuous
 62
     7
370
    25
100
AcDbSpline
210
0.0
220
0.0
230
1.0
 70
     8
 71
     3
 72
    15
 73
    11
 74
     0
 42
0.00000001
 43
0.00000001
 40
0.0
 40
0.0
 40
0.0
 40
0.0
 40
0.0525942815291342
 40
0.1249519739750351
 40
0.2180938989285908
 40
0.3335024107325172
 40
0.4687891785044413
 40
0.6249375859645959
 40
0.8016830479282234
 40
0.9999999999999999
 40
0.9999999999999999
 40
0.9999999999999999
 40
0.9999999999999999
 10
928.71296036601
 20
686.6530155203764
 30
0.0
 10
928.7304720743704
 20
686.6373880327974
 30
0.0
 10
928.772075884969
 20
686.6002606994733
 30
0.0
 10
928.8481351438024
 20
686.5394783437162
 30
0.0
 10
928.9485758254709
 20
686.4645005784699
 30
0.0
 10
929.0707751424467
 20
686.3717295693847
 30
0.0
 10
929.2169862549655
 20
686.2641147988309
 30
0.0
 10
929.387225240439
 20
686.1430322567422
 30
0.0
 10
929.5795944583474
 20
686.0045512075836
 30
0.0
 10
929.7161016946893
 20
685.9077339719038
 30
0.0
 10
929.7882808788304
 20
685.856541161402
 30
0.0
  0
SPLINE
  5
D5
330
1F
100
AcDbEntity
  8
0
  6
Continuous
 62
     7
370
    25
100
AcDbSpline
210
0.0
220
0.0
230
1.0
 70
     8
 71
     3
 72
    15
 73
    11
 74
     0
 42
0.00000001
 43
0.00000001
 40
0.0
 40
0.0
 40
0.0
 40
0.0
 40
0.1072852142689595
 40
0.2147458609696394
 40
0.3229385595552863
 40
0.4341161625174694
 40
0.5534123109627958
 40
0.6860729848107326
 40
0.8342559920595773
 40
1.0
 40
1.0
 40
1.0
 40
1.0
 10
928.1857167762663
 20
687.6866693665302
 30
0.0
 10
928.1866153514318
 20
687.643808844152
 30
0.0
 10
928.18841397111
 20
687.5580177140095
 30
0.0
 10
928.2134992229646
 20
687.4312716066863
 30
0.0
 10
928.2457262605824
 20
687.3048456880151
 30
0.0
 10
928.2967951331618
 20
687.1793083558227
 30
0.0
 10
928.3672986842835
 20
687.0524641065604
 30
0.0
 10
928.4598819434981
 20
686.9221287064265
 30
0.0
 10
928.5764837996123
 20
686.7871533723189
 30
0.0
 10
928.6658026849869
 20
686.6993650894048
 30
0.0
 10
928.71296036601
 20
686.6530155203764
 30
0.0
  0
SPLINE
  5
D6
330
1F
100
AcDbEntity
  8
0
  6
Continuous
 62
     7
370
    25
100
AcDbSpline
210
0.0
220
0.0
230
1.0
 70
     8
 71
     3
 72
    15
 73
    11
 74
     0
 42
0.00000001
 43
0.00000001
 40
0.0
 40
0.0
 40
0.0
 40
0.0
 40
0.143073083730364
 40
0.2759029640930093
 40
0.4023708562739935
 40
0.5284136450935952
 40
0.6503563791869531
 40
0.7658950861246936
 40
0.8807741308440219
 40
1.0
 40
1.0
 40
1.0
 40
1.0
 10
929.3587936993433
 20
688.6994898793508
 30
0.0
 10
929.2761502195592
 20
688.6967202794607
 30
0.0
 10
929.1167800540408
 20
688.6913793669768
 30
0.0
 10
928.8905166572234
 20
688.6330479720245
 30
0.0
 10
928.6868733999361
 20
688.5412037198968
 30
0.0
 10
928.511896108379
 20
688.4124837699638
 30
0.0
 10
928.3662115894235
 20
688.2599786438263
 30
0.0
 10
928.2608276836751
 20
688.0844841179409
 30
0.0
 10
928.1973987361276
 20
687.8906957691305
 30
0.0
 10
928.1896586683538
 20
687.7555148403724
 30
0.0
 10
928.1857167762663
 20
687.6866693665302
 30
0.0
  0
SPLINE
  5
D7
330
1F
100
AcDbEntity
  8
0
  6
Continuous
 62
     7
370
    25
100
AcDbSpline
210
0.0
220
0.0
230
1.0
 70
     8
 71
     3
 72
    19
 73
    15
 74
     0
 42
0.00000001
 43
0.00000001
 40
0.0
 40
0.0
 40
0.0
 40
0.0
 40
0.0984694310255638
 40
0.1896291011376355
 40
0.2741840894379711
 40
0.3521831609671551
 40
0.4231988731834702
 40
0.4885509460005334
 40
0.5484733460279373
 40
0.601440163617872
 40
0.701198082425766
 40
0.7995918021381874
 40
0.8985450984822276
 40
1.0
 40
1.0
 40
1.0
 40
1.0
 10
930.9212936993432
 20
687.6738488537097
 30
0.0
 10
930.8821029965494
 20
687.7243372889615
 30
0.0
 10
930.8066308660988
 20
687.8215662106168
 30
0.0
 10
930.6920491818462
 20
687.9577292177169
 30
0.0
 10
930.5840522723141
 20
688.0821097423611
 30
0.0
 10
930.4776513585217
 20
688.1901443207156
 30
0.0
 10
930.378465915171
 20
688.2877491969165
 30
0.0
 10
930.282198390035
 20
688.3713143553723
 30
0.0
 10
930.1902341586352
 20
688.4416585734982
 30
0.0
 10
930.0743097914443
 20
688.5167295676906
 30
0.0
 10
929.92866929242
 20
688.5911444329587
 30
0.0
 10
929.7458474953014
 20
688.6541137542793
 30
0.0
 10
929.5547931523644
 20
688.6919538958078
 30
0.0
 10
929.4246682803856
 20
688.6969570673914
 30
0.0
 10
929.3587936993433
 20
688.6994898793508
 30
0.0
  0
LINE
  5
D8
330
1F
100
AcDbEntity
  8
0
  6
Continuous
 62
     7
370
    25
100
AcDbLine
 10
931.5703321609
 20
688.1658360332
 30
0.0
 11
930.9212936993
 21
687.6738488537
 31
0.0
  0
SPLINE
  5
D9
330
1F
100
AcDbEntity
  8
0
  6
Continuous
 62
     7
370
    25
100
AcDbSpline
210
0.0
220
0.0
230
1.0
 70
     8
 71
     3
 72
    19
 73
    15
 74
     0
 42
0.00000001
 43
0.00000001
 40
0.0
 40
0.0
 40
0.0
 40
0.0
 40
0.1072327993600894
 40
0.2132518127818485
 40
0.3188304473075864
 40
0.4267935306342764
 40
0.4836459507827205
 40
0.5436038220211424
 40
0.6083076495640815
 40
0.6771267602600435
 40
0.7506856360204976
 40
0.8287134184432895
 40
0.9121903482234535
 40
1.0
 40
1.0
 40
1.0
 40
1.0
 10
929.4389219044714
 20
689.5200026998635
 30
0.0
 10
929.533194133724
 20
689.516751153351
 30
0.0
 10
929.7206715091453
 20
689.5102848651236
 30
0.0
 10
929.9964411447328
 20
689.4540619363927
 30
0.0
 10
930.2619513536484
 20
689.3610318294487
 30
0.0
 10
930.4755359589502
 20
689.2554577540715
 30
0.0
 10
930.6426965565772
 20
689.1500145181553
 30
0.0
 10
930.7701770884375
 20
689.053969205518
 30
0.0
 10
930.8993598330926
 20
688.9433975287085
 30
0.0
 10
931.0312868155584
 20
688.818004966238
 30
0.0
 10
931.1637226085621
 20
688.6766409637474
 30
0.0
 10
931.2986333565487
 20
688.5202736748122
 30
0.0
 10
931.4363345424018
 20
688.3498586899792
 30
0.0
 10
931.5249193655421
 20
688.2282026882547
 30
0.0
 10
931.5703321608817
 20
688.1658360331969
 30
0.0
  0
SPLINE
  5
DA
330
1F
100
AcDbEntity
  8
0
  6
Continuous
 62
     7
370
    25
100
AcDbSpline
210
0.0
220
0.0
230
1.0
 70
     8
 71
     3
 72
    19
 73
    15
 74
     0
 42
0.00000001
 43
0.00000001
 40
0.0
 40
0.0
 40
0.0
 40
0.0
 40
0.0837853706537116
 40
0.1657798879221444
 40
0.246280007893265
 40
0.3274609277363923
 40
0.4087969540320684
 40
0.4897152412309879
 40
0.571376032130052
 40
0.6555233211112774
 40
0.7410194827999741
 40
0.8265467605037614
 40
0.9119888516548341
 40
1.0
 40
1.0
 40
1.0
 40
1.0
 10
927.4677680583176
 20
687.6530155203764
 30
0.0
 10
927.4707513931596
 20
687.7376550050958
 30
0.0
 10
927.476654296159
 20
687.9051248650615
 30
0.0
 10
927.5265754784914
 20
688.149766763215
 30
0.0
 10
927.6053706639873
 20
688.383335716855
 30
0.0
 10
927.7157589790995
 20
688.6035193367971
 30
0.0
 10
927.8580615000554
 20
688.8045844359702
 30
0.0
 10
928.0227380128903
 20
688.9888438347863
 30
0.0
 10
928.2188785528616
 20
689.1437434512912
 30
0.0
 10
928.4340845488922
 20
689.279085299038
 30
0.0
 10
928.6696419707955
 20
689.3850188423685
 30
0.0
 10
928.9164783214187
 20
689.4649296541638
 30
0.0
 10
929.1749859146191
 20
689.5102079574575
 30
0.0
 10
929.3500787937583
 20
689.5167057058293
 30
0.0
 10
929.4389219044714
 20
689.5200026998635
 30
0.0
  0
SPLINE
  5
DB
330
1F
100
AcDbEntity
  8
0
  6
Continuous
 62
     7
370
    25
100
AcDbSpline
210
0.0
220
0.0
230
1.0
 70
     8
 71
     3
 72
    15
 73
    11
 74
     0
 42
0.00000001
 43
0.00000001
 40
0.0
 40
0.0
 40
0.0
 40
0.0
 40
0.1335067689985127
 40
0.262558978730368
 40
0.3882644471488805
 40
0.5126673546814263
 40
0.6337222699657552
 40
0.7553938601370965
 40
0.877552945091281
 40
1.0
 40
1.0
 40
1.0
 40
1.0
 10
927.9148834429329
 20
686.4350668024277
 30
0.0
 10
927.8795176252618
 20
686.4821548866659
 30
0.0
 10
927.8099659984838
 20
686.5747599238538
 30
0.0
 10
927.7181579859922
 20
686.7195024558943
 30
0.0
 10
927.6401256138815
 20
686.8676699196867
 30
0.0
 10
927.5789545689987
 20
687.0196604672631
 30
0.0
 10
927.5274432116512
 20
687.1733403047042
 30
0.0
 10
927.4927965128677
 20
687.3307145805892
 30
0.0
 10
927.4711018913458
 20
687.4910771370794
 30
0.0
 10
927.4688802078417
 20
687.5989937099308
 30
0.0
 10
927.4677680583176
 20
687.6530155203764
 30
0.0
  0
SPLINE
  5
DC
330
1F
100
AcDbEntity
  8
0
  6
Continuous
 62
     7
370
    25
100
AcDbSpline
210
0.0
220
0.0
230
1.0
 70
     8
 71
     3
 72
    15
 73
    11
 74
     0
 42
0.00000001
 43
0.00000001
 40
0.0
 40
0.0
 40
0.0
 40
0.0
 40
0.1815353013762845
 40
0.3470816724816265
 40
0.4955678164315503
 40
0.6283573018772137
 40
0.7455196699921558
 40
0.8458307507576487
 40
0.9307818073847575
 40
1.0
 40
1.0
 40
1.0
 40
1.0
 10
929.2257808788304
 20
685.3469257767866
 30
0.0
 10
929.1416117447069
 20
685.4068768342022
 30
0.0
 10
928.9806867696664
 20
685.5214986907619
 30
0.0
 10
928.7556385814462
 20
685.6916113399359
 30
0.0
 10
928.5543940945663
 20
685.8471401846031
 30
0.0
 10
928.3778477710845
 20
685.9895493551231
 30
0.0
 10
928.2260772640077
 20
686.1188581659343
 30
0.0
 10
928.0978866102612
 20
686.2338248839734
 30
0.0
 10
927.9965413368999
 20
686.3375587373869
 30
0.0
 10
927.9401857239661
 20
686.4048532328044
 30
0.0
 10
927.9148834429329
 20
686.4350668024277
 30
0.0
  0
SPLINE
  5
DD
330
1F
100
AcDbEntity
  8
0
  6
Continuous
 62
     7
370
    25
100
AcDbSpline
210
0.0
220
0.0
230
1.0
 70
     8
 71
     3
 72
    15
 73
    11
 74
     0
 42
0.00000001
 43
0.00000001
 40
0.0
 40
0.0
 40
0.0
 40
0.0
 40
0.0902792146500128
 40
0.1895299184469584
 40
0.299197872400291
 40
0.4189258867738208
 40
0.5483762854012472
 40
0.6881363695386807
 40
0.8390835016589234
 40
0.9999999999999999
 40
0.9999999999999999
 40
0.9999999999999999
 40
0.9999999999999999
 10
930.668088571138
 20
684.0712847511456
 30
0.0
 10
930.6322700244395
 20
684.1171060622389
 30
0.0
 10
930.5570734660627
 20
684.2133021732521
 30
0.0
 10
930.4277991515643
 20
684.3564912829103
 30
0.0
 10
930.2761051760091
 20
684.5041905262292
 30
0.0
 10
930.1071827647825
 20
684.6620397992564
 30
0.0
 10
929.9148785617182
 20
684.8226976202576
 30
0.0
 10
929.7052156716538
 20
684.9938251126895
 30
0.0
 10
929.4728411368741
 20
685.1689144316533
 30
0.0
 10
929.3098708588901
 20
685.2863374386169
 30
0.0
 10
929.2257808788304
 20
685.3469257767866
 30
0.0
  0
SPLINE
  5
DE
330
1F
100
AcDbEntity
  8
0
  6
Continuous
 62
     7
370
    25
100
AcDbSpline
210
0.0
220
0.0
230
1.0
 70
     8
 71
     3
 72
    11
 73
     7
 74
     0
 42
0.00000001
 43
0.00000001
 40
0.0
 40
0.0
 40
0.0
 40
0.0
 40
0.2347233736739058
 40
0.4771583189289961
 40
0.7285562842030514
 40
1.0
 40
1.0
 40
1.0
 40
1.0
 10
930.954947545497
 20
683.2860283408893
 30
0.0
 10
930.9515776924701
 20
683.3526359973634
 30
0.0
 10
930.9447272736975
 20
683.4880396297056
 30
0.0
 10
930.8868267478175
 20
683.6878102650288
 30
0.0
 10
930.7957427550325
 20
683.8855075679414
 30
0.0
 10
930.7117138551355
 20
684.0077961749763
 30
0.0
 10
930.668088571138
 20
684.0712847511456
 30
0.0
  0
SPLINE
  5
DF
330
1F
100
AcDbEntity
  8
0
  6
Continuous
 62
     7
370
    25
100
AcDbSpline
210
0.0
220
0.0
230
1.0
 70
     8
 71
     3
 72
    19
 73
    15
 74
     0
 42
0.00000001
 43
0.00000001
 40
0.0
 40
0.0
 40
0.0
 40
0.0
 40
0.0912636048966263
 40
0.1809303110850836
 40
0.2700882198317257
 40
0.3601561333877281
 40
0.4483425324981529
 40
0.5326658421383318
 40
0.61383370410705
 40
0.6939815272835572
 40
0.7727159770890079
 40
0.8493351720622504
 40
0.923967326575232
 40
1.0
 40
1.0
 40
1.0
 40
1.0
 10
929.3876398531894
 20
681.93025911012
 30
0.0
 10
929.4577812486442
 20
681.9322126472907
 30
0.0
 10
929.596836729895
 20
681.9360855393206
 30
0.0
 10
929.8015504280919
 20
681.9732988011478
 30
0.0
 10
930.0003659761286
 20
682.0304693815216
 30
0.0
 10
930.1891857195126
 20
682.112345796398
 30
0.0
 10
930.3654042670133
 20
682.2114051923409
 30
0.0
 10
930.5199338563541
 20
682.3310535980718
 30
0.0
 10
930.653524972193
 20
682.4650106397032
 30
0.0
 10
930.7628029483465
 20
682.6144567074562
 30
0.0
 10
930.8466430290056
 20
682.7751816185586
 30
0.0
 10
930.9110820425215
 20
682.9401552216175
 30
0.0
 10
930.946842210879
 20
683.1119690919695
 30
0.0
 10
930.9522290759228
 20
683.2276501499073
 30
0.0
 10
930.954947545497
 20
683.2860283408893
 30
0.0
  0
SPLINE
  5
E0
330
1F
100
AcDbEntity
  8
0
  6
Continuous
 62
     7
370
    25
100
AcDbSpline
210
0.0
220
0.0
230
1.0
 70
     8
 71
     3
 72
    15
 73
    11
 74
     0
 42
0.00000001
 43
0.00000001
 40
0.0
 40
0.0
 40
0.0
 40
0.0
 40
0.1590042985173808
 40
0.3046460998968167
 40
0.4385469045795945
 40
0.5623222987759271
 40
0.6774325425257323
 40
0.7868973929387552
 40
0.8936108891042671
 40
1.0
 40
1.0
 40
1.0
 40
1.0
 10
927.6312295967791
 20
683.2635924434534
 30
0.0
 10
927.6941284247803
 20
683.1583024207171
 30
0.0
 10
927.8146401519306
 20
682.9565708003538
 30
0.0
 10
928.0156718299935
 20
682.6839809936594
 30
0.0
 10
928.2239756269441
 20
682.4522960639246
 30
0.0
 10
928.4410941036285
 20
682.2628638181192
 30
0.0
 10
928.6657019850512
 20
682.1137235055534
 30
0.0
 10
928.8992655364493
 20
682.0081184044823
 30
0.0
 10
929.1409976752183
 20
681.9422533179192
 30
0.0
 10
929.3055092671713
 20
681.9342531200799
 30
0.0
 10
929.3876398531894
 20
681.93025911012
 30
0.0
  0
LINE
  5
E1
330
1F
100
AcDbEntity
  8
0
  6
Continuous
 62
     7
370
    25
100
AcDbLine
 10
926.9549475455
 20
682.8581437255
 30
0.0
 11
927.6312295968
 21
683.2635924435
 31
0.0
  0
SPLINE
  5
E2
330
1F
100
AcDbEntity
  8
0
  6
Continuous
 62
     7
370
    25
100
AcDbSpline
210
0.0
220
0.0
230
1.0
 70
     8
 71
     3
 72
    23
 73
    19
 74
     0
 42
0.00000001
 43
0.00000001
 40
0.0
 40
0.0
 40
0.0
 40
0.0
 40
0.0572082694335083
 40
0.1136960596574893
 40
0.1691779164171932
 40
0.2241592165805425
 40
0.2787198783810422
 40
0.3337942174469876
 40
0.3892414593400026
 40
0.4458220733936192
 40
0.5037042811090187
 40
0.5642938918193644
 40
0.6279754158952231
 40
0.6950382596840506
 40
0.7653727258510103
 40
0.8396114430907337
 40
0.9175377500777875
 40
0.9999999999999999
 40
0.9999999999999999
 40
0.9999999999999999
 40
0.9999999999999999
 10
929.3876398531894
 20
681.1097462896072
 30
0.0
 10
929.32721621209
 20
681.1109147046869
 30
0.0
 10
929.2071299033939
 20
681.1132368198624
 30
0.0
 10
929.029508230541
 20
681.1337654608275
 30
0.0
 10
928.8554748838026
 20
681.162810269036
 30
0.0
 10
928.6872136677246
 20
681.2089224289831
 30
0.0
 10
928.5225567268292
 20
681.2648698050793
 30
0.0
 10
928.3622201907699
 20
681.3337574224468
 30
0.0
 10
928.206126353385
 20
681.4163110257549
 30
0.0
 10
928.0534004496859
 20
681.5106996534777
 30
0.0
 10
927.9044309077748
 20
681.6205459267658
 30
0.0
 10
927.7606149810802
 20
681.748485347196
 30
0.0
 10
927.6172339856213
 20
681.8909893586045
 30
0.0
 10
927.4785199368862
 20
682.0519277891457
 30
0.0
 10
927.3416670356158
 20
682.2287005499634
 30
0.0
 10
927.2093735281038
 20
682.4229615405861
 30
0.0
 10
927.0789010305517
 20
682.6336526348924
 30
0.0
 10
926.9970371040894
 20
682.7819156879661
 30
0.0
 10
926.954947545497
 20
682.8581437255045
 30
0.0
  0
SPLINE
  5
E3
330
1F
100
AcDbEntity
  8
0
  6
Continuous
 62
     7
370
    25
100
AcDbSpline
210
0.0
220
0.0
230
1.0
 70
     8
 71
     3
 72
    23
 73
    19
 74
     0
 42
0.00000001
 43
0.00000001
 40
0.0
 40
0.0
 40
0.0
 40
0.0
 40
0.0614842551968907
 40
0.1217745277022116
 40
0.180919559813933
 40
0.2402561150782728
 40
0.3001144444023521
 40
0.3611459476126123
 40
0.4235005824125856
 40
0.4886693612807178
 40
0.553954104653561
 40
0.6175812610152627
 40
0.6802384268167389
 40
0.7421873887724534
 40
0.8046632117692932
 40
0.8682589893126615
 40
0.9330202571803751
 40
1.0
 40
1.0
 40
1.0
 40
1.0
 10
931.6728962634458
 20
683.2748103921713
 30
0.0
 10
931.6713942334482
 20
683.2030884148099
 30
0.0
 10
931.6684193418605
 20
683.0610372524258
 30
0.0
 10
931.6342229675095
 20
682.8524542195522
 30
0.0
 10
931.5841208757093
 20
682.6498693745604
 30
0.0
 10
931.508607198108
 20
682.455786831829
 30
0.0
 10
931.4164399792282
 20
682.2666559456953
 30
0.0
 10
931.2994885555345
 20
682.0874378876133
 30
0.0
 10
931.1639281332768
 20
681.9141661194145
 30
0.0
 10
931.008422384924
 20
681.751460996317
 30
0.0
 10
930.8382603224862
 20
681.6020982626361
 30
0.0
 10
930.6584118775428
 20
681.4692318364133
 30
0.0
 10
930.4685826822647
 20
681.3584470972239
 30
0.0
 10
930.269802529846
 20
681.2680451725385
 30
0.0
 10
930.0620257602297
 20
681.1973399896212
 30
0.0
 10
929.8453222543224
 20
681.1461105744651
 30
0.0
 10
929.6193348001061
 20
681.1146689495199
 30
0.0
 10
929.4657336993691
 20
681.1114054947437
 30
0.0
 10
929.3876398531894
 20
681.1097462896072
 30
0.0
  0
LINE
  5
E4
330
1F
100
AcDbEntity
  8
0
  6
Continuous
 62
     7
370
    25
100
AcDbLine
 10
925.7241783147
 20
689.3148744947
 30
0.0
 11
925.7241783147
 21
681.3148744947
 31
0.0
  0
LINE
  5
E5
330
1F
100
AcDbEntity
  8
0
  6
Continuous
 62
     7
370
    25
100
AcDbLine
 10
925.0062295968
 20
689.3148744947
 30
0.0
 11
925.7241783147
 21
689.3148744947
 31
0.0
  0
LINE
  5
E6
330
1F
100
AcDbEntity
  8
0
  6
Continuous
 62
     7
370
    25
100
AcDbLine
 10
925.0062295968
 20
681.3148744947
 30
0.0
 11
925.0062295968
 21
689.3148744947
 31
0.0
  0
LINE
  5
E7
330
1F
100
AcDbEntity
  8
0
  6
Continuous
 62
     7
370
    25
100
AcDbLine
 10
925.7241783147
 20
681.3148744947
 30
0.0
 11
925.0062295968
 21
681.3148744947
 31
0.0
  0
SPLINE
  5
E8
330
1F
100
AcDbEntity
  8
0
  6
Continuous
 62
     7
370
    25
100
AcDbSpline
210
0.0
220
0.0
230
1.0
 70
     8
 71
     3
 72
    11
 73
     7
 74
     0
 42
0.00000001
 43
0.00000001
 40
0.0
 40
0.0
 40
0.0
 40
0.0
 40
0.2629516255674889
 40
0.5157066923583554
 40
0.7621092269531088
 40
1.0
 40
1.0
 40
1.0
 40
1.0
 10
920.605588571138
 20
682.0456437255045
 30
0.0
 10
920.6496669975589
 20
682.0283649658709
 30
0.0
 10
920.7361146072468
 20
681.9944774705585
 30
0.0
 10
920.8682862179155
 20
681.9566582744189
 30
0.0
 10
920.9997034452555
 20
681.9359899088871
 30
0.0
 10
921.086829602665
 20
681.9321468617132
 30
0.0
 10
921.1296270326766
 20
681.93025911012
 30
0.0
  0
SPLINE
  5
E9
330
1F
100
AcDbEntity
  8
0
  6
Continuous
 62
     7
370
    25
100
AcDbSpline
210
0.0
220
0.0
230
1.0
 70
     8
 71
     3
 72
    11
 73
     7
 74
     0
 42
0.00000001
 43
0.00000001
 40
0.0
 40
0.0
 40
0.0
 40
0.0
 40
0.2991842876765383
 40
0.5648989463568057
 40
0.7985478688426153
 40
1.0
 40
1.0
 40
1.0
 40
1.0
 10
919.5831526737022
 20
682.6482078280686
 30
0.0
 10
919.6807587971823
 20
682.5808994939184
 30
0.0
 10
919.8650518853655
 20
682.4538125825775
 30
0.0
 10
920.1359191788196
 20
682.2903232101409
 30
0.0
 10
920.3759126714046
 20
682.1501514031524
 30
0.0
 10
920.5329022652934
 20
682.0787176223718
 30
0.0
 10
920.605588571138
 20
682.0456437255045
 30
0.0
  0
LINE
  5
EA
330
1F
100
AcDbEntity
  8
0
  6
Continuous
 62
     7
370
    25
100
AcDbLine
 10
919.1600757506
 20
682.0328232127
 30
0.0
 11
919.5831526737
 21
682.6482078281
 31
0.0
  0
SPLINE
  5
EB
330
1F
100
AcDbEntity
  8
0
  6
Continuous
 62
     7
370
    25
100
AcDbSpline
210
0.0
220
0.0
230
1.0
 70
     8
 71
     3
 72
    15
 73
    11
 74
     0
 42
0.00000001
 43
0.00000001
 40
0.0
 40
0.0
 40
0.0
 40
0.0
 40
0.1060709021051298
 40
0.213421680412451
 40
0.3216854881303239
 40
0.4338579390981579
 40
0.5540812827743554
 40
0.6875870439665618
 40
0.8364658500651128
 40
1.0
 40
1.0
 40
1.0
 40
1.0
 10
921.0895629301125
 20
681.1097462896072
 30
0.0
 10
921.0119438255101
 20
681.1122162533308
 30
0.0
 10
920.8557690461167
 20
681.1171859839354
 30
0.0
 10
920.6233331403746
 20
681.1576927566206
 30
0.0
 10
920.3915571955588
 20
681.2201294271265
 30
0.0
 10
920.1592110267811
 20
681.3115639308949
 30
0.0
 10
919.9217041894142
 20
681.4359195845741
 30
0.0
 10
919.6758199684002
 20
681.5986277367546
 30
0.0
 10
919.4183955319228
 20
681.7993855113771
 30
0.0
 10
919.2488337351075
 20
681.9526146441956
 30
0.0
 10
919.1600757506253
 20
682.0328232126841
 30
0.0
  0
SPLINE
  5
EC
330
1F
100
AcDbEntity
  8
0
  6
Continuous
 62
     7
370
    25
100
AcDbSpline
210
0.0
220
0.0
230
1.0
 70
     8
 71
     3
 72
    23
 73
    19
 74
     0
 42
0.00000001
 43
0.00000001
 40
0.0
 40
0.0
 40
0.0
 40
0.0
 40
0.0773606839426998
 40
0.1485419530250431
 40
0.2140077372521318
 40
0.2729945033606874
 40
0.3264091957674675
 40
0.3738804007298073
 40
0.4160199382657597
 40
0.452125519512631
 40
0.5180017107054534
 40
0.5823669297335137
 40
0.6470437823418058
 40
0.7133304210644735
 40
0.7809119703509667
 40
0.8503949591306439
 40
0.9229229735922768
 40
1.0
 40
1.0
 40
1.0
 40
1.0
 10
922.954947545497
 20
683.9126309049917
 30
0.0
 10
922.9542300171958
 20
683.8127333715157
 30
0.0
 10
922.9528522753016
 20
683.6209179173516
 30
0.0
 10
922.9452764797919
 20
683.3446347267421
 30
0.0
 10
922.93125710172
 20
683.0923588725628
 30
0.0
 10
922.9108342160298
 20
682.863516708008
 30
0.0
 10
922.8835879695758
 20
682.6588251530644
 30
0.0
 10
922.85240847673
 20
682.4767025980591
 30
0.0
 10
922.814664936671
 20
682.3186690384526
 30
0.0
 10
922.7578272993427
 20
682.141216796766
 30
0.0
 10
922.6646297026659
 20
681.9466023859468
 30
0.0
 10
922.524362186906
 20
681.7364191845621
 30
0.0
 10
922.3501157950553
 20
681.5525713887899
 30
0.0
 10
922.148284862086
 20
681.3929080175542
 30
0.0
 10
921.9171053784751
 20
681.2656914891512
 30
0.0
 10
921.661338020477
 20
681.1743653670716
 30
0.0
 10
921.3825572491672
 20
681.1186605519304
 30
0.0
 10
921.1891876209332
 20
681.1127773402798
 30
0.0
 10
921.0895629301125
 20
681.1097462896072
 30
0.0
  0
LINE
  5
ED
330
1F
100
AcDbEntity
  8
0
  6
Continuous
 62
     7
370
    25
100
AcDbLine
 10
922.9549475455
 20
689.3148744947
 30
0.0
 11
922.9549475455
 21
683.912630905
 31
0.0
  0
LINE
  5
EE
330
1F
100
AcDbEntity
  8
0
  6
Continuous
 62
     7
370
    25
100
AcDbLine
 10
922.2369988275
 20
689.3148744947
 30
0.0
 11
922.9549475455
 21
689.3148744947
 31
0.0
  0
LINE
  5
EF
330
1F
100
AcDbEntity
  8
0
  6
Continuous
 62
     7
370
    25
100
AcDbLine
 10
922.2369988275
 20
683.9927591101
 30
0.0
 11
922.2369988275
 21
689.3148744947
 31
0.0
  0
SPLINE
  5
F0
330
1F
100
AcDbEntity
  8
0
  6
Continuous
 62
     7
370
    25
100
AcDbSpline
210
0.0
220
0.0
230
1.0
 70
     8
 71
     3
 72
    23
 73
    19
 74
     0
 42
0.00000001
 43
0.00000001
 40
0.0
 40
0.0
 40
0.0
 40
0.0
 40
0.0623263659914403
 40
0.1231962451944467
 40
0.1840362202545535
 40
0.2469640854288938
 40
0.3106993957895715
 40
0.3732676370734425
 40
0.436587579967388
 40
0.5021247910366515
 40
0.5390047220341663
 40
0.5832553755259883
 40
0.6344465152828155
 40
0.6926760461021155
 40
0.7585704862865286
 40
0.8316586747921162
 40
0.9119171022748384
 40
1.0
 40
1.0
 40
1.0
 40
1.0
 10
921.1296270326766
 20
681.93025911012
 30
0.0
 10
921.1849019776535
 20
681.9325967899691
 30
0.0
 10
921.2941601634336
 20
681.9372175211042
 30
0.0
 10
921.4529350068808
 20
681.9780158645814
 30
0.0
 10
921.6048390782174
 20
682.0402887857557
 30
0.0
 10
921.7444268672026
 20
682.1314688857934
 30
0.0
 10
921.8730791805326
 20
682.2398835616782
 30
0.0
 10
921.9792342104465
 20
682.3709830100584
 30
0.0
 10
922.0677307692692
 20
682.5162766877874
 30
0.0
 10
922.1209872112133
 20
682.6538114394264
 30
0.0
 10
922.1549181186671
 20
682.7792437371936
 30
0.0
 10
922.1764532657692
 20
682.8945194763414
 30
0.0
 10
922.1952844895208
 20
683.0292885700577
 30
0.0
 10
922.2116994652955
 20
683.1837118850523
 30
0.0
 10
922.2213096837169
 20
683.3580985870678
 30
0.0
 10
922.2320920216023
 20
683.5519366280496
 30
0.0
 10
922.2359897607787
 20
683.7657147130691
 30
0.0
 10
922.2366522084807
 20
683.9147683174572
 30
0.0
 10
922.2369988275483
 20
683.99275911012
 30
0.0
  0
LINE
  5
F1
330
1F
100
AcDbEntity
  8
0
  6
Continuous
 62
     7
370
    25
100
AcDbLine
 10
915.2626398532
 20
684.8020539819
 30
0.0
 11
915.2626398532
 21
683.9815411614
 31
0.0
  0
LINE
  5
F2
330
1F
100
AcDbEntity
  8
0
  6
Continuous
 62
     7
370
    25
100
AcDbLine
 10
912.1857167763
 20
684.8020539819
 30
0.0
 11
915.2626398532
 21
684.8020539819
 31
0.0
  0
LINE
  5
F3
330
1F
100
AcDbEntity
  8
0
  6
Continuous
 62
     7
370
    25
100
AcDbLine
 10
912.1857167763
 20
683.9815411614
 30
0.0
 11
912.1857167763
 21
684.8020539819
 31
0.0
  0
LINE
  5
F4
330
1F
100
AcDbEntity
  8
0
  6
Continuous
 62
     7
370
    25
100
AcDbLine
 10
915.2626398532
 20
683.9815411614
 30
0.0
 11
912.1857167763
 21
683.9815411614
 31
0.0
  0
SPLINE
  5
F5
330
1F
100
AcDbEntity
  8
0
  6
Continuous
 62
     7
370
    25
100
AcDbSpline
210
0.0
220
0.0
230
1.0
 70
     8
 71
     3
 72
    31
 73
    27
 74
     0
 42
0.00000001
 43
0.00000001
 40
0.0
 40
0.0
 40
0.0
 40
0.0
 40
0.0337881161627101
 40
0.0671939323738797
 40
0.0998624108568243
 40
0.1325666121262573
 40
0.1651511732547859
 40
0.1979131873557919
 40
0.2313190035669613
 40
0.2650832782673722
 40
0.2992553087581143
 40
0.334398566504978
 40
0.3699428235093067
 40
0.4062835607000597
 40
0.4440638196985084
 40
0.4829977068727741
 40
0.5233544466133037
 40
0.5655365896041497
 40
0.6096129240658182
 40
0.6563908113764166
 40
0.7058854949364556
 40
0.7583245002617311
 40
0.8138317829411498
 40
0.8727945590393887
 40
0.9347222295400733
 40
1.0
 40
1.0
 40
1.0
 40
1.0
 10
894.1424475454971
 20
689.5200026998635
 30
0.0
 10
894.2060714963184
 20
689.5188876937477
 30
0.0
 10
894.3325995166514
 20
689.5166702973952
 30
0.0
 10
894.5196632314992
 20
689.4953584287447
 30
0.0
 10
894.7024053611325
 20
689.4599958616658
 30
0.0
 10
894.8800468210263
 20
689.4098907769055
 30
0.0
 10
895.0540467900955
 20
689.3477292302555
 30
0.0
 10
895.2230442932855
 20
689.2698158197202
 30
0.0
 10
895.3880890513245
 20
689.17912126579
 30
0.0
 10
895.5465582799413
 20
689.0725524033749
 30
0.0
 10
895.7001916864466
 20
688.9537357720678
 30
0.0
 10
895.8452156018116
 20
688.8194211005174
 30
0.0
 10
895.98164322672
 20
688.670964599332
 30
0.0
 10
896.1111867818885
 20
688.509954624734
 30
0.0
 10
896.2301710040582
 20
688.3333030022573
 30
0.0
 10
896.3434817063106
 20
688.144082179825
 30
0.0
 10
896.4449035026572
 20
687.9389830602962
 30
0.0
 10
896.5425827602083
 20
687.7214277052309
 30
0.0
 10
896.6268958727552
 20
687.4853964851014
 30
0.0
 10
896.7029330048061
 20
687.2322198896314
 30
0.0
 10
896.7643706472633
 20
686.9589074625381
 30
0.0
 10
896.8155461268932
 20
686.6668931875779
 30
0.0
 10
896.8551916033404
 20
686.3551046544576
 30
0.0
 10
896.8840662138056
 20
686.024210219002
 30
0.0
 10
896.8993189796143
 20
685.6739921832518
 30
0.0
 10
896.9021914395154
 20
685.4345456708468
 30
0.0
 10
896.9036654942149
 20
685.3116693665302
 30
0.0
  0
SPLINE
  5
F6
330
1F
100
AcDbEntity
  8
0
  6
Continuous
 62
     7
370
    25
100
AcDbSpline
210
0.0
220
0.0
230
1.0
 70
     8
 71
     3
 72
    31
 73
    27
 74
     0
 42
0.00000001
 43
0.00000001
 40
0.0
 40
0.0
 40
0.0
 40
0.0
 40
0.0685946222587426
 40
0.1332460424433
 40
0.1943125864682571
 40
0.2512792231169659
 40
0.3045134392563465
 40
0.3542349066533259
 40
0.4004805887739901
 40
0.4434107549384916
 40
0.4840148686163447
 40
0.5232523007732017
 40
0.5610423727283598
 40
0.5979002393643987
 40
0.6335184888561961
 40
0.6683143511696518
 40
0.7024956712863809
 40
0.7366853535134579
 40
0.7702931693607888
 40
0.8034372550192478
 40
0.8359129516660281
 40
0.8684602457892902
 40
0.9008465382431822
 40
0.9334665246307076
 40
0.9662575752981226
 40
1.0
 40
1.0
 40
1.0
 40
1.0
 10
891.4677680583176
 20
685.3116693665302
 30
0.0
 10
891.4685178141061
 20
685.4398919670657
 30
0.0
 10
891.4699742255319
 20
685.6889662167742
 30
0.0
 10
891.4861763305429
 20
686.0519025414983
 30
0.0
 10
891.5130913986873
 20
686.3923832020587
 30
0.0
 10
891.5499768223449
 20
686.7104244958608
 30
0.0
 10
891.5948636342846
 20
687.0061085290442
 30
0.0
 10
891.6547847465162
 20
687.2786451167842
 30
0.0
 10
891.7229282953504
 20
687.5292956461856
 30
0.0
 10
891.8019053143458
 20
687.7588774712736
 30
0.0
 10
891.8910202606735
 20
687.97048364961
 30
0.0
 10
891.9880128566097
 20
688.1680269668528
 30
0.0
 10
892.0967323867206
 20
688.3512085264865
 30
0.0
 10
892.2109653305541
 20
688.5229520474466
 30
0.0
 10
892.335335779989
 20
688.6804462069719
 30
0.0
 10
892.4663044439142
 20
688.8259151498713
 30
0.0
 10
892.6089830182391
 20
688.9559968652172
 30
0.0
 10
892.758521322864
 20
689.0745026992402
 30
0.0
 10
892.9162732414737
 20
689.178387205919
 30
0.0
 10
893.0777421926582
 20
689.2698906084693
 30
0.0
 10
893.2440395774718
 20
689.3480617336295
 30
0.0
 10
893.4156194240957
 20
689.4095255870227
 30
0.0
 10
893.5909395564149
 20
689.4602932367887
 30
0.0
 10
893.7706128517092
 20
689.4950108314094
 30
0.0
 10
893.954935969278
 20
689.516855193671
 30
0.0
 10
894.0793506773881
 20
689.518943577077
 30
0.0
 10
894.1424475454971
 20
689.5200026998635
 30
0.0
  0
SPLINE
  5
F7
330
1F
100
AcDbEntity
  8
0
  6
Continuous
 62
     7
370
    25
100
AcDbSpline
210
0.0
220
0.0
230
1.0
 70
     8
 71
     3
 72
    31
 73
    27
 74
     0
 42
0.00000001
 43
0.00000001
 40
0.0
 40
0.0
 40
0.0
 40
0.0
 40
0.0337871463469916
 40
0.0666216577242942
 40
0.0992848780959728
 40
0.1313611650426511
 40
0.1635851875953436
 40
0.196103926987069
 40
0.2289022543238179
 40
0.2621580559050076
 40
0.2959912222583162
 40
0.3302178457247995
 40
0.3650598258919541
 40
0.4009507373401081
 40
0.4376203820767381
 40
0.4757075294370928
 40
0.5153806916250498
 40
0.556413541493165
 40
0.5997648298727323
 40
0.6464241555840875
 40
0.6964314445175676
 40
0.7497815178015587
 40
0.8065733069755331
 40
0.8674355315654004
 40
0.9318867532508747
 40
0.9999999999999999
 40
0.9999999999999999
 40
0.9999999999999999
 40
0.9999999999999999
 10
894.1424475454971
 20
681.1097462896072
 30
0.0
 10
894.0793524278164
 20
681.1108122449416
 30
0.0
 10
893.9549411712095
 20
681.1129141007985
 30
0.0
 10
893.7705927702052
 20
681.1346597727716
 30
0.0
 10
893.5916614709139
 20
681.1696209229711
 30
0.0
 10
893.4172643188278
 20
681.2185731608937
 30
0.0
 10
893.2465065700652
 20
681.2784927867575
 30
0.0
 10
893.0817150577091
 20
681.3565583492787
 30
0.0
 10
892.9210574949875
 20
681.4464647926067
 30
0.0
 10
892.7649625098034
 20
681.5488543273226
 30
0.0
 10
892.6163632845694
 20
681.6661610316162
 30
0.0
 10
892.4744236152807
 20
681.7959079771853
 30
0.0
 10
892.3427092859162
 20
681.9413329172936
 30
0.0
 10
892.2201170673623
 20
682.1001395986826
 30
0.0
 10
892.103604865772
 20
682.2708670097289
 30
0.0
 10
891.9964291553281
 20
682.4558461481186
 30
0.0
 10
891.8972957746009
 20
682.6543435435233
 30
0.0
 10
891.8066820816443
 20
682.8676416250664
 30
0.0
 10
891.7263422793245
 20
683.0988528887459
 30
0.0
 10
891.655376089351
 20
683.3506224396086
 30
0.0
 10
891.5993437294195
 20
683.6251724650123
 30
0.0
 10
891.5513826886586
 20
683.9202978755388
 30
0.0
 10
891.5126983845591
 20
684.237266859278
 30
0.0
 10
891.4862884981171
 20
684.5762514951336
 30
0.0
 10
891.4699654923212
 20
684.9370405441077
 30
0.0
 10
891.4685139027895
 20
685.1845143139743
 30
0.0
 10
891.4677680583176
 20
685.3116693665302
 30
0.0
  0
SPLINE
  5
F8
330
1F
100
AcDbEntity
  8
0
  6
Continuous
 62
     7
370
    25
100
AcDbSpline
210
0.0
220
0.0
230
1.0
 70
     8
 71
     3
 72
    31
 73
    27
 74
     0
 42
0.00000001
 43
0.00000001
 40
0.0
 40
0.0
 40
0.0
 40
0.0
 40
0.0650632896172783
 40
0.1267731664665234
 40
0.1855157632260796
 40
0.2407646791677159
 40
0.2929797960235991
 40
0.3422503727797682
 40
0.3889192861856598
 40
0.4327756640583106
 40
0.4746284326311176
 40
0.5147746906379531
 40
0.5536058934984424
 40
0.5914264064311745
 40
0.628028119946068
 40
0.6638036341103203
 40
0.6989843361316636
 40
0.7335914893067056
 40
0.7676284691511397
 40
0.8012083477865924
 40
0.8342638397266234
 40
0.8669806947287766
 40
0.8997197415181607
 40
0.9327019124985383
 40
0.9661758834327498
 40
1.0
 40
1.0
 40
1.0
 40
1.0
 10
896.9036654942149
 20
685.3116693665302
 30
0.0
 10
896.9021761581146
 20
685.1893290055224
 30
0.0
 10
896.8992742474597
 20
684.9509538012737
 30
0.0
 10
896.8842372034193
 20
684.6023115719713
 30
0.0
 10
896.8546174750107
 20
684.273173187289
 30
0.0
 10
896.8175660731621
 20
683.9627492730975
 30
0.0
 10
896.7662495863658
 20
683.6723318586222
 30
0.0
 10
896.7031520635056
 20
683.4009159764098
 30
0.0
 10
896.6330941827702
 20
683.1473295268888
 30
0.0
 10
896.5466146533764
 20
682.9136499574947
 30
0.0
 10
896.4519616011542
 20
682.6966174480895
 30
0.0
 10
896.3489782956104
 20
682.4939496804787
 30
0.0
 10
896.2386472645574
 20
682.3038552972109
 30
0.0
 10
896.1184444188361
 20
682.1278558756541
 30
0.0
 10
895.9903223315301
 20
681.9647046594874
 30
0.0
 10
895.8515388142889
 20
681.8172815219983
 30
0.0
 10
895.7060060483415
 20
681.6820342717969
 30
0.0
 10
895.5519205264354
 20
681.5616876947405
 30
0.0
 10
895.3909798379048
 20
681.4563509984288
 30
0.0
 10
895.2265019477908
 20
681.3621479118281
 30
0.0
 10
895.0555685001398
 20
681.2861874659998
 30
0.0
 10
894.8820531796152
 20
681.2209645151935
 30
0.0
 10
894.7034740570667
 20
681.1711349108823
 30
0.0
 10
894.5200537354908
 20
681.1366803839782
 30
0.0
 10
894.3327251962253
 20
681.1125161589387
 30
0.0
 10
894.2060930474681
 20
681.1106727763665
 30
0.0
 10
894.1424475454971
 20
681.1097462896072
 30
0.0
  0
CIRCLE
  5
F9
330
1F
100
AcDbEntity
  8
0
  6
Continuous
 62
     7
370
    25
100
AcDbCircle
 10
951.4872798434
 20
785.6360078278
 30
0.0
 40
57.50000000000011
  0
CIRCLE
  5
FA
330
1F
100
AcDbEntity
  8
0
  6
Continuous
 62
     7
370
    25
100
AcDbCircle
 10
951.4872798434
 20
785.6360078278
 30
0.0
 40
45.0
  0
SPLINE
  5
FB
330
1F
100
AcDbEntity
  8
0
  6
Continuous
 62
     7
370
    25
100
AcDbSpline
210
0.0
220
0.0
230
1.0
 70
     8
 71
     3
 72
    23
 73
    19
 74
     0
 42
0.00000001
 43
0.00000001
 40
0.0
 40
0.0
 40
0.0
 40
0.0
 40
0.0725024889330323
 40
0.1397389892678939
 40
0.2017951348259223
 40
0.2598219344148623
 40
0.3122059893845979
 40
0.3607734341243397
 40
0.4045403426007471
 40
0.443698098552764
 40
0.5168407942439708
 40
0.5878743359442835
 40
0.6579654175616318
 40
0.7289693886473128
 40
0.7993077199548828
 40
0.8666357778344735
 40
0.9331163290572759
 40
1.0
 40
1.0
 40
1.0
 40
1.0
 10
908.2850757506252
 20
682.1353873152483
 30
0.0
 10
908.3582618669979
 20
682.136264452155
 30
0.0
 10
908.4993184580316
 20
682.1379550179083
 30
0.0
 10
908.7029784125937
 20
682.1434739997616
 30
0.0
 10
908.8917397927104
 20
682.1560277727881
 30
0.0
 10
909.0647412458063
 20
682.1757897148766
 30
0.0
 10
909.2238508518193
 20
682.1972261701272
 30
0.0
 10
909.3671598873138
 20
682.226051955091
 30
0.0
 10
909.4958300437974
 20
682.2590781505777
 30
0.0
 10
909.6450284614873
 20
682.3101276871149
 30
0.0
 10
909.8130364804151
 20
682.3894339063544
 30
0.0
 10
909.9940898664394
 20
682.5090092810246
 30
0.0
 10
910.15506407934
 20
682.651462555934
 30
0.0
 10
910.2917618146694
 20
682.8163332169023
 30
0.0
 10
910.4037915027745
 20
682.9956048213097
 30
0.0
 10
910.4852896858226
 20
683.1856513354873
 30
0.0
 10
910.5355545011806
 20
683.3833325410151
 30
0.0
 10
910.5416394595576
 20
683.5181135982561
 30
0.0
 10
910.5446911352407
 20
683.5857078280687
 30
0.0
  0
LINE
  5
FC
330
1F
100
AcDbEntity
  8
0
  6
Continuous
 62
     7
370
    25
100
AcDbLine
 10
907.2626398532
 20
682.1353873152
 30
0.0
 11
908.2850757506
 21
682.1353873152
 31
0.0
  0
LINE
  5
FD
330
1F
100
AcDbEntity
  8
0
  6
Continuous
 62
     7
370
    25
100
AcDbLine
 10
907.2626398532
 20
685.1097462896
 30
0.0
 11
907.2626398532
 21
682.1353873152
 31
0.0
  0
LINE
  5
FE
330
1F
100
AcDbEntity
  8
0
  6
Continuous
 62
     7
370
    25
100
AcDbLine
 10
907.7386013917
 20
685.1097462896
 30
0.0
 11
907.2626398532
 21
685.1097462896
 31
0.0
  0
SPLINE
  5
FF
330
1F
100
AcDbEntity
  8
0
  6
Continuous
 62
     7
370
    25
100
AcDbSpline
210
0.0
220
0.0
230
1.0
 70
     8
 71
     3
 72
    15
 73
    11
 74
     0
 42
0.00000001
 43
0.00000001
 40
0.0
 40
0.0
 40
0.0
 40
0.0
 40
0.0793064855229993
 40
0.1719528189279314
 40
0.2770565073915902
 40
0.3947305758644738
 40
0.526177321276757
 40
0.6713447665976098
 40
0.8292852571892494
 40
1.0
 40
1.0
 40
1.0
 40
1.0
 10
909.2353962634458
 20
685.0151950075559
 30
0.0
 10
909.1964726157834
 20
685.0230923423112
 30
0.0
 10
909.1120781189859
 20
685.0402153930204
 30
0.0
 10
908.9744607922914
 20
685.0582901436247
 30
0.0
 10
908.8173502348005
 20
685.0743931376638
 30
0.0
 10
908.6403836582837
 20
685.0863043551809
 30
0.0
 10
908.4433371643096
 20
685.0986164547193
 30
0.0
 10
908.2257899215996
 20
685.1034046172845
 30
0.0
 10
907.9886303452357
 20
685.1091172117837
 30
0.0
 10
907.8240763511792
 20
685.1095312329079
 30
0.0
 10
907.7386013916508
 20
685.1097462896072
 30
0.0
  0
SPLINE
  5
100
330
1F
100
AcDbEntity
  8
0
  6
Continuous
 62
     7
370
    25
100
AcDbSpline
210
0.0
220
0.0
230
1.0
 70
     8
 71
     3
 72
    19
 73
    15
 74
     0
 42
0.00000001
 43
0.00000001
 40
0.0
 40
0.0
 40
0.0
 40
0.0
 40
0.0602873979279692
 40
0.1196023547075214
 40
0.1775033710185434
 40
0.2351426637323314
 40
0.2921325932269364
 40
0.3508712086415652
 40
0.4100978625665955
 40
0.4707315215304514
 40
0.5948287040804182
 40
0.7225788240942924
 40
0.8566913895440182
 40
1.0
 40
1.0
 40
1.0
 40
1.0
 10
910.5446911352407
 20
683.5857078280687
 30
0.0
 10
910.5440600396122
 20
683.6279783206745
 30
0.0
 10
910.5428080279847
 20
683.7118374790405
 30
0.0
 10
910.523926622445
 20
683.8350736371843
 30
0.0
 10
910.4964663486305
 20
683.9544470618911
 30
0.0
 10
910.4609659283276
 20
684.0702818972849
 30
0.0
 10
910.4092642892624
 20
684.1804839003656
 30
0.0
 10
910.3489064720804
 20
684.2872326078783
 30
0.0
 10
910.2781375540355
 20
684.3906691322754
 30
0.0
 10
910.1678651749096
 20
684.5214399973025
 30
0.0
 10
910.0074720674353
 20
684.6721074553675
 30
0.0
 10
909.7795708664229
 20
684.8196217462627
 30
0.0
 10
909.5204341853504
 20
684.9385881624627
 30
0.0
 10
909.3324856301593
 20
684.9891012512362
 30
0.0
 10
909.2353962634458
 20
685.0151950075559
 30
0.0
  0
LINE
  5
101
330
1F
100
AcDbEntity
  8
0
  6
Continuous
 62
     7
370
    25
100
AcDbLine
 10
907.2626398532
 20
688.4943616742
 30
0.0
 11
907.2626398532
 21
685.9302591101
 31
0.0
  0
LINE
  5
102
330
1F
100
AcDbEntity
  8
0
  6
Continuous
 62
     7
370
    25
100
AcDbLine
 10
907.2626398532
 20
685.9302591101
 30
0.0
 11
907.7450116481
 21
685.9302591101
 31
0.0
  0
SPLINE
  5
103
330
1F
100
AcDbEntity
  8
0
  6
Continuous
 62
     7
370
    25
100
AcDbSpline
210
0.0
220
0.0
230
1.0
 70
     8
 71
     3
 72
    23
 73
    19
 74
     0
 42
0.00000001
 43
0.00000001
 40
0.0
 40
0.0
 40
0.0
 40
0.0
 40
0.0723010339955062
 40
0.1397003317393853
 40
0.2022885114847745
 40
0.2605995332222026
 40
0.3131903291553326
 40
0.3617389329854285
 40
0.4057064756322235
 40
0.4455399848948725
 40
0.5188319558616086
 40
0.5897782395835772
 40
0.658867478656148
 40
0.7284304780610666
 40
0.7972827036081008
 40
0.8648153774014442
 40
0.9313637528792686
 40
1.0
 40
1.0
 40
1.0
 40
1.0
 10
907.7450116480612
 20
685.93025911012
 30
0.0
 10
907.8155231803273
 20
685.9311732198491
 30
0.0
 10
907.9517658300472
 20
685.93293946613
 30
0.0
 10
908.149068450753
 20
685.9379989337003
 30
0.0
 10
908.332211349487
 20
685.952165890082
 30
0.0
 10
908.5008783965133
 20
685.9663287747784
 30
0.0
 10
908.6548039827227
 20
685.9893564037242
 30
0.0
 10
908.7936470947277
 20
686.0167669703809
 30
0.0
 10
908.9195867448727
 20
686.0457564677442
 30
0.0
 10
909.0648199918132
 20
686.095058152088
 30
0.0
 10
909.2295581597174
 20
686.1679214096512
 30
0.0
 10
909.405176683499
 20
686.2809998922112
 30
0.0
 10
909.5599983282735
 20
686.4156841280949
 30
0.0
 10
909.6907347573461
 20
686.5710920406777
 30
0.0
 10
909.7977324042687
 20
686.7422147512106
 30
0.0
 10
909.8720494674784
 20
686.92632190649
 30
0.0
 10
909.9224432598957
 20
687.1188250654284
 30
0.0
 10
909.9269953315693
 20
687.2509810718051
 30
0.0
 10
909.929306519856
 20
687.3180796229404
 30
0.0
  0
SPLINE
  5
104
330
1F
100
AcDbEntity
  8
0
  6
Continuous
 62
     7
370
    25
100
AcDbSpline
210
0.0
220
0.0
230
1.0
 70
     8
 71
     3
 72
    23
 73
    19
 74
     0
 42
0.00000001
 43
0.00000001
 40
0.0
 40
0.0
 40
0.0
 40
0.0
 40
0.0570031325129265
 40
0.1118178691207247
 40
0.1644023722182128
 40
0.2158698048987953
 40
0.2668411100818683
 40
0.3174789632053566
 40
0.36990213627276
 40
0.4234004494436387
 40
0.4797183982994526
 40
0.5392414966442954
 40
0.6024306889434243
 40
0.6710295461473387
 40
0.7444847975608464
 40
0.8234539713786865
 40
0.9087403127306665
 40
1.0
 40
1.0
 40
1.0
 40
1.0
 10
909.929306519856
 20
687.3180796229406
 30
0.0
 10
909.9281038222931
 20
687.3624813864001
 30
0.0
 10
909.9257445996898
 20
687.4495802940631
 30
0.0
 10
909.906422765164
 20
687.5765502464207
 30
0.0
 10
909.8735825950257
 20
687.6959645378771
 30
0.0
 10
909.831401353334
 20
687.8094596471897
 30
0.0
 10
909.7724557791252
 20
687.9134867334075
 30
0.0
 10
909.7030535772919
 20
688.0116426092812
 30
0.0
 10
909.6192005709155
 20
688.100584594417
 30
0.0
 10
909.5237552848446
 20
688.1837148762808
 30
0.0
 10
909.4140212897398
 20
688.2574166541048
 30
0.0
 10
909.2900640512956
 20
688.3219669699301
 30
0.0
 10
909.1502065037145
 20
688.3739458880555
 30
0.0
 10
908.9968056923283
 20
688.4194685222901
 30
0.0
 10
908.8275003494743
 20
688.4514417653031
 30
0.0
 10
908.6442442273975
 20
688.478078079948
 30
0.0
 10
908.445536298193
 20
688.4916386331013
 30
0.0
 10
908.3080617781343
 20
688.4934337482433
 30
0.0
 10
908.2369988275484
 20
688.4943616742225
 30
0.0
  0
LINE
  5
105
330
1F
100
AcDbEntity
  8
0
  6
Continuous
 62
     7
370
    25
100
AcDbLine
 10
908.2369988275
 20
688.4943616742
 30
0.0
 11
907.2626398532
 21
688.4943616742
 31
0.0
  0
SPLINE
  5
106
330
1F
100
AcDbEntity
  8
0
  6
Continuous
 62
     7
370
    25
100
AcDbSpline
210
0.0
220
0.0
230
1.0
 70
     8
 71
     3
 72
    19
 73
    15
 74
     0
 42
0.00000001
 43
0.00000001
 40
0.0
 40
0.0
 40
0.0
 40
0.0
 40
0.1128134007444585
 40
0.22539388392073
 40
0.3395948145626989
 40
0.4596754102248653
 40
0.5217351900879321
 40
0.5839258387389158
 40
0.6481741447653685
 40
0.7138810381130618
 40
0.7810044549073865
 40
0.851450927556552
 40
0.924050692664174
 40
0.9999999999999999
 40
0.9999999999999999
 40
0.9999999999999999
 40
0.9999999999999999
 10
941.4485372890869
 20
681.93025911012
 30
0.0
 10
941.5371262528713
 20
681.9339111805464
 30
0.0
 10
941.7141212772935
 20
681.9412077812368
 30
0.0
 10
941.972712809052
 20
682.011604895235
 30
0.0
 10
942.2237534263829
 20
682.1178209854377
 30
0.0
 10
942.4204892898775
 20
682.243415283539
 30
0.0
 10
942.5701636750237
 20
682.3630228937132
 30
0.0
 10
942.6774025095515
 20
682.4649992327141
 30
0.0
 10
942.7758300488275
 20
682.5791840722717
 30
0.0
 10
942.8691833627809
 20
682.7023824629343
 30
0.0
 10
942.9548041071806
 20
682.8369481410459
 30
0.0
 10
943.0326627076267
 20
682.9822340273681
 30
0.0
 10
943.1037103591586
 20
683.1386435768817
 30
0.0
 10
943.1441881784734
 20
683.2478315520036
 30
0.0
 10
943.1648834429329
 20
683.3036565460175
 30
0.0
  0
SPLINE
  5
107
330
1F
100
AcDbEntity
  8
0
  6
Continuous
 62
     7
370
    25
100
AcDbSpline
210
0.0
220
0.0
230
1.0
 70
     8
 71
     3
 72
    15
 73
    11
 74
     0
 42
0.00000001
 43
0.00000001
 40
0.0
 40
0.0
 40
0.0
 40
0.0
 40
0.1105883385953364
 40
0.2245417540535905
 40
0.3425034940501045
 40
0.4643240984173589
 40
0.5907560327017654
 40
0.7222274753555101
 40
0.8588428362087218
 40
1.0
 40
1.0
 40
1.0
 40
1.0
 10
943.1648834429329
 20
683.3036565460175
 30
0.0
 10
943.1890017693188
 20
683.3750388076548
 30
0.0
 10
943.2379723152214
 20
683.5199754116398
 30
0.0
 10
943.3010849421261
 20
683.7448066163952
 30
0.0
 10
943.3507887117345
 20
683.9806986482533
 30
0.0
 10
943.3955049763047
 20
684.2262417721812
 30
0.0
 10
943.4260262469271
 20
684.4832468030635
 30
0.0
 10
943.4505926772888
 20
684.7509185377281
 30
0.0
 10
943.4650628188642
 20
685.0294587942662
 30
0.0
 10
943.4668565355987
 20
685.2187044884269
 30
0.0
 10
943.4677680583176
 20
685.3148744947354
 30
0.0
  0
SPLINE
  5
108
330
1F
100
AcDbEntity
  8
0
  6
Continuous
 62
     7
370
    25
100
AcDbSpline
210
0.0
220
0.0
230
1.0
 70
     8
 71
     3
 72
    27
 73
    23
 74
     0
 42
0.00000001
 43
0.00000001
 40
0.0
 40
0.0
 40
0.0
 40
0.0
 40
0.0656811979906367
 40
0.1284864641740656
 40
0.1881751303280078
 40
0.2451061306699842
 40
0.2994484245294763
 40
0.3508229360093821
 40
0.3999416805337758
 40
0.4466717436323699
 40
0.4912545333734973
 40
0.5333763442704369
 40
0.5738527549682229
 40
0.6125263117194523
 40
0.6495971364453276
 40
0.6855320415538495
 40
0.7201057860682002
 40
0.7538376629736502
 40
0.8189254160467137
 40
0.8804934616501625
 40
0.9403113338460561
 40
1.0
 40
1.0
 40
1.0
 40
1.0
 10
943.4677680583176
 20
685.3148744947354
 30
0.0
 10
943.4665104829279
 20
685.4110289462052
 30
0.0
 10
943.4640503966297
 20
685.5991276085608
 30
0.0
 10
943.4546469961699
 20
685.8745977357885
 30
0.0
 10
943.4303645401882
 20
686.1362383321523
 30
0.0
 10
943.4033951256407
 20
686.385176555385
 30
0.0
 10
943.3636300488588
 20
686.6200343901381
 30
0.0
 10
943.3207550617038
 20
686.8427779450097
 30
0.0
 10
943.2631522907548
 20
687.0506477160253
 30
0.0
 10
943.2016213765285
 20
687.246898188509
 30
0.0
 10
943.1311976153138
 20
687.4292996845109
 30
0.0
 10
943.0536759370109
 20
687.5987026247667
 30
0.0
 10
942.9708833455388
 20
687.7559248527824
 30
0.0
 10
942.8809582244891
 20
687.9005350049572
 30
0.0
 10
942.7849680917684
 20
688.0331808173255
 30
0.0
 10
942.6803794078883
 20
688.1512027477416
 30
0.0
 10
942.5713408414634
 20
688.258258674847
 30
0.0
 10
942.4186158452951
 20
688.3804588328392
 30
0.0
 10
942.2186746114655
 20
688.5050569939435
 30
0.0
 10
941.9698845603972
 20
688.6197215879099
 30
0.0
 10
941.7109802306803
 20
688.6855691139007
 30
0.0
 10
941.5359551927556
 20
688.6948529699879
 30
0.0
 10
941.4485372890869
 20
688.6994898793508
 30
0.0
  0
SPLINE
  5
109
330
1F
100
AcDbEntity
  8
0
  6
Continuous
 62
     7
370
    25
100
AcDbSpline
210
0.0
220
0.0
230
1.0
 70
     8
 71
     3
 72
    27
 73
    23
 74
     0
 42
0.00000001
 43
0.00000001
 40
0.0
 40
0.0
 40
0.0
 40
0.0
 40
0.060386619311061
 40
0.1208832485859964
 40
0.1827546186251395
 40
0.2478110297583506
 40
0.2812991000432498
 40
0.3150876241506568
 40
0.3497023955502754
 40
0.3848565811185565
 40
0.4209661972261021
 40
0.4585111882611392
 40
0.4971747221273132
 40
0.5376020478662704
 40
0.580503018420013
 40
0.6274675400267059
 40
0.6783882095592451
 40
0.733983220592561
 40
0.7937467045508348
 40
0.8577136721607318
 40
0.9266978643613872
 40
1.0
 40
1.0
 40
1.0
 40
1.0
 10
941.4485372890869
 20
688.6994898793508
 30
0.0
 10
941.3600559357455
 20
688.6948465727285
 30
0.0
 10
941.1829320372196
 20
688.6855515004909
 30
0.0
 10
940.9213367121298
 20
688.6199669208529
 30
0.0
 10
940.670583908376
 20
688.5056515701383
 30
0.0
 10
940.4711713948243
 20
688.3800461473613
 30
0.0
 10
940.318339882807
 20
688.2604157212091
 30
0.0
 10
940.2107222979457
 20
688.1566752547898
 30
0.0
 10
940.1098167614482
 20
688.0431981019551
 30
0.0
 10
940.0168620182765
 20
687.9188508680114
 30
0.0
 10
939.9298007995513
 20
687.7852157427105
 30
0.0
 10
939.8498441993783
 20
687.6412414233384
 30
0.0
 10
939.7778045886902
 20
687.4861983051092
 30
0.0
 10
939.7113256488498
 20
687.3202178812941
 30
0.0
 10
939.6528735619327
 20
687.1383185797271
 30
0.0
 10
939.6046587888355
 20
686.9377037372277
 30
0.0
 10
939.5601169531329
 20
686.7172194131382
 30
0.0
 10
939.5285849099316
 20
686.4755748235492
 30
0.0
 10
939.5005534681906
 20
686.214358472991
 30
0.0
 10
939.4825389585855
 20
685.9325817456096
 30
0.0
 10
939.4685246557987
 20
685.6307203046899
 30
0.0
 10
939.4680253086838
 20
685.4222650852553
 30
0.0
 10
939.4677680583176
 20
685.3148744947354
 30
0.0
  0
SPLINE
  5
10A
330
1F
100
AcDbEntity
  8
0
  6
Continuous
 62
     7
370
    25
100
AcDbSpline
210
0.0
220
0.0
230
1.0
 70
     8
 71
     3
 72
    27
 73
    23
 74
     0
 42
0.00000001
 43
0.00000001
 40
0.0
 40
0.0
 40
0.0
 40
0.0
 40
0.0729510658758663
 40
0.1415836941865472
 40
0.2059264601708678
 40
0.2653013571846066
 40
0.3205972327139292
 40
0.3718165030988104
 40
0.418789769709452
 40
0.4616987286157649
 40
0.5021335821035663
 40
0.5408043152926489
 40
0.578180525327968
 40
0.6142968652075143
 40
0.6496782432647881
 40
0.6842994600896395
 40
0.7183589527723608
 40
0.7520808646475975
 40
0.8176524386023873
 40
0.8797220764054381
 40
0.9399655597309875
 40
0.9999999999999999
 40
0.9999999999999999
 40
0.9999999999999999
 40
0.9999999999999999
 10
939.4677680583176
 20
685.3148744947354
 30
0.0
 10
939.4680410801863
 20
685.2080203260409
 30
0.0
 10
939.4685709620226
 20
685.0006373665
 30
0.0
 10
939.482413706199
 20
684.6992813414121
 30
0.0
 10
939.5012713793407
 20
684.4182063041156
 30
0.0
 10
939.5255943443353
 20
684.157055363624
 30
0.0
 10
939.5617153695378
 20
683.9167124778872
 30
0.0
 10
939.6021880274067
 20
683.6955246308812
 30
0.0
 10
939.6514408036792
 20
683.494662374621
 30
0.0
 10
939.7097151302323
 20
683.312747378725
 30
0.0
 10
939.7760902088459
 20
683.1466923650214
 30
0.0
 10
939.8485607543776
 20
682.9921753018732
 30
0.0
 10
939.926413835303
 20
682.8473708757343
 30
0.0
 10
940.0135433222813
 20
682.713579770879
 30
0.0
 10
940.1084348953761
 20
682.5903656815697
 30
0.0
 10
940.2089452019761
 20
682.4755477791188
 30
0.0
 10
940.3188253945295
 20
682.3731546789231
 30
0.0
 10
940.470833948914
 20
682.2503504388558
 30
0.0
 10
940.6715116047473
 20
682.1234495617597
 30
0.0
 10
940.9243583595612
 20
682.012944213573
 30
0.0
 10
941.1841719618046
 20
681.9434985988705
 30
0.0
 10
941.3605176762891
 20
681.9346671566874
 30
0.0
 10
941.4485372890869
 20
681.93025911012
 30
0.0
  0
SPLINE
  5
10B
330
1F
100
AcDbEntity
  8
0
  6
Continuous
 62
     7
370
    25
100
AcDbSpline
210
0.0
220
0.0
230
1.0
 70
     8
 71
     3
 72
    15
 73
    11
 74
     0
 42
0.00000001
 43
0.00000001
 40
0.0
 40
0.0
 40
0.0
 40
0.0
 40
0.1105883385953375
 40
0.2245417540535906
 40
0.3425034940501052
 40
0.4643240984173591
 40
0.5907560327017658
 40
0.7222274753555105
 40
0.8588428362087219
 40
1.0
 40
1.0
 40
1.0
 40
1.0
 10
895.8828321608817
 20
683.3036565460175
 30
0.0
 10
895.9069504872674
 20
683.3750388076547
 30
0.0
 10
895.9559210331703
 20
683.5199754116397
 30
0.0
 10
896.0190336600747
 20
683.7448066163952
 30
0.0
 10
896.0687374296832
 20
683.9806986482533
 30
0.0
 10
896.1134536942533
 20
684.2262417721813
 30
0.0
 10
896.1439749648758
 20
684.4832468030635
 30
0.0
 10
896.1685413952375
 20
684.7509185377281
 30
0.0
 10
896.183011536813
 20
685.0294587942662
 30
0.0
 10
896.1848052535473
 20
685.2187044884269
 30
0.0
 10
896.1857167762662
 20
685.3148744947354
 30
0.0
  0
SPLINE
  5
10C
330
1F
100
AcDbEntity
  8
0
  6
Continuous
 62
     7
370
    25
100
AcDbSpline
210
0.0
220
0.0
230
1.0
 70
     8
 71
     3
 72
    19
 73
    15
 74
     0
 42
0.00000001
 43
0.00000001
 40
0.0
 40
0.0
 40
0.0
 40
0.0
 40
0.1128134007444586
 40
0.2253938839207275
 40
0.3395948145626992
 40
0.4596754102248658
 40
0.5217351900879327
 40
0.5839258387389142
 40
0.6481741447653692
 40
0.7138810381130626
 40
0.7810044549073872
 40
0.8514509275565529
 40
0.9240506926641749
 40
0.9999999999999999
 40
0.9999999999999999
 40
0.9999999999999999
 40
0.9999999999999999
 10
894.1664860070355
 20
681.93025911012
 30
0.0
 10
894.25507497082
 20
681.9339111805464
 30
0.0
 10
894.4320699952423
 20
681.9412077812368
 30
0.0
 10
894.6906615270008
 20
682.011604895235
 30
0.0
 10
894.9417021443317
 20
682.1178209854377
 30
0.0
 10
895.1384380078263
 20
682.2434152835389
 30
0.0
 10
895.2881123929724
 20
682.3630228937132
 30
0.0
 10
895.3953512275001
 20
682.4649992327141
 30
0.0
 10
895.4937787667761
 20
682.5791840722717
 30
0.0
 10
895.5871320807296
 20
682.7023824629343
 30
0.0
 10
895.6727528251292
 20
682.8369481410459
 30
0.0
 10
895.7506114255756
 20
682.9822340273681
 30
0.0
 10
895.8216590771074
 20
683.1386435768818
 30
0.0
 10
895.8621368964222
 20
683.2478315520036
 30
0.0
 10
895.8828321608817
 20
683.3036565460175
 30
0.0
  0
SPLINE
  5
10D
330
1F
100
AcDbEntity
  8
0
  6
Continuous
 62
     7
370
    25
100
AcDbSpline
210
0.0
220
0.0
230
1.0
 70
     8
 71
     3
 72
    27
 73
    23
 74
     0
 42
0.00000001
 43
0.00000001
 40
0.0
 40
0.0
 40
0.0
 40
0.0
 40
0.0603866193110626
 40
0.1208832485859964
 40
0.1827546186251395
 40
0.2478110297583506
 40
0.2812991000432497
 40
0.3150876241506568
 40
0.3497023955502763
 40
0.3848565811185574
 40
0.4209661972261022
 40
0.4585111882611392
 40
0.4971747221273132
 40
0.5376020478662704
 40
0.580503018420013
 40
0.6274675400267059
 40
0.6783882095592453
 40
0.733983220592561
 40
0.7937467045508348
 40
0.8577136721607319
 40
0.9266978643613873
 40
1.0
 40
1.0
 40
1.0
 40
1.0
 10
894.1664860070355
 20
688.6994898793508
 30
0.0
 10
894.0780046536943
 20
688.6948465727285
 30
0.0
 10
893.9008807551683
 20
688.6855515004909
 30
0.0
 10
893.6392854300785
 20
688.6199669208529
 30
0.0
 10
893.3885326263247
 20
688.5056515701383
 30
0.0
 10
893.189120112773
 20
688.3800461473614
 30
0.0
 10
893.0362886007557
 20
688.260415721209
 30
0.0
 10
892.9286710158946
 20
688.1566752547898
 30
0.0
 10
892.8277654793969
 20
688.0431981019551
 30
0.0
 10
892.7348107362252
 20
687.9188508680114
 30
0.0
 10
892.6477495175001
 20
687.7852157427105
 30
0.0
 10
892.567792917327
 20
687.6412414233386
 30
0.0
 10
892.4957533066389
 20
687.4861983051092
 30
0.0
 10
892.4292743667985
 20
687.3202178812941
 30
0.0
 10
892.3708222798814
 20
687.1383185797272
 30
0.0
 10
892.3226075067843
 20
686.9377037372277
 30
0.0
 10
892.2780656710817
 20
686.7172194131381
 30
0.0
 10
892.2465336278805
 20
686.4755748235492
 30
0.0
 10
892.2185021861393
 20
686.214358472991
 30
0.0
 10
892.2004876765342
 20
685.9325817456097
 30
0.0
 10
892.1864733737474
 20
685.6307203046899
 30
0.0
 10
892.1859740266325
 20
685.4222650852553
 30
0.0
 10
892.1857167762662
 20
685.3148744947354
 30
0.0
  0
SPLINE
  5
10E
330
1F
100
AcDbEntity
  8
0
  6
Continuous
 62
     7
370
    25
100
AcDbSpline
210
0.0
220
0.0
230
1.0
 70
     8
 71
     3
 72
    27
 73
    23
 74
     0
 42
0.00000001
 43
0.00000001
 40
0.0
 40
0.0
 40
0.0
 40
0.0
 40
0.0656811979906367
 40
0.1284864641740656
 40
0.1881751303280078
 40
0.2451061306699842
 40
0.2994484245294763
 40
0.3508229360093825
 40
0.3999416805337759
 40
0.4466717436323699
 40
0.4912545333734973
 40
0.5333763442704369
 40
0.5738527549682236
 40
0.6125263117194523
 40
0.6495971364453286
 40
0.6855320415538506
 40
0.7201057860682002
 40
0.7538376629736502
 40
0.8189254160467137
 40
0.8804934616501625
 40
0.9403113338460563
 40
1.0
 40
1.0
 40
1.0
 40
1.0
 10
896.1857167762662
 20
685.3148744947354
 30
0.0
 10
896.1844592008767
 20
685.4110289462052
 30
0.0
 10
896.1819991145783
 20
685.5991276085608
 30
0.0
 10
896.1725957141186
 20
685.8745977357885
 30
0.0
 10
896.1483132581369
 20
686.1362383321523
 30
0.0
 10
896.1213438435894
 20
686.385176555385
 30
0.0
 10
896.0815787668075
 20
686.6200343901381
 30
0.0
 10
896.0387037796526
 20
686.8427779450097
 30
0.0
 10
895.9811010087035
 20
687.0506477160253
 30
0.0
 10
895.9195700944772
 20
687.246898188509
 30
0.0
 10
895.8491463332625
 20
687.4292996845109
 30
0.0
 10
895.7716246549595
 20
687.5987026247667
 30
0.0
 10
895.6888320634874
 20
687.7559248527823
 30
0.0
 10
895.5989069424377
 20
687.9005350049572
 30
0.0
 10
895.502916809717
 20
688.0331808173255
 30
0.0
 10
895.398328125837
 20
688.1512027477416
 30
0.0
 10
895.2892895594122
 20
688.258258674847
 30
0.0
 10
895.1365645632438
 20
688.3804588328392
 30
0.0
 10
894.9366233294144
 20
688.5050569939435
 30
0.0
 10
894.6878332783459
 20
688.6197215879099
 30
0.0
 10
894.428928948629
 20
688.6855691139007
 30
0.0
 10
894.2539039107044
 20
688.6948529699878
 30
0.0
 10
894.1664860070355
 20
688.6994898793508
 30
0.0
  0
SPLINE
  5
10F
330
1F
100
AcDbEntity
  8
0
  6
Continuous
 62
     7
370
    25
100
AcDbSpline
210
0.0
220
0.0
230
1.0
 70
     8
 71
     3
 72
    27
 73
    23
 74
     0
 42
0.00000001
 43
0.00000001
 40
0.0
 40
0.0
 40
0.0
 40
0.0
 40
0.0729510658758663
 40
0.1415836941865471
 40
0.2059264601708679
 40
0.2653013571846065
 40
0.3205972327139291
 40
0.3718165030988106
 40
0.4187897697094522
 40
0.461698728615765
 40
0.5021335821035658
 40
0.540804315292649
 40
0.578180525327968
 40
0.6142968652075143
 40
0.649678243264788
 40
0.6842994600896384
 40
0.7183589527723611
 40
0.7520808646475976
 40
0.8176524386023875
 40
0.8797220764054381
 40
0.9399655597309875
 40
1.0
 40
1.0
 40
1.0
 40
1.0
 10
892.1857167762662
 20
685.3148744947354
 30
0.0
 10
892.1859897981349
 20
685.2080203260409
 30
0.0
 10
892.1865196799713
 20
685.0006373665
 30
0.0
 10
892.2003624241478
 20
684.6992813414121
 30
0.0
 10
892.2192200972894
 20
684.4182063041156
 30
0.0
 10
892.2435430622841
 20
684.157055363624
 30
0.0
 10
892.2796640874864
 20
683.9167124778874
 30
0.0
 10
892.3201367453554
 20
683.6955246308812
 30
0.0
 10
892.3693895216278
 20
683.494662374621
 30
0.0
 10
892.4276638481809
 20
683.312747378725
 30
0.0
 10
892.4940389267946
 20
683.1466923650213
 30
0.0
 10
892.5665094723262
 20
682.9921753018732
 30
0.0
 10
892.6443625532518
 20
682.8473708757343
 30
0.0
 10
892.7314920402299
 20
682.7135797708792
 30
0.0
 10
892.8263836133248
 20
682.5903656815697
 30
0.0
 10
892.9268939199249
 20
682.4755477791188
 30
0.0
 10
893.0367741124783
 20
682.3731546789231
 30
0.0
 10
893.1887826668627
 20
682.2503504388558
 30
0.0
 10
893.389460322696
 20
682.1234495617596
 30
0.0
 10
893.6423070775099
 20
682.012944213573
 30
0.0
 10
893.9021206797532
 20
681.9434985988705
 30
0.0
 10
894.0784663942377
 20
681.9346671566874
 30
0.0
 10
894.1664860070355
 20
681.93025911012
 30
0.0
  0
SPLINE
  5
110
330
1F
100
AcDbEntity
  8
0
  6
Continuous
 62
     7
370
    25
100
AcDbSpline
210
0.0
220
0.0
230
1.0
 70
     8
 71
     3
 72
    19
 73
    15
 74
     0
 42
0.00000001
 43
0.00000001
 40
0.0
 40
0.0
 40
0.0
 40
0.0
 40
0.0748982079275957
 40
0.14859629434394
 40
0.2244712347857279
 40
0.302322742359572
 40
0.381918617989687
 40
0.4611486955215885
 40
0.5424171227241543
 40
0.6267160830665695
 40
0.7145968311855372
 40
0.8049029203553227
 40
0.9001272540718611
 40
1.0
 40
1.0
 40
1.0
 40
1.0
 10
886.0318706224201
 20
683.5552591101199
 30
0.0
 10
886.034986642491
 20
683.4834170389324
 30
0.0
 10
886.0411687534979
 20
683.3408840484664
 30
0.0
 10
886.0902124993023
 20
683.1302255998173
 30
0.0
 10
886.1689222947456
 20
682.9262917602057
 30
0.0
 10
886.2786942169449
 20
682.73074443965
 30
0.0
 10
886.4146200970372
 20
682.548001339493
 30
0.0
 10
886.5817663095598
 20
682.3887127095545
 30
0.0
 10
886.7697453672744
 20
682.2471779014098
 30
0.0
 10
886.9849176050521
 20
682.1327081107265
 30
0.0
 10
887.2199540988971
 20
682.0412912991105
 30
0.0
 10
887.4747923364222
 20
681.9783062415493
 30
0.0
 10
887.745775007732
 20
681.9366114989331
 30
0.0
 10
887.9328826471826
 20
681.9324099420322
 30
0.0
 10
888.028665494215
 20
681.93025911012
 30
0.0
  0
SPLINE
  5
111
330
1F
100
AcDbEntity
  8
0
  6
Continuous
 62
     7
370
    25
100
AcDbSpline
210
0.0
220
0.0
230
1.0
 70
     8
 71
     3
 72
    23
 73
    19
 74
     0
 42
0.00000001
 43
0.00000001
 40
0.0
 40
0.0
 40
0.0
 40
0.0
 40
0.0712686925865628
 40
0.1398117850281294
 40
0.2064974320993735
 40
0.2715352442755395
 40
0.3360818306156479
 40
0.4005283877476386
 40
0.4649838426509163
 40
0.530050305361616
 40
0.5944234089533968
 40
0.6555827099825245
 40
0.7148491056365317
 40
0.7721150638705995
 40
0.8289992113006457
 40
0.8851221627752381
 40
0.9420793532637961
 40
1.0
 40
1.0
 40
1.0
 40
1.0
 10
888.0751398531894
 20
685.3148744947354
 30
0.0
 10
888.0039952004837
 20
685.313609028753
 30
0.0
 10
887.8644267514358
 20
685.3111264932741
 30
0.0
 10
887.6599537728162
 20
685.2834933494134
 30
0.0
 10
887.4637179659884
 20
685.2450261652916
 30
0.0
 10
887.2763809682958
 20
685.1866699630631
 30
0.0
 10
887.0980218899967
 20
685.1107922710127
 30
0.0
 10
886.9276751869519
 20
685.0195133225594
 30
0.0
 10
886.7666440336587
 20
684.911615166686
 30
0.0
 10
886.6171520876973
 20
684.7884686169834
 30
0.0
 10
886.480641620274
 20
684.6557612936435
 30
0.0
 10
886.3608740775417
 20
684.5152764133345
 30
0.0
 10
886.2591654592893
 20
684.3696249097419
 30
0.0
 10
886.1772608858352
 20
684.2169569571038
 30
0.0
 10
886.1100340697009
 20
684.060505275157
 30
0.0
 10
886.0658880645478
 20
683.8963736288861
 30
0.0
 10
886.0375870095207
 20
683.7277173701584
 30
0.0
 10
886.0337867088942
 20
683.6130657165639
 30
0.0
 10
886.0318706224201
 20
683.5552591101199
 30
0.0
  0
SPLINE
  5
112
330
1F
100
AcDbEntity
  8
0
  6
Continuous
 62
     7
370
    25
100
AcDbSpline
210
0.0
220
0.0
230
1.0
 70
     8
 71
     3
 72
    23
 73
    19
 74
     0
 42
0.00000001
 43
0.00000001
 40
0.0
 40
0.0
 40
0.0
 40
0.0
 40
0.0573394259201605
 40
0.1130633316232406
 40
0.1691814487493797
 40
0.2257745596549428
 40
0.2838263038920832
 40
0.3434542790864916
 40
0.4059069615102776
 40
0.4713922597696846
 40
0.5380028337126945
 40
0.6030635561963497
 40
0.6676018307634243
 40
0.7322254428169052
 40
0.7970048098289886
 40
0.863047990034438
 40
0.9303569870570476
 40
1.0
 40
1.0
 40
1.0
 40
1.0
 10
890.0318706224202
 20
683.6305796229404
 30
0.0
 10
890.0298001114861
 20
683.6851564014279
 30
0.0
 10
890.0257174256096
 20
683.7927722749047
 30
0.0
 10
889.9998049881827
 20
683.9522386216762
 30
0.0
 10
889.9542829833163
 20
684.1063021969716
 30
0.0
 10
889.8918203619194
 20
684.2568164962229
 30
0.0
 10
889.808663875799
 20
684.400731812182
 30
0.0
 10
889.7107327443724
 20
684.5417973466118
 30
0.0
 10
889.5925747589027
 20
684.676097791404
 30
0.0
 10
889.4590602534156
 20
684.8046762965723
 30
0.0
 10
889.3135540575055
 20
684.9235694090596
 30
0.0
 10
889.1588862978385
 20
685.0287452687362
 30
0.0
 10
888.9962475274133
 20
685.1173215344772
 30
0.0
 10
888.8259819025346
 20
685.1893592381394
 30
0.0
 10
888.6484674889682
 20
685.2460163116409
 30
0.0
 10
888.4638348522216
 20
685.2855957292122
 30
0.0
 10
888.271867824225
 20
685.3105091071372
 30
0.0
 10
888.1414566910308
 20
685.313402926153
 30
0.0
 10
888.0751398531894
 20
685.3148744947354
 30
0.0
  0
SPLINE
  5
113
330
1F
100
AcDbEntity
  8
0
  6
Continuous
 62
     7
370
    25
100
AcDbSpline
210
0.0
220
0.0
230
1.0
 70
     8
 71
     3
 72
    23
 73
    19
 74
     0
 42
0.00000001
 43
0.00000001
 40
0.0
 40
0.0
 40
0.0
 40
0.0
 40
0.0765589329940486
 40
0.1491613519791132
 40
0.2188268461269977
 40
0.2855671390889806
 40
0.3503131057192119
 40
0.4141251538580784
 40
0.4771791613162282
 40
0.5403680185081842
 40
0.6022023899907507
 40
0.6620336537315638
 40
0.7199344070495785
 40
0.7759074326823253
 40
0.8311148643832997
 40
0.8866674470119634
 40
0.9425523618334867
 40
1.0
 40
1.0
 40
1.0
 40
1.0
 10
888.028665494215
 20
681.93025911012
 30
0.0
 10
888.1035234780365
 20
681.9316963865039
 30
0.0
 10
888.2493708355764
 20
681.9344966617978
 30
0.0
 10
888.4621387188815
 20
681.9592150487865
 30
0.0
 10
888.6629262585703
 20
681.9984141908853
 30
0.0
 10
888.8513440835051
 20
682.0554280099311
 30
0.0
 10
889.0295014315778
 20
682.1250279563455
 30
0.0
 10
889.1943776693868
 20
682.2145641426573
 30
0.0
 10
889.3502143027723
 20
682.3163980239127
 30
0.0
 10
889.4893322976138
 20
682.4372166674485
 30
0.0
 10
889.6160367747398
 20
682.5663126553706
 30
0.0
 10
889.7265128718808
 20
682.7029756111274
 30
0.0
 10
889.8224158460104
 20
682.8434913420404
 30
0.0
 10
889.8976866020217
 20
682.9910353070417
 30
0.0
 10
889.9578608963567
 20
683.1427768261227
 30
0.0
 10
890.0011147356481
 20
683.3001151375968
 30
0.0
 10
890.0278032276635
 20
683.4635328129193
 30
0.0
 10
890.0305024179423
 20
683.5743878325807
 30
0.0
 10
890.0318706224202
 20
683.6305796229404
 30
0.0
  0
SPLINE
  5
114
330
1F
100
AcDbEntity
  8
0
  6
Continuous
 62
     7
370
    25
100
AcDbSpline
210
0.0
220
0.0
230
1.0
 70
     8
 71
     3
 72
    23
 73
    19
 74
     0
 42
0.00000001
 43
0.00000001
 40
0.0
 40
0.0
 40
0.0
 40
0.0
 40
0.0545639495070588
 40
0.1078262027811413
 40
0.1619237085214037
 40
0.2175097010530388
 40
0.2744983327961376
 40
0.3348147646240163
 40
0.3975549470643534
 40
0.4647545773561991
 40
0.5329012097695289
 40
0.6000972138233245
 40
0.6653541614565456
 40
0.7310836277242087
 40
0.7968834939590096
 40
0.8632915901470237
 40
0.930831217509245
 40
1.0
 40
1.0
 40
1.0
 40
1.0
 10
886.4421270326766
 20
687.455900135761
 30
0.0
 10
886.4436981570478
 20
687.4141161139897
 30
0.0
 10
886.4468029245103
 20
687.3315448843549
 30
0.0
 10
886.4708146457072
 20
687.2096114763928
 30
0.0
 10
886.5066017423758
 20
687.0897905924293
 30
0.0
 10
886.5629461113497
 20
686.9749313671576
 30
0.0
 10
886.6305263589629
 20
686.8610494032988
 30
0.0
 10
886.713935447099
 20
686.7509909209806
 30
0.0
 10
886.8133389394392
 20
686.6443728984367
 30
0.0
 10
886.925401660077
 20
686.5421021756728
 30
0.0
 10
887.0474851751143
 20
686.4463335743247
 30
0.0
 10
887.1768201310729
 20
686.3631948737564
 30
0.0
 10
887.3117833113482
 20
686.2936311926564
 30
0.0
 10
887.450988040962
 20
686.2357354103148
 30
0.0
 10
887.5958530635894
 20
686.190729839245
 30
0.0
 10
887.7454907171938
 20
686.1588015045286
 30
0.0
 10
887.8999261511
 20
686.1389569403561
 30
0.0
 10
888.0045674785836
 20
686.136586606048
 30
0.0
 10
888.0575116480611
 20
686.1353873152482
 30
0.0
  0
SPLINE
  5
115
330
1F
100
AcDbEntity
  8
0
  6
Continuous
 62
     7
370
    25
100
AcDbSpline
210
0.0
220
0.0
230
1.0
 70
     8
 71
     3
 72
    23
 73
    19
 74
     0
 42
0.00000001
 43
0.00000001
 40
0.0
 40
0.0
 40
0.0
 40
0.0
 40
0.0509024376836568
 40
0.1010340427826162
 40
0.1510838170086581
 40
0.203061987555139
 40
0.2562484343627561
 40
0.3108467145046023
 40
0.3687690999693266
 40
0.4300150403860034
 40
0.4925196472738479
 40
0.5560487215256773
 40
0.6219956829149478
 40
0.6901923690829534
 40
0.7613848549885016
 40
0.8363562199507232
 40
0.9154870053271082
 40
1.0
 40
1.0
 40
1.0
 40
1.0
 10
889.6216142121636
 20
687.4719257767866
 30
0.0
 10
889.6203984462662
 20
687.509932716029
 30
0.0
 10
889.6179853252193
 20
687.5853710427612
 30
0.0
 10
889.5980994830295
 20
687.6967730206744
 30
0.0
 10
889.5652404361593
 20
687.8056406401549
 30
0.0
 10
889.5207533959974
 20
687.9128732589156
 30
0.0
 10
889.4622167222342
 20
688.0169663608267
 30
0.0
 10
889.3928128651613
 20
688.1195562762769
 30
0.0
 10
889.3085054333775
 20
688.2183351649592
 30
0.0
 10
889.2138850141997
 20
688.315604990134
 30
0.0
 10
889.1065812230271
 20
688.405625615669
 30
0.0
 10
888.9868008520795
 20
688.48479066762
 30
0.0
 10
888.8551579940672
 20
688.5520189111695
 30
0.0
 10
888.7116495369776
 20
688.6066217792333
 30
0.0
 10
888.5568039961772
 20
688.6476328641234
 30
0.0
 10
888.3913345688705
 20
688.6783445161922
 30
0.0
 10
888.2138615472443
 20
688.695654485218
 30
0.0
 10
888.0917364019532
 20
688.6981836863433
 30
0.0
 10
888.028665494215
 20
688.6994898793507
 30
0.0
  0
SPLINE
  5
116
330
1F
100
AcDbEntity
  8
0
  6
Continuous
 62
     7
370
    25
100
AcDbSpline
210
0.0
220
0.0
230
1.0
 70
     8
 71
     3
 72
    19
 73
    15
 74
     0
 42
0.00000001
 43
0.00000001
 40
0.0
 40
0.0
 40
0.0
 40
0.0
 40
0.0896899362473954
 40
0.1784940104960749
 40
0.2668377532994894
 40
0.3565581760610163
 40
0.445334249654979
 40
0.530805835037492
 40
0.6140762174402871
 40
0.697707085822803
 40
0.7791419498114598
 40
0.8553535905869738
 40
0.9285568200856573
 40
1.0
 40
1.0
 40
1.0
 40
1.0
 10
888.0575116480611
 20
686.1353873152483
 30
0.0
 10
888.1255118853072
 20
686.1373824401612
 30
0.0
 10
888.2608407256273
 20
686.1413529842608
 30
0.0
 10
888.4603363406752
 20
686.1782699528551
 30
0.0
 10
888.6543080993363
 20
686.2363406217829
 30
0.0
 10
888.8406827380579
 20
686.315791973371
 30
0.0
 10
889.0146360757037
 20
686.4155127958826
 30
0.0
 10
889.169699088791
 20
686.5349025515155
 30
0.0
 10
889.3045491295751
 20
686.6712044879805
 30
0.0
 10
889.4177848100863
 20
686.8222966840249
 30
0.0
 10
889.505578744783
 20
686.9831003143288
 30
0.0
 10
889.57392573402
 20
687.1444724122034
 30
0.0
 10
889.6138370834188
 20
687.3081346544618
 30
0.0
 10
889.6190429508185
 20
687.4177734288784
 30
0.0
 10
889.6216142121636
 20
687.4719257767866
 30
0.0
  0
SPLINE
  5
117
330
1F
100
AcDbEntity
  8
0
  6
Continuous
 62
     7
370
    25
100
AcDbSpline
210
0.0
220
0.0
230
1.0
 70
     8
 71
     3
 72
    23
 73
    19
 74
     0
 42
0.00000001
 43
0.00000001
 40
0.0
 40
0.0
 40
0.0
 40
0.0
 40
0.0752433085911252
 40
0.1472088117202486
 40
0.2164470898547692
 40
0.284025041619351
 40
0.3506554491966458
 40
0.4150313178410262
 40
0.4796298309645097
 40
0.5446516341371362
 40
0.6080442396977412
 40
0.667827565028818
 40
0.7251142466493391
 40
0.780991707910641
 40
0.8355270040618588
 40
0.889438154541582
 40
0.9440720891799446
 40
1.0
 40
1.0
 40
1.0
 40
1.0
 10
888.028665494215
 20
688.6994898793508
 30
0.0
 10
887.9725493664861
 20
688.6980008723672
 30
0.0
 10
887.8627616838869
 20
688.6950877236394
 30
0.0
 10
887.7017818641879
 20
688.6798679819298
 30
0.0
 10
887.5487021674829
 20
688.6502606292878
 30
0.0
 10
887.4019231945559
 20
688.6108578600099
 30
0.0
 10
887.2634573380519
 20
688.5576281728456
 30
0.0
 10
887.1314240704592
 20
688.4950110088208
 30
0.0
 10
887.0080704937598
 20
688.4188828591195
 30
0.0
 10
886.8919075155411
 20
688.3334858353334
 30
0.0
 10
886.7873343166448
 20
688.2395591928631
 30
0.0
 10
886.6945239128675
 20
688.1416992642214
 30
0.0
 10
886.6174310804121
 20
688.0379840823748
 30
0.0
 10
886.5519656873191
 20
687.9309935458646
 30
0.0
 10
886.5044650759442
 20
687.8175522286996
 30
0.0
 10
886.468889524206
 20
687.7011381112076
 30
0.0
 10
886.4448406293644
 20
687.5802800904838
 30
0.0
 10
886.443038595027
 20
687.4976823521029
 30
0.0
 10
886.4421270326766
 20
687.455900135761
 30
0.0
  0
ENDSEC
  0
SECTION
  2
OBJECTS
  0
DICTIONARY
  5
C
330
0
100
AcDbDictionary
281
     1
  3
ACAD_DETAILVIEWSTYLE
350
11F
  3
ACAD_GROUP
350
D
  3
ACAD_LAYOUT
350
1A
  3
ACAD_MATERIAL
350
43
  3
ACAD_MLEADERSTYLE
350
5B
  3
ACAD_MLINESTYLE
350
17
  3
ACAD_PLOTSETTINGS
350
19
  3
ACAD_PLOTSTYLENAME
350
E
  3
ACAD_SCALELIST
350
47
  3
ACAD_SECTIONVIEWSTYLE
350
120
  3
ACAD_TABLESTYLE
350
59
  3
ACAD_VISUALSTYLE
350
2A
  3
ACDB_RECOMPOSE_DATA
350
11C
  3
AcDbVariableDictionary
350
118
  0
SUN
  5
5D
330
29
100
AcDbSun
 90
        1
290
     0
 63
     7
421
 16777215
 40
1.0
291
     1
 91
  2455826
 92
 54000000
292
     0
 70
     2
 71
   256
280
     1
  0
DICTIONARY
  5
11F
102
{ACAD_REACTORS
330
C
102
}
330
C
100
AcDbDictionary
281
     1
  0
DICTIONARY
  5
D
102
{ACAD_REACTORS
330
C
102
}
330
C
100
AcDbDictionary
281
     1
  0
DICTIONARY
  5
1A
102
{ACAD_REACTORS
330
C
102
}
330
C
100
AcDbDictionary
281
     1
  3
Layout1
350
1E
  3
Layout2
350
26
  3
Model
350
22
  0
DICTIONARY
  5
43
102
{ACAD_REACTORS
330
C
102
}
330
C
100
AcDbDictionary
281
     1
  3
ByBlock
350
45
  3
ByLayer
350
44
  3
Global
350
46
  0
DICTIONARY
  5
5B
102
{ACAD_REACTORS
330
C
102
}
330
C
100
AcDbDictionary
281
     1
  3
Standard
350
5C
  0
DICTIONARY
  5
17
102
{ACAD_REACTORS
330
C
102
}
330
C
100
AcDbDictionary
281
     1
  3
Standard
350
18
  0
DICTIONARY
  5
19
102
{ACAD_REACTORS
330
C
102
}
330
C
100
AcDbDictionary
281
     1
  0
ACDBDICTIONARYWDFLT
  5
E
102
{ACAD_REACTORS
330
C
102
}
330
C
100
AcDbDictionary
281
     1
  3
Normal
350
F
100
AcDbDictionaryWithDefault
340
F
  0
DICTIONARY
  5
47
102
{ACAD_REACTORS
330
C
102
}
330
C
100
AcDbDictionary
281
     1
  3
A0
350
48
  3
A1
350
49
  3
A2
350
4A
  3
A3
350
4B
  3
A4
350
4C
  3
A5
350
4D
  3
A6
350
4E
  3
A7
350
4F
  3
A8
350
50
  3
A9
350
51
  3
B0
350
52
  3
B1
350
53
  3
B2
350
54
  3
B3
350
55
  3
B4
350
56
  3
B5
350
57
  3
B6
350
58
  0
DICTIONARY
  5
120
102
{ACAD_REACTORS
330
C
102
}
330
C
100
AcDbDictionary
281
     1
  0
DICTIONARY
  5
59
102
{ACAD_REACTORS
330
C
102
}
330
C
100
AcDbDictionary
281
     1
  3
Standard
350
5A
  0
DICTIONARY
  5
2A
102
{ACAD_REACTORS
330
C
102
}
330
C
100
AcDbDictionary
281
     1
  3
2dWireframe
350
2F
  3
Basic
350
32
  3
Brighten
350
36
  3
ColorChange
350
3A
  3
Conceptual
350
34
  3
Dim
350
35
  3
EdgeColorOff
350
3D
  3
Facepattern
350
39
  3
Flat
350
2B
  3
FlatWithEdges
350
2C
  3
Gouraud
350
2D
  3
GouraudWithEdges
350
2E
  3
Hidden
350
31
  3
JitterOff
350
3B
  3
Linepattern
350
38
  3
OverhangOff
350
3C
  3
Realistic
350
33
  3
Shaded
350
42
  3
Shaded with edges
350
41
  3
Shades of Gray
350
3E
  3
Sketchy
350
3F
  3
Thicken
350
37
  3
Wireframe
350
30
  3
X-Ray
350
40
  0
XRECORD
  5
11C
102
{ACAD_REACTORS
330
C
102
}
330
C
100
AcDbXrecord
280
     1
 90
        1
330
5A
  0
DICTIONARY
  5
118
102
{ACAD_REACTORS
330
C
102
}
330
C
100
AcDbDictionary
281
     1
  3
CANNOSCALE
350
119
  3
CENTEREXE
350
121
  3
CENTERLTYPEFILE
350
122
  3
CMLEADERSTYLE
350
11E
  3
CTABLESTYLE
350
11D
  0
LAYOUT
  5
1E
102
{ACAD_REACTORS
330
1A
102
}
330
1A
100
AcDbPlotSettings
  1

  2
none_device
  4

  6

 40
0.0
 41
0.0
 42
0.0
 43
0.0
 44
0.0
 45
0.0
 46
0.0
 47
0.0
 48
0.0
 49
0.0
140
0.0
141
0.0
142
1.0
143
1.0
 70
   688
 72
     1
 73
     0
 74
     5
  7

 75
    16
 76
     0
 77
     2
 78
   300
147
1.0
148
0.0
149
0.0
100
AcDbLayout
  1
Layout1
 70
     1
 71
     1
 10
0.0
 20
0.0
 11
420.0
 21
297.0
 12
0.0
 22
0.0
 32
0.0
 14
1.0000000000E+20
 24
1.0000000000E+20
 34
1.0000000000E+20
 15
-1.0000000000E+20
 25
-1.0000000000E+20
 35
-1.0000000000E+20
146
0.0
 13
0.0
 23
0.0
 33
0.0
 16
1.0
 26
0.0
 36
0.0
 17
0.0
 27
1.0
 37
0.0
 76
     0
330
1B
  0
LAYOUT
  5
26
102
{ACAD_REACTORS
330
1A
102
}
330
1A
100
AcDbPlotSettings
  1

  2
none_device
  4

  6

 40
0.0
 41
0.0
 42
0.0
 43
0.0
 44
0.0
 45
0.0
 46
0.0
 47
0.0
 48
0.0
 49
0.0
140
0.0
141
0.0
142
1.0
143
1.0
 70
   688
 72
     1
 73
     0
 74
     5
  7

 75
    16
 76
     0
 77
     2
 78
   300
147
1.0
148
0.0
149
0.0
100
AcDbLayout
  1
Layout2
 70
     1
 71
     2
 10
0.0
 20
0.0
 11
0.0
 21
0.0
 12
0.0
 22
0.0
 32
0.0
 14
0.0
 24
0.0
 34
0.0
 15
0.0
 25
0.0
 35
0.0
146
0.0
 13
0.0
 23
0.0
 33
0.0
 16
1.0
 26
0.0
 36
0.0
 17
0.0
 27
1.0
 37
0.0
 76
     0
330
23
  0
LAYOUT
  5
22
102
{ACAD_REACTORS
330
1A
102
}
330
1A
100
AcDbPlotSettings
  1

  2
none_device
  4
Letter_(8.50_x_11.00_Inches)
  6

 40
6.35
 41
6.35
 42
6.35000508
 43
6.35000508
 44
215.9
 45
279.4
 46
0.0
 47
0.0
 48
0.0
 49
0.0
140
0.0
141
0.0
142
1.0
143
1.0
 70
  1712
 72
     1
 73
     0
 74
     0
  7

 75
     0
 76
     0
 77
     2
 78
   300
147
1.0
148
0.0
149
0.0
100
AcDbLayout
  1
Model
 70
     1
 71
     0
 10
0.0
 20
0.0
 11
420.0
 21
297.0
 12
0.0
 22
0.0
 32
0.0
 14
0.0
 24
0.0
 34
0.0
 15
420.0
 25
297.0
 35
0.0
146
0.0
 13
0.0
 23
0.0
 33
0.0
 16
1.0
 26
0.0
 36
0.0
 17
0.0
 27
1.0
 37
0.0
 76
     0
330
1F
331
29
  0
MATERIAL
  5
45
102
{ACAD_REACTORS
330
43
102
}
330
43
100
AcDbMaterial
  1
ByBlock
 72
     1
 94
      127
  0
MATERIAL
  5
44
102
{ACAD_REACTORS
330
43
102
}
330
43
100
AcDbMaterial
  1
ByLayer
 72
     1
 94
      127
  0
MATERIAL
  5
46
102
{ACAD_REACTORS
330
43
102
}
330
43
100
AcDbMaterial
  1
Global
 72
     1
 94
      127
  0
MLEADERSTYLE
  5
5C
102
{ACAD_REACTORS
330
5B
102
}
330
5B
100
AcDbMLeaderStyle
179
     2
170
     2
171
     1
172
     0
 90
        2
 40
0.0
 41
0.0
173
     1
 91
-1056964608
340
14
 92
       -2
290
     1
 42
2.0
291
     1
 43
8.0
  3
Standard
341
0
 44
4.0
300

342
11
174
     1
178
     6
175
     1
176
     0
 93
-1056964608
 45
4.0
292
     0
297
     0
 46
4.0
343
0
 94
-1056964608
 47
1.0
 49
1.0
140
1.0
293
     1
141
0.0
294
     1
177
     0
142
1.0
295
     0
296
     0
143
3.75
271
     0
272
     9
273
     9
298
     0
  0
MLINESTYLE
  5
18
102
{ACAD_REACTORS
330
17
102
}
330
17
100
AcDbMlineStyle
  2
Standard
 70
     0
  3

 62
   256
 51
90.0
 52
90.0
 71
     2
 49
0.5
 62
   256
  6
BYLAYER
 49
-0.5
 62
   256
  6
BYLAYER
  0
ACDBPLACEHOLDER
  5
F
102
{ACAD_REACTORS
330
E
102
}
330
E
  0
SCALE
  5
48
102
{ACAD_REACTORS
330
47
102
}
330
47
100
AcDbScale
 70
     0
300
1:1
140
1.0
141
1.0
290
     1
  0
SCALE
  5
49
102
{ACAD_REACTORS
330
47
102
}
330
47
100
AcDbScale
 70
     0
300
1:2
140
1.0
141
2.0
290
     0
  0
SCALE
  5
4A
102
{ACAD_REACTORS
330
47
102
}
330
47
100
AcDbScale
 70
     0
300
1:4
140
1.0
141
4.0
290
     0
  0
SCALE
  5
4B
102
{ACAD_REACTORS
330
47
102
}
330
47
100
AcDbScale
 70
     0
300
1:5
140
1.0
141
5.0
290
     0
  0
SCALE
  5
4C
102
{ACAD_REACTORS
330
47
102
}
330
47
100
AcDbScale
 70
     0
300
1:8
140
1.0
141
8.0
290
     0
  0
SCALE
  5
4D
102
{ACAD_REACTORS
330
47
102
}
330
47
100
AcDbScale
 70
     0
300
1:10
140
1.0
141
10.0
290
     0
  0
SCALE
  5
4E
102
{ACAD_REACTORS
330
47
102
}
330
47
100
AcDbScale
 70
     0
300
1:16
140
1.0
141
16.0
290
     0
  0
SCALE
  5
4F
102
{ACAD_REACTORS
330
47
102
}
330
47
100
AcDbScale
 70
     0
300
1:20
140
1.0
141
20.0
290
     0
  0
SCALE
  5
50
102
{ACAD_REACTORS
330
47
102
}
330
47
100
AcDbScale
 70
     0
300
1:30
140
1.0
141
30.0
290
     0
  0
SCALE
  5
51
102
{ACAD_REACTORS
330
47
102
}
330
47
100
AcDbScale
 70
     0
300
1:40
140
1.0
141
40.0
290
     0
  0
SCALE
  5
52
102
{ACAD_REACTORS
330
47
102
}
330
47
100
AcDbScale
 70
     0
300
1:50
140
1.0
141
50.0
290
     0
  0
SCALE
  5
53
102
{ACAD_REACTORS
330
47
102
}
330
47
100
AcDbScale
 70
     0
300
1:100
140
1.0
141
100.0
290
     0
  0
SCALE
  5
54
102
{ACAD_REACTORS
330
47
102
}
330
47
100
AcDbScale
 70
     0
300
2:1
140
2.0
141
1.0
290
     0
  0
SCALE
  5
55
102
{ACAD_REACTORS
330
47
102
}
330
47
100
AcDbScale
 70
     0
300
4:1
140
4.0
141
1.0
290
     0
  0
SCALE
  5
56
102
{ACAD_REACTORS
330
47
102
}
330
47
100
AcDbScale
 70
     0
300
8:1
140
8.0
141
1.0
290
     0
  0
SCALE
  5
57
102
{ACAD_REACTORS
330
47
102
}
330
47
100
AcDbScale
 70
     0
300
10:1
140
10.0
141
1.0
290
     0
  0
SCALE
  5
58
102
{ACAD_REACTORS
330
47
102
}
330
47
100
AcDbScale
 70
     0
300
100:1
140
100.0
141
1.0
290
     0
  0
TABLESTYLE
  5
5A
102
{ACAD_REACTORS
330
59
102
}
102
{ACAD_XDICTIONARY
360
11A
102
}
330
59
100
AcDbTableStyle
  3
Standard
 70
     0
 71
     0
 40
0.06
 41
0.06
280
     0
281
     0
  7
Standard
140
4.5
170
     2
 62
     0
 63
   257
283
     0
 90
        4
 91
        0
  1

274
    -2
284
     1
 64
     0
275
    -2
285
     1
 65
     0
276
    -2
286
     1
 66
     0
277
    -2
287
     1
 67
     0
278
    -2
288
     1
 68
     0
279
    -2
289
     1
 69
     0
  7
Standard
140
6.0
170
     5
 62
     0
 63
   257
283
     0
 90
        4
 91
        0
  1

274
    -2
284
     1
 64
     0
275
    -2
285
     1
 65
     0
276
    -2
286
     1
 66
     0
277
    -2
287
     1
 67
     0
278
    -2
288
     1
 68
     0
279
    -2
289
     1
 69
     0
  7
Standard
140
4.5
170
     5
 62
     0
 63
   257
283
     0
 90
        4
 91
        0
  1

274
    -2
284
     1
 64
     0
275
    -2
285
     1
 65
     0
276
    -2
286
     1
 66
     0
277
    -2
287
     1
 67
     0
278
    -2
288
     1
 68
     0
279
    -2
289
     1
 69
     0
  0
VISUALSTYLE
  5
2F
102
{ACAD_REACTORS
330
2A
102
}
330
2A
100
AcDbVisualStyle
  2
2dWireframe
 70
     4
177
     3
291
     0
 70
    58
 90
        0
176
     1
 90
        2
176
     1
 90
        0
176
     1
 90
        0
176
     1
 40
0.6
176
     1
 40
30.0
176
     1
 62
     7
420
 16777215
176
     1
 90
        1
176
     1
 90
        4
176
     1
 62
     7
176
     1
 62
   257
176
     1
 90
        1
176
     1
 90
        1
176
     1
 40
1.0
176
     1
 90
        0
176
     1
 62
   257
176
     1
 40
1.0
176
     1
 90
        1
176
     1
 90
        6
176
     1
 90
        2
176
     1
 62
     7
176
     1
 90
        5
176
     1
 90
        0
176
     1
 90
        0
176
     1
290
     0
176
     1
 90
        1
176
     1
 40
0.0
176
     1
 90
        0
176
     1
290
     1
176
     1
290
     1
176
     1
290
     0
176
     1
290
     0
176
     1
290
     0
176
     1
290
     0
176
     1
290
     0
176
     1
290
     0
176
     1
290
     0
176
     1
 90
       50
176
     1
 40
0.0
176
     1
 40
1.0
176
     1
 90
        0
176
     1
 62
    18
420
        0
176
     1
 90
       50
176
     1
 90
        3
176
     1
 62
     5
420
      255
176
     1
290
     0
176
     1
 90
       50
176
     1
 90
       50
176
     1
 90
       50
176
     1
290
     0
176
     1
 90
       50
176
     1
 62
   256
176
     0
 40
1.0
176
     0
 90
        2
176
     1
  1
strokes_ogs.tif
176
     1
290
     0
176
     1
 40
1.0
176
     1
 40
1.0
176
     1
  0
VISUALSTYLE
  5
32
102
{ACAD_REACTORS
330
2A
102
}
330
2A
100
AcDbVisualStyle
  2
Basic
 70
     7
177
     3
291
     1
 70
    58
 90
        1
176
     1
 90
        0
176
     1
 90
        1
176
     1
 90
        0
176
     1
 40
0.6
176
     1
 40
30.0
176
     1
 62
     7
420
 16777215
176
     1
 90
        0
176
     1
 90
        4
176
     1
 62
     7
176
     1
 62
   257
176
     1
 90
        1
176
     1
 90
        1
176
     1
 40
1.0
176
     1
 90
        8
176
     1
 62
     7
176
     1
 40
1.0
176
     1
 90
        1
176
     1
 90
        6
176
     1
 90
        2
176
     1
 62
     7
176
     1
 90
        5
176
     1
 90
        0
176
     1
 90
        0
176
     1
290
     0
176
     1
 90
        1
176
     1
 40
0.0
176
     1
 90
        0
176
     1
290
     0
176
     1
290
     1
176
     1
290
     1
176
     1
290
     0
176
     1
290
     0
176
     1
290
     0
176
     1
290
     0
176
     1
290
     0
176
     1
290
     0
176
     1
 90
       50
176
     1
 40
0.0
176
     1
 40
1.0
176
     1
 90
        0
176
     1
 62
    18
420
        0
176
     1
 90
       50
176
     1
 90
        3
176
     1
 62
     5
420
      255
176
     1
290
     0
176
     1
 90
       50
176
     1
 90
       50
176
     1
 90
       50
176
     1
290
     0
176
     1
 90
       50
176
     1
 62
   256
176
     0
 40
1.0
176
     0
 90
        2
176
     1
  1
strokes_ogs.tif
176
     1
290
     0
176
     1
 40
1.0
176
     1
 40
1.0
176
     1
  0
VISUALSTYLE
  5
36
102
{ACAD_REACTORS
330
2A
102
}
330
2A
100
AcDbVisualStyle
  2
Brighten
 70
    12
177
     3
291
     1
 70
    58
 90
        2
176
     1
 90
        2
176
     1
 90
        0
176
     1
 90
        0
176
     1
 40
0.6
176
     1
 40
30.0
176
     1
 62
     7
420
 16777215
176
     1
 90
        1
176
     1
 90
        4
176
     1
 62
     7
176
     1
 62
   257
176
     1
 90
        1
176
     1
 90
        1
176
     1
 40
1.0
176
     1
 90
        8
176
     1
 62
     7
176
     1
 40
1.0
176
     1
 90
        1
176
     1
 90
        6
176
     1
 90
        2
176
     1
 62
     7
176
     1
 90
        5
176
     1
 90
        0
176
     1
 90
        0
176
     1
290
     0
176
     1
 90
        1
176
     1
 40
50.0
176
     1
 90
        0
176
     1
290
     0
176
     1
290
     1
176
     1
290
     1
176
     1
290
     0
176
     1
290
     0
176
     1
290
     0
176
     1
290
     0
176
     1
290
     0
176
     1
290
     0
176
     1
 90
       50
176
     1
 40
0.0
176
     1
 40
1.0
176
     1
 90
        0
176
     1
 62
    18
420
        0
176
     1
 90
       50
176
     1
 90
        3
176
     1
 62
     5
420
      255
176
     1
290
     0
176
     1
 90
       50
176
     1
 90
       50
176
     1
 90
       50
176
     1
290
     0
176
     1
 90
       50
176
     1
 62
   256
176
     0
 40
1.0
176
     0
 90
        2
176
     1
  1
strokes_ogs.tif
176
     1
290
     0
176
     1
 40
1.0
176
     1
 40
1.0
176
     1
  0
VISUALSTYLE
  5
3A
102
{ACAD_REACTORS
330
2A
102
}
330
2A
100
AcDbVisualStyle
  2
ColorChange
 70
    16
177
     3
291
     1
 70
    58
 90
        2
176
     1
 90
        2
176
     1
 90
        3
176
     1
 90
        0
176
     1
 40
0.6
176
     1
 40
30.0
176
     1
 62
     8
420
  8421504
176
     1
 90
        1
176
     1
 90
        4
176
     1
 62
     7
176
     1
 62
   257
176
     1
 90
        1
176
     1
 90
        1
176
     1
 40
1.0
176
     1
 90
        8
176
     1
 62
     8
420
  8421504
176
     1
 40
1.0
176
     1
 90
        1
176
     1
 90
        6
176
     1
 90
        2
176
     1
 62
     7
176
     1
 90
        5
176
     1
 90
        0
176
     1
 90
        0
176
     1
290
     0
176
     1
 90
        1
176
     1
 40
0.0
176
     1
 90
        0
176
     1
290
     0
176
     1
290
     1
176
     1
290
     1
176
     1
290
     0
176
     1
290
     0
176
     1
290
     0
176
     1
290
     0
176
     1
290
     0
176
     1
290
     0
176
     1
 90
       50
176
     1
 40
0.0
176
     1
 40
1.0
176
     1
 90
        0
176
     1
 62
    18
420
        0
176
     1
 90
       50
176
     1
 90
        3
176
     1
 62
     5
420
      255
176
     1
290
     0
176
     1
 90
       50
176
     1
 90
       50
176
     1
 90
       50
176
     1
290
     0
176
     1
 90
       50
176
     1
 62
   256
176
     0
 40
1.0
176
     0
 90
        2
176
     1
  1
strokes_ogs.tif
176
     1
290
     0
176
     1
 40
1.0
176
     1
 40
1.0
176
     1
  0
VISUALSTYLE
  5
34
102
{ACAD_REACTORS
330
2A
102
}
330
2A
100
AcDbVisualStyle
  2
Conceptual
 70
     9
177
     3
291
     0
 70
    58
 90
        3
176
     1
 90
        2
176
     1
 90
        0
176
     1
 90
        0
176
     1
 40
0.6
176
     1
 40
30.0
176
     1
 62
     7
420
 16777215
176
     1
 90
        2
176
     1
 90
        2
176
     1
 62
     7
176
     1
 62
   257
176
     1
 90
        1
176
     1
 90
        1
176
     1
 40
179.0
176
     1
 90
        8
176
     1
 62
     7
176
     1
 40
1.0
176
     1
 90
        1
176
     1
 90
        6
176
     1
 90
        2
176
     1
 62
     7
176
     1
 90
        3
176
     1
 90
        0
176
     1
 90
        0
176
     1
290
     0
176
     1
 90
        1
176
     1
 40
0.0
176
     1
 90
        0
176
     1
290
     0
176
     1
290
     1
176
     1
290
     1
176
     1
290
     0
176
     1
290
     0
176
     1
290
     0
176
     1
290
     0
176
     1
290
     0
176
     1
290
     0
176
     1
 90
       50
176
     1
 40
0.0
176
     1
 40
1.0
176
     1
 90
        0
176
     1
 62
    18
420
        0
176
     1
 90
       50
176
     1
 90
        3
176
     1
 62
     5
420
      255
176
     1
290
     0
176
     1
 90
       50
176
     1
 90
       50
176
     1
 90
       50
176
     1
290
     0
176
     1
 90
       50
176
     1
 62
   256
176
     0
 40
1.0
176
     0
 90
        2
176
     1
  1
strokes_ogs.tif
176
     1
290
     0
176
     1
 40
1.0
176
     1
 40
1.0
176
     1
  0
VISUALSTYLE
  5
35
102
{ACAD_REACTORS
330
2A
102
}
330
2A
100
AcDbVisualStyle
  2
Dim
 70
    11
177
     3
291
     1
 70
    58
 90
        2
176
     1
 90
        2
176
     1
 90
        0
176
     1
 90
        0
176
     1
 40
0.6
176
     1
 40
30.0
176
     1
 62
     7
420
 16777215
176
     1
 90
        1
176
     1
 90
        4
176
     1
 62
     7
176
     1
 62
   257
176
     1
 90
        1
176
     1
 90
        1
176
     1
 40
1.0
176
     1
 90
        8
176
     1
 62
     7
176
     1
 40
1.0
176
     1
 90
        1
176
     1
 90
        6
176
     1
 90
        2
176
     1
 62
     7
176
     1
 90
        5
176
     1
 90
        0
176
     1
 90
        0
176
     1
290
     0
176
     1
 90
        1
176
     1
 40
-50.0
176
     1
 90
        0
176
     1
290
     0
176
     1
290
     1
176
     1
290
     1
176
     1
290
     0
176
     1
290
     0
176
     1
290
     0
176
     1
290
     0
176
     1
290
     0
176
     1
290
     0
176
     1
 90
       50
176
     1
 40
0.0
176
     1
 40
1.0
176
     1
 90
        0
176
     1
 62
    18
420
        0
176
     1
 90
       50
176
     1
 90
        3
176
     1
 62
     5
420
      255
176
     1
290
     0
176
     1
 90
       50
176
     1
 90
       50
176
     1
 90
       50
176
     1
290
     0
176
     1
 90
       50
176
     1
 62
   256
176
     0
 40
1.0
176
     0
 90
        2
176
     1
  1
strokes_ogs.tif
176
     1
290
     0
176
     1
 40
1.0
176
     1
 40
1.0
176
     1
  0
VISUALSTYLE
  5
3D
102
{ACAD_REACTORS
330
2A
102
}
330
2A
100
AcDbVisualStyle
  2
EdgeColorOff
 70
    22
177
     3
291
     1
 70
    58
 90
        2
176
     0
 90
        2
176
     0
 90
        0
176
     0
 90
        0
176
     0
 40
0.6
176
     0
 40
30.0
176
     0
 62
     7
420
 16777215
176
     0
 90
        1
176
     0
 90
        4
176
     0
 62
     7
176
     0
 62
   257
176
     0
 90
        1
176
     0
 90
        1
176
     0
 40
1.0
176
     0
 90
        8
176
     2
 62
     7
176
     0
 40
1.0
176
     0
 90
        1
176
     0
 90
        6
176
     0
 90
        2
176
     0
 62
     7
176
     0
 90
        5
176
     0
 90
        0
176
     0
 90
        0
176
     0
290
     0
176
     0
 90
        1
176
     0
 40
0.0
176
     0
 90
        0
176
     0
290
     0
176
     0
290
     1
176
     0
290
     1
176
     0
290
     0
176
     0
290
     0
176
     0
290
     0
176
     0
290
     0
176
     0
290
     0
176
     0
290
     0
176
     0
 90
       50
176
     0
 40
0.0
176
     0
 40
1.0
176
     0
 90
        0
176
     0
 62
    18
420
        0
176
     0
 90
       50
176
     0
 90
        3
176
     0
 62
     5
420
      255
176
     0
290
     0
176
     0
 90
       50
176
     0
 90
       50
176
     0
 90
       50
176
     0
290
     0
176
     0
 90
       50
176
     0
 62
   256
176
     0
 40
1.0
176
     0
 90
        2
176
     0
  1
strokes_ogs.tif
176
     0
290
     0
176
     0
 40
1.0
176
     0
 40
1.0
176
     0
  0
VISUALSTYLE
  5
39
102
{ACAD_REACTORS
330
2A
102
}
330
2A
100
AcDbVisualStyle
  2
Facepattern
 70
    15
177
     3
291
     1
 70
    58
 90
        2
176
     1
 90
        2
176
     1
 90
        0
176
     1
 90
        0
176
     1
 40
0.6
176
     1
 40
30.0
176
     1
 62
     7
420
 16777215
176
     1
 90
        1
176
     1
 90
        4
176
     1
 62
     7
176
     1
 62
   257
176
     1
 90
        1
176
     1
 90
        1
176
     1
 40
1.0
176
     1
 90
        8
176
     1
 62
     7
176
     1
 40
1.0
176
     1
 90
        1
176
     1
 90
        6
176
     1
 90
        2
176
     1
 62
     7
176
     1
 90
        5
176
     1
 90
        0
176
     1
 90
        0
176
     1
290
     0
176
     1
 90
        1
176
     1
 40
0.0
176
     1
 90
        0
176
     1
290
     0
176
     1
290
     1
176
     1
290
     1
176
     1
290
     0
176
     1
290
     0
176
     1
290
     0
176
     1
290
     0
176
     1
290
     0
176
     1
290
     0
176
     1
 90
       50
176
     1
 40
0.0
176
     1
 40
1.0
176
     1
 90
        0
176
     1
 62
    18
420
        0
176
     1
 90
       50
176
     1
 90
        3
176
     1
 62
     5
420
      255
176
     1
290
     0
176
     1
 90
       50
176
     1
 90
       50
176
     1
 90
       50
176
     1
290
     0
176
     1
 90
       50
176
     1
 62
   256
176
     0
 40
1.0
176
     0
 90
        2
176
     1
  1
strokes_ogs.tif
176
     1
290
     0
176
     1
 40
1.0
176
     1
 40
1.0
176
     1
  0
VISUALSTYLE
  5
2B
102
{ACAD_REACTORS
330
2A
102
}
330
2A
100
AcDbVisualStyle
  2
Flat
 70
     0
177
     3
291
     1
 70
    58
 90
        2
176
     1
 90
        1
176
     1
 90
        1
176
     1
 90
        2
176
     1
 40
0.6
176
     1
 40
30.0
176
     1
 62
     7
420
 16777215
176
     1
 90
        0
176
     1
 90
        0
176
     1
 62
     7
176
     1
 62
   257
176
     1
 90
        1
176
     1
 90
        1
176
     1
 40
1.0
176
     1
 90
        8
176
     1
 62
     7
176
     1
 40
1.0
176
     1
 90
        1
176
     1
 90
        6
176
     1
 90
        2
176
     1
 62
     7
176
     1
 90
        5
176
     1
 90
        0
176
     1
 90
        0
176
     1
290
     0
176
     1
 90
       13
176
     1
 40
0.0
176
     1
 90
        0
176
     1
290
     0
176
     1
290
     1
176
     1
290
     1
176
     1
290
     0
176
     1
290
     0
176
     1
290
     0
176
     1
290
     0
176
     1
290
     0
176
     1
290
     0
176
     1
 90
       50
176
     1
 40
0.0
176
     1
 40
1.0
176
     1
 90
        0
176
     1
 62
    18
420
        0
176
     1
 90
       50
176
     1
 90
        3
176
     1
 62
     5
420
      255
176
     1
290
     0
176
     1
 90
       50
176
     1
 90
       50
176
     1
 90
       50
176
     1
290
     0
176
     1
 90
       50
176
     1
 62
   256
176
     0
 40
1.0
176
     0
 90
        2
176
     1
  1
strokes_ogs.tif
176
     1
290
     0
176
     1
 40
1.0
176
     1
 40
1.0
176
     1
  0
VISUALSTYLE
  5
2C
102
{ACAD_REACTORS
330
2A
102
}
330
2A
100
AcDbVisualStyle
  2
FlatWithEdges
 70
     1
177
     3
291
     1
 70
    58
 90
        2
176
     1
 90
        1
176
     1
 90
        1
176
     1
 90
        2
176
     1
 40
0.6
176
     1
 40
30.0
176
     1
 62
     7
420
 16777215
176
     1
 90
        1
176
     1
 90
        0
176
     1
 62
     7
176
     1
 62
   257
176
     1
 90
        1
176
     1
 90
        1
176
     1
 40
1.0
176
     1
 90
        0
176
     1
 62
   257
176
     1
 40
1.0
176
     1
 90
        1
176
     1
 90
        6
176
     1
 90
        2
176
     1
 62
     7
176
     1
 90
        5
176
     1
 90
        0
176
     1
 90
        0
176
     1
290
     0
176
     1
 90
       13
176
     1
 40
0.0
176
     1
 90
        0
176
     1
290
     0
176
     1
290
     1
176
     1
290
     1
176
     1
290
     0
176
     1
290
     0
176
     1
290
     0
176
     1
290
     0
176
     1
290
     0
176
     1
290
     0
176
     1
 90
       50
176
     1
 40
0.0
176
     1
 40
1.0
176
     1
 90
        0
176
     1
 62
    18
420
        0
176
     1
 90
       50
176
     1
 90
        3
176
     1
 62
     5
420
      255
176
     1
290
     0
176
     1
 90
       50
176
     1
 90
       50
176
     1
 90
       50
176
     1
290
     0
176
     1
 90
       50
176
     1
 62
   256
176
     0
 40
1.0
176
     0
 90
        2
176
     1
  1
strokes_ogs.tif
176
     1
290
     0
176
     1
 40
1.0
176
     1
 40
1.0
176
     1
  0
VISUALSTYLE
  5
2D
102
{ACAD_REACTORS
330
2A
102
}
330
2A
100
AcDbVisualStyle
  2
Gouraud
 70
     2
177
     3
291
     1
 70
    58
 90
        2
176
     1
 90
        2
176
     1
 90
        1
176
     1
 90
        2
176
     1
 40
0.6
176
     1
 40
30.0
176
     1
 62
     7
420
 16777215
176
     1
 90
        0
176
     1
 90
        0
176
     1
 62
     7
176
     1
 62
   257
176
     1
 90
        1
176
     1
 90
        1
176
     1
 40
1.0
176
     1
 90
        0
176
     1
 62
     7
176
     1
 40
1.0
176
     1
 90
        1
176
     1
 90
        6
176
     1
 90
        2
176
     1
 62
     7
176
     1
 90
        5
176
     1
 90
        0
176
     1
 90
        0
176
     1
290
     0
176
     1
 90
       13
176
     1
 40
0.0
176
     1
 90
        0
176
     1
290
     0
176
     1
290
     1
176
     1
290
     1
176
     1
290
     0
176
     1
290
     0
176
     1
290
     0
176
     1
290
     0
176
     1
290
     0
176
     1
290
     0
176
     1
 90
       50
176
     1
 40
0.0
176
     1
 40
1.0
176
     1
 90
        0
176
     1
 62
    18
420
        0
176
     1
 90
       50
176
     1
 90
        3
176
     1
 62
     5
420
      255
176
     1
290
     0
176
     1
 90
       50
176
     1
 90
       50
176
     1
 90
       50
176
     1
290
     0
176
     1
 90
       50
176
     1
 62
   256
176
     0
 40
1.0
176
     0
 90
        2
176
     1
  1
strokes_ogs.tif
176
     1
290
     0
176
     1
 40
1.0
176
     1
 40
1.0
176
     1
  0
VISUALSTYLE
  5
2E
102
{ACAD_REACTORS
330
2A
102
}
330
2A
100
AcDbVisualStyle
  2
GouraudWithEdges
 70
     3
177
     3
291
     1
 70
    58
 90
        2
176
     1
 90
        2
176
     1
 90
        1
176
     1
 90
        2
176
     1
 40
0.6
176
     1
 40
30.0
176
     1
 62
     7
420
 16777215
176
     1
 90
        1
176
     1
 90
        0
176
     1
 62
     7
176
     1
 62
   257
176
     1
 90
        1
176
     1
 90
        1
176
     1
 40
1.0
176
     1
 90
        0
176
     1
 62
   257
176
     1
 40
1.0
176
     1
 90
        1
176
     1
 90
        6
176
     1
 90
        2
176
     1
 62
     7
176
     1
 90
        5
176
     1
 90
        0
176
     1
 90
        0
176
     1
290
     0
176
     1
 90
       13
176
     1
 40
0.0
176
     1
 90
        0
176
     1
290
     0
176
     1
290
     1
176
     1
290
     1
176
     1
290
     0
176
     1
290
     0
176
     1
290
     0
176
     1
290
     0
176
     1
290
     0
176
     1
290
     0
176
     1
 90
       50
176
     1
 40
0.0
176
     1
 40
1.0
176
     1
 90
        0
176
     1
 62
    18
420
        0
176
     1
 90
       50
176
     1
 90
        3
176
     1
 62
     5
420
      255
176
     1
290
     0
176
     1
 90
       50
176
     1
 90
       50
176
     1
 90
       50
176
     1
290
     0
176
     1
 90
       50
176
     1
 62
   256
176
     0
 40
1.0
176
     0
 90
        2
176
     1
  1
strokes_ogs.tif
176
     1
290
     0
176
     1
 40
1.0
176
     1
 40
1.0
176
     1
  0
VISUALSTYLE
  5
31
102
{ACAD_REACTORS
330
2A
102
}
330
2A
100
AcDbVisualStyle
  2
Hidden
 70
     6
177
     3
291
     0
 70
    58
 90
        1
176
     1
 90
        2
176
     1
 90
        2
176
     1
 90
        0
176
     1
 40
0.6
176
     1
 40
30.0
176
     1
 62
     7
420
 16777215
176
     1
 90
        2
176
     1
 90
        2
176
     1
 62
     7
176
     1
 62
   257
176
     1
 90
        2
176
     1
 90
        1
176
     1
 40
40.0
176
     1
 90
        0
176
     1
 62
   257
176
     1
 40
1.0
176
     1
 90
        1
176
     1
 90
        6
176
     1
 90
        2
176
     1
 62
     7
176
     1
 90
        3
176
     1
 90
        0
176
     1
 90
        0
176
     1
290
     0
176
     1
 90
        1
176
     1
 40
0.0
176
     1
 90
        0
176
     1
290
     0
176
     1
290
     1
176
     1
290
     1
176
     1
290
     0
176
     1
290
     0
176
     1
290
     0
176
     1
290
     0
176
     1
290
     0
176
     1
290
     0
176
     1
 90
       50
176
     1
 40
0.0
176
     1
 40
1.0
176
     1
 90
        0
176
     1
 62
    18
420
        0
176
     1
 90
       50
176
     1
 90
        3
176
     1
 62
     5
420
      255
176
     1
290
     0
176
     1
 90
       50
176
     1
 90
       50
176
     1
 90
       50
176
     1
290
     0
176
     1
 90
       50
176
     1
 62
   256
176
     0
 40
1.0
176
     0
 90
        2
176
     1
  1
strokes_ogs.tif
176
     1
290
     0
176
     1
 40
1.0
176
     1
 40
1.0
176
     1
  0
VISUALSTYLE
  5
3B
102
{ACAD_REACTORS
330
2A
102
}
330
2A
100
AcDbVisualStyle
  2
JitterOff
 70
    20
177
     3
291
     1
 70
    58
 90
        2
176
     0
 90
        2
176
     0
 90
        0
176
     0
 90
        0
176
     0
 40
0.6
176
     0
 40
30.0
176
     0
 62
     7
420
 16777215
176
     0
 90
        1
176
     0
 90
        4
176
     0
 62
     7
176
     0
 62
   257
176
     0
 90
        1
176
     0
 90
        1
176
     0
 40
1.0
176
     0
 90
       10
176
     2
 62
     7
176
     0
 40
1.0
176
     0
 90
        1
176
     0
 90
        6
176
     0
 90
        2
176
     0
 62
     7
176
     0
 90
        5
176
     0
 90
        0
176
     0
 90
        0
176
     0
290
     0
176
     0
 90
        1
176
     0
 40
0.0
176
     0
 90
        0
176
     0
290
     0
176
     0
290
     1
176
     0
290
     1
176
     0
290
     0
176
     0
290
     0
176
     0
290
     0
176
     0
290
     0
176
     0
290
     0
176
     0
290
     0
176
     0
 90
       50
176
     0
 40
0.0
176
     0
 40
1.0
176
     0
 90
        0
176
     0
 62
    18
420
        0
176
     0
 90
       50
176
     0
 90
        3
176
     0
 62
     5
420
      255
176
     0
290
     0
176
     0
 90
       50
176
     0
 90
       50
176
     0
 90
       50
176
     0
290
     0
176
     0
 90
       50
176
     0
 62
   256
176
     0
 40
1.0
176
     0
 90
        2
176
     0
  1
strokes_ogs.tif
176
     0
290
     0
176
     0
 40
1.0
176
     0
 40
1.0
176
     0
  0
VISUALSTYLE
  5
38
102
{ACAD_REACTORS
330
2A
102
}
330
2A
100
AcDbVisualStyle
  2
Linepattern
 70
    14
177
     3
291
     1
 70
    58
 90
        2
176
     1
 90
        2
176
     1
 90
        0
176
     1
 90
        0
176
     1
 40
0.6
176
     1
 40
30.0
176
     1
 62
     7
420
 16777215
176
     1
 90
        1
176
     1
 90
        4
176
     1
 62
     7
176
     1
 62
   257
176
     1
 90
        7
176
     1
 90
        7
176
     1
 40
1.0
176
     1
 90
        8
176
     1
 62
     7
176
     1
 40
1.0
176
     1
 90
        1
176
     1
 90
        6
176
     1
 90
        2
176
     1
 62
     7
176
     1
 90
        5
176
     1
 90
        0
176
     1
 90
        0
176
     1
290
     0
176
     1
 90
        1
176
     1
 40
0.0
176
     1
 90
        0
176
     1
290
     0
176
     1
290
     1
176
     1
290
     1
176
     1
290
     0
176
     1
290
     0
176
     1
290
     0
176
     1
290
     0
176
     1
290
     0
176
     1
290
     0
176
     1
 90
       50
176
     1
 40
0.0
176
     1
 40
1.0
176
     1
 90
        0
176
     1
 62
    18
420
        0
176
     1
 90
       50
176
     1
 90
        3
176
     1
 62
     5
420
      255
176
     1
290
     0
176
     1
 90
       50
176
     1
 90
       50
176
     1
 90
       50
176
     1
290
     0
176
     1
 90
       50
176
     1
 62
   256
176
     0
 40
1.0
176
     0
 90
        2
176
     1
  1
strokes_ogs.tif
176
     1
290
     0
176
     1
 40
1.0
176
     1
 40
1.0
176
     1
  0
VISUALSTYLE
  5
3C
102
{ACAD_REACTORS
330
2A
102
}
330
2A
100
AcDbVisualStyle
  2
OverhangOff
 70
    21
177
     3
291
     1
 70
    58
 90
        2
176
     0
 90
        2
176
     0
 90
        0
176
     0
 90
        0
176
     0
 40
0.6
176
     0
 40
30.0
176
     0
 62
     7
420
 16777215
176
     0
 90
        1
176
     0
 90
        4
176
     0
 62
     7
176
     0
 62
   257
176
     0
 90
        1
176
     0
 90
        1
176
     0
 40
1.0
176
     0
 90
        9
176
     2
 62
     7
176
     0
 40
1.0
176
     0
 90
        1
176
     0
 90
        6
176
     0
 90
        2
176
     0
 62
     7
176
     0
 90
        5
176
     0
 90
        0
176
     0
 90
        0
176
     0
290
     0
176
     0
 90
        1
176
     0
 40
0.0
176
     0
 90
        0
176
     0
290
     0
176
     0
290
     1
176
     0
290
     1
176
     0
290
     0
176
     0
290
     0
176
     0
290
     0
176
     0
290
     0
176
     0
290
     0
176
     0
290
     0
176
     0
 90
       50
176
     0
 40
0.0
176
     0
 40
1.0
176
     0
 90
        0
176
     0
 62
    18
420
        0
176
     0
 90
       50
176
     0
 90
        3
176
     0
 62
     5
420
      255
176
     0
290
     0
176
     0
 90
       50
176
     0
 90
       50
176
     0
 90
       50
176
     0
290
     0
176
     0
 90
       50
176
     0
 62
   256
176
     0
 40
1.0
176
     0
 90
        2
176
     0
  1
strokes_ogs.tif
176
     0
290
     0
176
     0
 40
1.0
176
     0
 40
1.0
176
     0
  0
VISUALSTYLE
  5
33
102
{ACAD_REACTORS
330
2A
102
}
330
2A
100
AcDbVisualStyle
  2
Realistic
 70
     8
177
     3
291
     0
 70
    58
 90
        2
176
     1
 90
        3
176
     1
 90
        0
176
     1
 90
        2
176
     1
 40
0.6
176
     1
 40
30.0
176
     1
 62
     7
420
 16777215
176
     1
 90
        0
176
     1
 90
        0
176
     1
 62
     7
176
     1
 62
   257
176
     1
 90
        1
176
     1
 90
        1
176
     1
 40
1.0
176
     1
 90
        8
176
     1
 62
   257
176
     1
 40
1.0
176
     1
 90
        1
176
     1
 90
        6
176
     1
 90
        2
176
     1
 62
     7
176
     1
 90
        3
176
     1
 90
        0
176
     1
 90
        0
176
     1
290
     0
176
     1
 90
       13
176
     1
 40
0.0
176
     1
 90
        0
176
     1
290
     0
176
     1
290
     1
176
     1
290
     1
176
     1
290
     0
176
     1
290
     0
176
     1
290
     0
176
     1
290
     0
176
     1
290
     0
176
     1
290
     0
176
     1
 90
       50
176
     1
 40
0.0
176
     1
 40
1.0
176
     1
 90
        0
176
     1
 62
    18
420
        0
176
     1
 90
       50
176
     1
 90
        3
176
     1
 62
     5
420
      255
176
     1
290
     0
176
     1
 90
       50
176
     1
 90
       50
176
     1
 90
       50
176
     1
290
     0
176
     1
 90
       50
176
     1
 62
   256
176
     0
 40
1.0
176
     0
 90
        2
176
     1
  1
strokes_ogs.tif
176
     1
290
     0
176
     1
 40
1.0
176
     1
 40
1.0
176
     1
  0
VISUALSTYLE
  5
42
102
{ACAD_REACTORS
330
2A
102
}
330
2A
100
AcDbVisualStyle
  2
Shaded
 70
    27
177
     3
291
     0
 70
    58
 90
        2
176
     1
 90
        2
176
     1
 90
        1
176
     1
 90
        2
176
     1
 40
0.6
176
     1
 40
30.0
176
     1
 62
     7
420
 16777215
176
     1
 90
        0
176
     1
 90
        4
176
     1
 62
     7
176
     1
 62
   257
176
     1
 90
        1
176
     1
 90
        1
176
     1
 40
1.0
176
     1
 90
        8
176
     1
 62
   257
176
     1
 40
1.0
176
     1
 90
        1
176
     1
 90
        6
176
     1
 90
        2
176
     1
 62
     8
420
  7895160
176
     1
 90
        3
176
     1
 90
        0
176
     1
 90
        0
176
     1
290
     0
176
     1
 90
        5
176
     1
 40
0.0
176
     1
 90
        0
176
     1
290
     0
176
     1
290
     1
176
     1
290
     1
176
     1
290
     0
176
     1
290
     0
176
     1
290
     0
176
     1
290
     0
176
     1
290
     0
176
     1
290
     0
176
     1
 90
       50
176
     1
 40
0.0
176
     1
 40
1.0
176
     1
 90
        0
176
     1
 62
    18
420
        0
176
     1
 90
       50
176
     1
 90
        3
176
     1
 62
     5
420
      255
176
     1
290
     0
176
     1
 90
       50
176
     1
 90
       50
176
     1
 90
       50
176
     1
290
     0
176
     1
 90
       50
176
     1
 62
   256
176
     0
 40
1.0
176
     0
 90
        2
176
     1
  1
strokes_ogs.tif
176
     1
290
     0
176
     1
 40
1.0
176
     1
 40
1.0
176
     1
  0
VISUALSTYLE
  5
41
102
{ACAD_REACTORS
330
2A
102
}
330
2A
100
AcDbVisualStyle
  2
Shaded with edges
 70
    26
177
     3
291
     0
 70
    58
 90
        2
176
     1
 90
        2
176
     1
 90
        1
176
     1
 90
        2
176
     1
 40
0.6
176
     1
 40
30.0
176
     1
 62
     7
420
 16777215
176
     1
 90
        1
176
     1
 90
       10
176
     1
 62
     7
176
     1
 62
   257
176
     1
 90
        2
176
     1
 90
        1
176
     1
 40
1.0
176
     1
 90
        8
176
     1
 62
   257
176
     1
 40
1.0
176
     1
 90
        1
176
     1
 90
        6
176
     1
 90
        2
176
     1
 62
     7
176
     1
 90
        3
176
     1
 90
        0
176
     1
 90
        0
176
     1
290
     0
176
     1
 90
        5
176
     1
 40
0.0
176
     1
 90
        0
176
     1
290
     0
176
     1
290
     1
176
     1
290
     1
176
     1
290
     0
176
     1
290
     0
176
     1
290
     0
176
     1
290
     0
176
     1
290
     0
176
     1
290
     0
176
     1
 90
       50
176
     1
 40
0.0
176
     1
 40
1.0
176
     1
 90
        0
176
     1
 62
    18
420
        0
176
     1
 90
       50
176
     1
 90
        3
176
     1
 62
     5
420
      255
176
     1
290
     0
176
     1
 90
       50
176
     1
 90
       50
176
     1
 90
       50
176
     1
290
     0
176
     1
 90
       50
176
     1
 62
   256
176
     0
 40
1.0
176
     0
 90
        2
176
     1
  1
strokes_ogs.tif
176
     1
290
     0
176
     1
 40
1.0
176
     1
 40
1.0
176
     1
  0
VISUALSTYLE
  5
3E
102
{ACAD_REACTORS
330
2A
102
}
330
2A
100
AcDbVisualStyle
  2
Shades of Gray
 70
    23
177
     3
291
     0
 70
    58
 90
        2
176
     1
 90
        2
176
     1
 90
        3
176
     1
 90
        0
176
     1
 40
0.6
176
     1
 40
30.0
176
     1
 62
     7
420
 16777215
176
     1
 90
        2
176
     1
 90
        2
176
     1
 62
     7
176
     1
 62
     7
176
     1
 90
        1
176
     1
 90
        1
176
     1
 40
40.0
176
     1
 90
        8
176
     1
 62
     7
176
     1
 40
1.0
176
     1
 90
        1
176
     1
 90
        6
176
     1
 90
        2
176
     1
 62
     7
176
     1
 90
        3
176
     1
 90
        0
176
     1
 90
        0
176
     1
290
     0
176
     1
 90
        1
176
     1
 40
0.0
176
     1
 90
        0
176
     1
290
     0
176
     1
290
     1
176
     1
290
     1
176
     1
290
     0
176
     1
290
     0
176
     1
290
     0
176
     1
290
     0
176
     1
290
     0
176
     1
290
     0
176
     1
 90
       50
176
     1
 40
0.0
176
     1
 40
1.0
176
     1
 90
        0
176
     1
 62
    18
420
        0
176
     1
 90
       50
176
     1
 90
        3
176
     1
 62
     5
420
      255
176
     1
290
     0
176
     1
 90
       50
176
     1
 90
       50
176
     1
 90
       50
176
     1
290
     0
176
     1
 90
       50
176
     1
 62
   256
176
     0
 40
1.0
176
     0
 90
        2
176
     1
  1
strokes_ogs.tif
176
     1
290
     0
176
     1
 40
1.0
176
     1
 40
1.0
176
     1
  0
VISUALSTYLE
  5
3F
102
{ACAD_REACTORS
330
2A
102
}
330
2A
100
AcDbVisualStyle
  2
Sketchy
 70
    24
177
     3
291
     0
 70
    58
 90
        1
176
     1
 90
        2
176
     1
 90
        2
176
     1
 90
        0
176
     1
 40
0.6
176
     1
 40
30.0
176
     1
 62
     7
420
 16777215
176
     1
 90
        2
176
     1
 90
        2
176
     1
 62
     7
176
     1
 62
     7
176
     1
 90
        1
176
     1
 90
        1
176
     1
 40
40.0
176
     1
 90
       11
176
     1
 62
     7
176
     1
 40
1.0
176
     1
 90
        1
176
     1
 90
        6
176
     1
 90
        2
176
     1
 62
     7
176
     1
 90
        6
176
     1
 90
        0
176
     1
 90
        0
176
     1
290
     0
176
     1
 90
        1
176
     1
 40
0.0
176
     1
 90
        0
176
     1
290
     0
176
     1
290
     1
176
     1
290
     1
176
     1
290
     0
176
     1
290
     0
176
     1
290
     0
176
     1
290
     0
176
     1
290
     0
176
     1
290
     0
176
     1
 90
       50
176
     1
 40
0.0
176
     1
 40
1.0
176
     1
 90
        0
176
     1
 62
    18
420
        0
176
     1
 90
       50
176
     1
 90
        3
176
     1
 62
     5
420
      255
176
     1
290
     0
176
     1
 90
       50
176
     1
 90
       50
176
     1
 90
       50
176
     1
290
     0
176
     1
 90
       50
176
     1
 62
   256
176
     0
 40
1.0
176
     0
 90
        2
176
     1
  1
strokes_ogs.tif
176
     1
290
     0
176
     1
 40
1.0
176
     1
 40
1.0
176
     1
  0
VISUALSTYLE
  5
37
102
{ACAD_REACTORS
330
2A
102
}
330
2A
100
AcDbVisualStyle
  2
Thicken
 70
    13
177
     3
291
     1
 70
    58
 90
        2
176
     1
 90
        2
176
     1
 90
        0
176
     1
 90
        0
176
     1
 40
0.6
176
     1
 40
30.0
176
     1
 62
     7
420
 16777215
176
     1
 90
        1
176
     1
 90
        4
176
     1
 62
     7
176
     1
 62
   257
176
     1
 90
        1
176
     1
 90
        1
176
     1
 40
1.0
176
     1
 90
       12
176
     1
 62
     7
176
     1
 40
1.0
176
     1
 90
        1
176
     1
 90
        6
176
     1
 90
        2
176
     1
 62
     7
176
     1
 90
        5
176
     1
 90
        0
176
     1
 90
        0
176
     1
290
     0
176
     1
 90
        1
176
     1
 40
0.0
176
     1
 90
        0
176
     1
290
     0
176
     1
290
     1
176
     1
290
     1
176
     1
290
     0
176
     1
290
     0
176
     1
290
     0
176
     1
290
     0
176
     1
290
     0
176
     1
290
     0
176
     1
 90
       50
176
     1
 40
0.0
176
     1
 40
1.0
176
     1
 90
        0
176
     1
 62
    18
420
        0
176
     1
 90
       50
176
     1
 90
        3
176
     1
 62
     5
420
      255
176
     1
290
     0
176
     1
 90
       50
176
     1
 90
       50
176
     1
 90
       50
176
     1
290
     0
176
     1
 90
       50
176
     1
 62
   256
176
     0
 40
1.0
176
     0
 90
        2
176
     1
  1
strokes_ogs.tif
176
     1
290
     0
176
     1
 40
1.0
176
     1
 40
1.0
176
     1
  0
VISUALSTYLE
  5
30
102
{ACAD_REACTORS
330
2A
102
}
330
2A
100
AcDbVisualStyle
  2
Wireframe
 70
     5
177
     3
291
     0
 70
    58
 90
        0
176
     1
 90
        2
176
     1
 90
        0
176
     1
 90
        0
176
     1
 40
0.6
176
     1
 40
30.0
176
     1
 62
     7
420
 16777215
176
     1
 90
        1
176
     1
 90
        4
176
     1
 62
     7
176
     1
 62
   257
176
     1
 90
        1
176
     1
 90
        1
176
     1
 40
1.0
176
     1
 90
        0
176
     1
 62
   257
176
     1
 40
1.0
176
     1
 90
        1
176
     1
 90
        6
176
     1
 90
        2
176
     1
 62
     7
176
     1
 90
        3
176
     1
 90
        0
176
     1
 90
        0
176
     1
290
     0
176
     1
 90
        1
176
     1
 40
0.0
176
     1
 90
        0
176
     1
290
     0
176
     1
290
     1
176
     1
290
     1
176
     1
290
     0
176
     1
290
     0
176
     1
290
     0
176
     1
290
     0
176
     1
290
     0
176
     1
290
     0
176
     1
 90
       50
176
     1
 40
0.0
176
     1
 40
1.0
176
     1
 90
        0
176
     1
 62
    18
420
        0
176
     1
 90
       50
176
     1
 90
        3
176
     1
 62
     5
420
      255
176
     1
290
     0
176
     1
 90
       50
176
     1
 90
       50
176
     1
 90
       50
176
     1
290
     0
176
     1
 90
       50
176
     1
 62
   256
176
     0
 40
1.0
176
     0
 90
        2
176
     1
  1
strokes_ogs.tif
176
     1
290
     0
176
     1
 40
1.0
176
     1
 40
1.0
176
     1
  0
VISUALSTYLE
  5
40
102
{ACAD_REACTORS
330
2A
102
}
330
2A
100
AcDbVisualStyle
  2
X-Ray
 70
    25
177
     3
291
     0
 70
    58
 90
        2
176
     1
 90
        2
176
     1
 90
        1
176
     1
 90
        1
176
     1
 40
0.5
176
     1
 40
30.0
176
     1
 62
     7
420
 16777215
176
     1
 90
        1
176
     1
 90
        0
176
     1
 62
     7
176
     1
 62
   257
176
     1
 90
        1
176
     1
 90
        1
176
     1
 40
1.0
176
     1
 90
        8
176
     1
 62
     7
176
     1
 40
1.0
176
     1
 90
        1
176
     1
 90
        6
176
     1
 90
        2
176
     1
 62
     7
176
     1
 90
        3
176
     1
 90
        0
176
     1
 90
        0
176
     1
290
     0
176
     1
 90
       13
176
     1
 40
0.0
176
     1
 90
        0
176
     1
290
     0
176
     1
290
     1
176
     1
290
     1
176
     1
290
     0
176
     1
290
     0
176
     1
290
     0
176
     1
290
     0
176
     1
290
     0
176
     1
290
     0
176
     1
 90
       50
176
     1
 40
0.0
176
     1
 40
1.0
176
     1
 90
        0
176
     1
 62
    18
420
        0
176
     1
 90
       50
176
     1
 90
        3
176
     1
 62
     5
420
      255
176
     1
290
     0
176
     1
 90
       50
176
     1
 90
       50
176
     1
 90
       50
176
     1
290
     0
176
     1
 90
       50
176
     1
 62
   256
176
     0
 40
1.0
176
     0
 90
        2
176
     1
  1
strokes_ogs.tif
176
     1
290
     0
176
     1
 40
1.0
176
     1
 40
1.0
176
     1
  0
DICTIONARYVAR
  5
119
102
{ACAD_REACTORS
330
118
102
}
330
118
100
DictionaryVariables
280
     0
  1
1:1
  0
DICTIONARYVAR
  5
121
102
{ACAD_REACTORS
330
118
102
}
330
118
100
DictionaryVariables
280
     0
  1
3.500000
  0
DICTIONARYVAR
  5
122
102
{ACAD_REACTORS
330
118
102
}
330
118
100
DictionaryVariables
280
     0
  1
acadiso.lin
  0
DICTIONARYVAR
  5
11E
102
{ACAD_REACTORS
330
118
102
}
330
118
100
DictionaryVariables
280
     0
  1
Standard
  0
DICTIONARYVAR
  5
11D
102
{ACAD_REACTORS
330
118
102
}
330
118
100
DictionaryVariables
280
     0
  1
Standard
  0
DICTIONARY
  5
11A
330
5A
100
AcDbDictionary
280
     1
281
     1
  3
ACAD_ROUNDTRIP_2008_TABLESTYLE_CELLSTYLEMAP
360
11B
  0
CELLSTYLEMAP
  5
11B
102
{ACAD_REACTORS
330
11A
102
}
330
11A
100
AcDbCellStyleMap
 90
        3
300
CELLSTYLE
  1
TABLEFORMAT_BEGIN
 90
        5
170
     1
 91
        0
 92
    32768
 62
   257
 93
        1
300
CONTENTFORMAT
  1
CONTENTFORMAT_BEGIN
 90
        0
 91
        0
 92
        4
 93
        0
300

 40
0.0
140
1.0
 94
        5
 62
     0
340
11
144
6.0
309
CONTENTFORMAT_END
171
     1
301
MARGIN
  1
CELLMARGIN_BEGIN
 40
1.5
 40
1.5
 40
1.5
 40
1.5
 40
1.5
 40
1.5
309
CELLMARGIN_END
 94
        6
 95
        1
302
GRIDFORMAT
  1
GRIDFORMAT_BEGIN
 90
        0
 91
        1
 62
     0
 92
       -2
340
14
 93
        0
 40
0.045
309
GRIDFORMAT_END
 95
        2
302
GRIDFORMAT
  1
GRIDFORMAT_BEGIN
 90
        0
 91
        1
 62
     0
 92
       -2
340
14
 93
        0
 40
0.045
309
GRIDFORMAT_END
 95
        4
302
GRIDFORMAT
  1
GRIDFORMAT_BEGIN
 90
        0
 91
        1
 62
     0
 92
       -2
340
14
 93
        0
 40
0.045
309
GRIDFORMAT_END
 95
        8
302
GRIDFORMAT
  1
GRIDFORMAT_BEGIN
 90
        0
 91
        1
 62
     0
 92
       -2
340
14
 93
        0
 40
0.045
309
GRIDFORMAT_END
 95
       16
302
GRIDFORMAT
  1
GRIDFORMAT_BEGIN
 90
        0
 91
        1
 62
     0
 92
       -2
340
14
 93
        0
 40
0.045
309
GRIDFORMAT_END
 95
       32
302
GRIDFORMAT
  1
GRIDFORMAT_BEGIN
 90
        0
 91
        1
 62
     0
 92
       -2
340
14
 93
        0
 40
0.045
309
GRIDFORMAT_END
309
TABLEFORMAT_END
  1
CELLSTYLE_BEGIN
 90
        1
 91
        1
300
_TITLE
309
CELLSTYLE_END
300
CELLSTYLE
  1
TABLEFORMAT_BEGIN
 90
        5
170
     1
 91
        0
 92
        0
 62
   257
 93
        1
300
CONTENTFORMAT
  1
CONTENTFORMAT_BEGIN
 90
        0
 91
        0
 92
        4
 93
        0
300

 40
0.0
140
1.0
 94
        5
 62
     0
340
11
144
4.5
309
CONTENTFORMAT_END
171
     1
301
MARGIN
  1
CELLMARGIN_BEGIN
 40
1.5
 40
1.5
 40
1.5
 40
1.5
 40
1.5
 40
1.5
309
CELLMARGIN_END
 94
        6
 95
        1
302
GRIDFORMAT
  1
GRIDFORMAT_BEGIN
 90
        0
 91
        1
 62
     0
 92
       -2
340
14
 93
        0
 40
0.045
309
GRIDFORMAT_END
 95
        2
302
GRIDFORMAT
  1
GRIDFORMAT_BEGIN
 90
        0
 91
        1
 62
     0
 92
       -2
340
14
 93
        0
 40
0.045
309
GRIDFORMAT_END
 95
        4
302
GRIDFORMAT
  1
GRIDFORMAT_BEGIN
 90
        0
 91
        1
 62
     0
 92
       -2
340
14
 93
        0
 40
0.045
309
GRIDFORMAT_END
 95
        8
302
GRIDFORMAT
  1
GRIDFORMAT_BEGIN
 90
        0
 91
        1
 62
     0
 92
       -2
340
14
 93
        0
 40
0.045
309
GRIDFORMAT_END
 95
       16
302
GRIDFORMAT
  1
GRIDFORMAT_BEGIN
 90
        0
 91
        1
 62
     0
 92
       -2
340
14
 93
        0
 40
0.045
309
GRIDFORMAT_END
 95
       32
302
GRIDFORMAT
  1
GRIDFORMAT_BEGIN
 90
        0
 91
        1
 62
     0
 92
       -2
340
14
 93
        0
 40
0.045
309
GRIDFORMAT_END
309
TABLEFORMAT_END
  1
CELLSTYLE_BEGIN
 90
        2
 91
        1
300
_HEADER
309
CELLSTYLE_END
300
CELLSTYLE
  1
TABLEFORMAT_BEGIN
 90
        5
170
     1
 91
        0
 92
        0
 62
   257
 93
        1
300
CONTENTFORMAT
  1
CONTENTFORMAT_BEGIN
 90
        0
 91
        0
 92
        4
 93
        0
300

 40
0.0
140
1.0
 94
        2
 62
     0
340
11
144
4.5
309
CONTENTFORMAT_END
171
     1
301
MARGIN
  1
CELLMARGIN_BEGIN
 40
1.5
 40
1.5
 40
1.5
 40
1.5
 40
1.5
 40
1.5
309
CELLMARGIN_END
 94
        6
 95
        1
302
GRIDFORMAT
  1
GRIDFORMAT_BEGIN
 90
        0
 91
        1
 62
     0
 92
       -2
340
14
 93
        0
 40
0.045
309
GRIDFORMAT_END
 95
        2
302
GRIDFORMAT
  1
GRIDFORMAT_BEGIN
 90
        0
 91
        1
 62
     0
 92
       -2
340
14
 93
        0
 40
0.045
309
GRIDFORMAT_END
 95
        4
302
GRIDFORMAT
  1
GRIDFORMAT_BEGIN
 90
        0
 91
        1
 62
     0
 92
       -2
340
14
 93
        0
 40
0.045
309
GRIDFORMAT_END
 95
        8
302
GRIDFORMAT
  1
GRIDFORMAT_BEGIN
 90
        0
 91
        1
 62
     0
 92
       -2
340
14
 93
        0
 40
0.045
309
GRIDFORMAT_END
 95
       16
302
GRIDFORMAT
  1
GRIDFORMAT_BEGIN
 90
        0
 91
        1
 62
     0
 92
       -2
340
14
 93
        0
 40
0.045
309
GRIDFORMAT_END
 95
       32
302
GRIDFORMAT
  1
GRIDFORMAT_BEGIN
 90
        0
 91
        1
 62
     0
 92
       -2
340
14
 93
        0
 40
0.045
309
GRIDFORMAT_END
309
TABLEFORMAT_END
  1
CELLSTYLE_BEGIN
 90
        3
 91
        2
300
_DATA
309
CELLSTYLE_END
  0
ENDSEC
  0
EOF
