  0
SECTION
  2
HEADER
  9
$ACADVER
  1
AC1027
  9
$ACADMAINTVER
 70
   105
  9
$DWGCODEPAGE
  3
ANSI_1252
  9
$LASTSAVEDBY
  1
Nick
  9
$REQUIREDVERSIONS
160
                 0
  9
$INSBASE
 10
0.0
 20
0.0
 30
0.0
  9
$EXTMIN
 10
0.0
 20
0.0
 30
0.0
  9
$EXTMAX
 10
420.0
 20
297.0
 30
0.0
  9
$LIMMIN
 10
0.0
 20
0.0
  9
$LIMMAX
 10
420.0
 20
297.0
  9
$ORTHOMODE
 70
     0
  9
$REGENMODE
 70
     1
  9
$FILLMODE
 70
     1
  9
$QTEXTMODE
 70
     0
  9
$MIRRTEXT
 70
     1
  9
$LTSCALE
 40
1.0
  9
$ATTMODE
 70
     1
  9
$TEXTSIZE
 40
4.2333333333
  9
$TRACEWID
 40
1.0
  9
$TEXTSTYLE
  7
Standard
  9
$CLAYER
  8
0
  9
$CELTYPE
  6
ByLayer
  9
$CECOLOR
 62
   256
  9
$CELTSCALE
 40
1.0
  9
$DISPSILH
 70
     0
  9
$DIMSCALE
 40
1.0
  9
$DIMASZ
 40
3.302
  9
$DIMEXO
 40
1.0
  9
$DIMDLI
 40
3.75
  9
$DIMRND
 40
0.0
  9
$DIMDLE
 40
0.0
  9
$DIMEXE
 40
1.0
  9
$DIMTP
 40
0.0
  9
$DIMTM
 40
0.0
  9
$DIMTXT
 40
4.2333333333
  9
$DIMCEN
 40
2.5
  9
$DIMTSZ
 40
0.0
  9
$DIMTOL
 70
     0
  9
$DIMLIM
 70
     0
  9
$DIMTIH
 70
     1
  9
$DIMTOH
 70
     1
  9
$DIMSE1
 70
     0
  9
$DIMSE2
 70
     0
  9
$DIMTAD
 70
     1
  9
$DIMZIN
 70
     1
  9
$DIMBLK
  1

  9
$DIMASO
 70
     1
  9
$DIMSHO
 70
     1
  9
$DIMPOST
  1

  9
$DIMAPOST
  1

  9
$DIMALT
 70
     0
  9
$DIMALTD
 70
     3
  9
$DIMALTF
 40
0.0393700787
  9
$DIMLFAC
 40
1.0
  9
$DIMTOFL
 70
     1
  9
$DIMTVP
 40
0.0
  9
$DIMTIX
 70
     0
  9
$DIMSOXD
 70
     0
  9
$DIMSAH
 70
     0
  9
$DIMBLK1
  1

  9
$DIMBLK2
  1

  9
$DIMSTYLE
  2
ISO-25
  9
$DIMCLRD
 70
     0
  9
$DIMCLRE
 70
     0
  9
$DIMCLRT
 70
     0
  9
$DIMTFAC
 40
1.0
  9
$DIMGAP
 40
1.524
  9
$DIMJUST
 70
     0
  9
$DIMSD1
 70
     0
  9
$DIMSD2
 70
     0
  9
$DIMTOLJ
 70
     0
  9
$DIMTZIN
 70
     1
  9
$DIMALTZ
 70
     0
  9
$DIMALTTZ
 70
     0
  9
$DIMUPT
 70
     0
  9
$DIMDEC
 70
     0
  9
$DIMTDEC
 70
     0
  9
$DIMALTU
 70
     2
  9
$DIMALTTD
 70
     3
  9
$DIMTXSTY
  7
Standard
  9
$DIMAUNIT
 70
     0
  9
$DIMADEC
 70
     2
  9
$DIMALTRND
 40
0.0
  9
$DIMAZIN
 70
     0
  9
$DIMDSEP
 70
    44
  9
$DIMATFIT
 70
     3
  9
$DIMFRAC
 70
     0
  9
$DIMLDRBLK
  1

  9
$DIMLUNIT
 70
     2
  9
$DIMLWD
 70
    -2
  9
$DIMLWE
 70
    -2
  9
$DIMTMOVE
 70
     0
  9
$DIMFXL
 40
1.0
  9
$DIMFXLON
 70
     0
  9
$DIMJOGANG
 40
0.7853981634
  9
$DIMTFILL
 70
     0
  9
$DIMTFILLCLR
 70
     0
  9
$DIMARCSYM
 70
     0
  9
$DIMLTYPE
  6

  9
$DIMLTEX1
  6

  9
$DIMLTEX2
  6

  9
$DIMTXTDIRECTION
 70
     0
  9
$LUNITS
 70
     2
  9
$LUPREC
 70
     0
  9
$SKETCHINC
 40
1.0
  9
$FILLETRAD
 40
0.0
  9
$AUNITS
 70
     0
  9
$AUPREC
 70
     2
  9
$MENU
  1
.
  9
$ELEVATION
 40
0.0
  9
$PELEVATION
 40
0.0
  9
$THICKNESS
 40
0.0
  9
$LIMCHECK
 70
     0
  9
$CHAMFERA
 40
0.0
  9
$CHAMFERB
 40
0.0
  9
$CHAMFERC
 40
0.0
  9
$CHAMFERD
 40
0.0
  9
$SKPOLY
 70
     0
  9
$TDCREATE
 40
2460934.441945914
  9
$TDUCREATE
 40
2460934.025279248
  9
$TDUPDATE
 40
2460934.441946181
  9
$TDUUPDATE
 40
2460934.025279514
  9
$TDINDWG
 40
0.0000000116
  9
$TDUSRTIMER
 40
0.0000000116
  9
$USRTIMER
 70
     1
  9
$ANGBASE
 50
0.0
  9
$ANGDIR
 70
     0
  9
$PDMODE
 70
     0
  9
$PDSIZE
 40
-1.0
  9
$PLINEWID
 40
0.0
  9
$SPLFRAME
 70
     0
  9
$SPLINETYPE
 70
     6
  9
$SPLINESEGS
 70
     8
  9
$HANDSEED
  5
11A
  9
$SURFTAB1
 70
     6
  9
$SURFTAB2
 70
     6
  9
$SURFTYPE
 70
     6
  9
$SURFU
 70
     6
  9
$SURFV
 70
     6
  9
$UCSBASE
  2

  9
$UCSNAME
  2

  9
$UCSORG
 10
0.0
 20
0.0
 30
0.0
  9
$UCSXDIR
 10
1.0
 20
0.0
 30
0.0
  9
$UCSYDIR
 10
0.0
 20
1.0
 30
0.0
  9
$UCSORTHOREF
  2

  9
$UCSORTHOVIEW
 70
     0
  9
$UCSORGTOP
 10
0.0
 20
0.0
 30
0.0
  9
$UCSORGBOTTOM
 10
0.0
 20
0.0
 30
0.0
  9
$UCSORGLEFT
 10
0.0
 20
0.0
 30
0.0
  9
$UCSORGRIGHT
 10
0.0
 20
0.0
 30
0.0
  9
$UCSORGFRONT
 10
0.0
 20
0.0
 30
0.0
  9
$UCSORGBACK
 10
0.0
 20
0.0
 30
0.0
  9
$PUCSBASE
  2

  9
$PUCSNAME
  2

  9
$PUCSORG
 10
0.0
 20
0.0
 30
0.0
  9
$PUCSXDIR
 10
1.0
 20
0.0
 30
0.0
  9
$PUCSYDIR
 10
0.0
 20
1.0
 30
0.0
  9
$PUCSORTHOREF
  2

  9
$PUCSORTHOVIEW
 70
     0
  9
$PUCSORGTOP
 10
0.0
 20
0.0
 30
0.0
  9
$PUCSORGBOTTOM
 10
0.0
 20
0.0
 30
0.0
  9
$PUCSORGLEFT
 10
0.0
 20
0.0
 30
0.0
  9
$PUCSORGRIGHT
 10
0.0
 20
0.0
 30
0.0
  9
$PUCSORGFRONT
 10
0.0
 20
0.0
 30
0.0
  9
$PUCSORGBACK
 10
0.0
 20
0.0
 30
0.0
  9
$USERI1
 70
     0
  9
$USERI2
 70
     0
  9
$USERI3
 70
     0
  9
$USERI4
 70
     0
  9
$USERI5
 70
     0
  9
$USERR1
 40
0.0
  9
$USERR2
 40
0.0
  9
$USERR3
 40
0.0
  9
$USERR4
 40
0.0
  9
$USERR5
 40
0.0
  9
$WORLDVIEW
 70
     1
  9
$SHADEDGE
 70
     3
  9
$SHADEDIF
 70
    70
  9
$TILEMODE
 70
     1
  9
$MAXACTVP
 70
    64
  9
$PINSBASE
 10
0.0
 20
0.0
 30
0.0
  9
$PLIMCHECK
 70
     0
  9
$PEXTMIN
 10
1.0000000000E+20
 20
1.0000000000E+20
 30
1.0000000000E+20
  9
$PEXTMAX
 10
-1.0000000000E+20
 20
-1.0000000000E+20
 30
-1.0000000000E+20
  9
$PLIMMIN
 10
0.0
 20
0.0
  9
$PLIMMAX
 10
420.0
 20
297.0
  9
$UNITMODE
 70
     0
  9
$VISRETAIN
 70
     1
  9
$PLINEGEN
 70
     0
  9
$PSLTSCALE
 70
     1
  9
$TREEDEPTH
 70
  3020
  9
$CMLSTYLE
  2
Standard
  9
$CMLJUST
 70
     0
  9
$CMLSCALE
 40
20.0
  9
$PROXYGRAPHICS
 70
     1
  9
$MEASUREMENT
 70
     1
  9
$CELWEIGHT
370
    -1
  9
$ENDCAPS
280
     0
  9
$JOINSTYLE
280
     0
  9
$LWDISPLAY
290
     1
  9
$INSUNITS
 70
     4
  9
$HYPERLINKBASE
  1

  9
$STYLESHEET
  1

  9
$XEDIT
290
     1
  9
$CEPSNTYPE
380
     0
  9
$PSTYLEMODE
290
     1
  9
$FINGERPRINTGUID
  2
{6034d755-1a76-4879-9f35-6a131d3d8654}
  9
$VERSIONGUID
  2
{FAEB1C32-E019-11D5-929B-00C0DF256EC4}
  9
$EXTNAMES
290
     1
  9
$PSVPSCALE
 40
0.0
  9
$OLESTARTUP
290
     0
  9
$SORTENTS
280
   127
  9
$INDEXCTL
280
     0
  9
$HIDETEXT
280
     1
  9
$XCLIPFRAME
280
     2
  9
$HALOGAP
280
     0
  9
$OBSCOLOR
 70
   257
  9
$OBSLTYPE
280
     0
  9
$INTERSECTIONDISPLAY
280
     0
  9
$INTERSECTIONCOLOR
 70
   257
  9
$DIMASSOC
280
     2
  9
$PROJECTNAME
  1

  9
$CAMERADISPLAY
290
     0
  9
$LENSLENGTH
 40
50.0
  9
$CAMERAHEIGHT
 40
0.0
  9
$STEPSPERSEC
 40
2.0
  9
$STEPSIZE
 40
6.0
  9
$3DDWFPREC
 40
2.0
  9
$PSOLWIDTH
 40
5.0
  9
$PSOLHEIGHT
 40
80.0
  9
$LOFTANG1
 40
1.5707963268
  9
$LOFTANG2
 40
1.5707963268
  9
$LOFTMAG1
 40
0.0
  9
$LOFTMAG2
 40
0.0
  9
$LOFTPARAM
 70
     7
  9
$LOFTNORMALS
280
     1
  9
$LATITUDE
 40
37.795
  9
$LONGITUDE
 40
-122.394
  9
$NORTHDIRECTION
 40
0.0
  9
$TIMEZONE
 70
 -8000
  9
$LIGHTGLYPHDISPLAY
280
     1
  9
$TILEMODELIGHTSYNCH
280
     1
  9
$CMATERIAL
347
44
  9
$SOLIDHIST
280
     0
  9
$SHOWHIST
280
     1
  9
$DWFFRAME
280
     2
  9
$DGNFRAME
280
     2
  9
$REALWORLDSCALE
290
     1
  9
$INTERFERECOLOR
 62
   256
  9
$CSHADOW
280
     0
  9
$SHADOWPLANELOCATION
 40
0.0
  0
ENDSEC
  0
SECTION
  2
CLASSES
  0
CLASS
  1
ACDBDICTIONARYWDFLT
  2
AcDbDictionaryWithDefault
  3
ObjectDBX Classes
 90
        0
 91
        3
280
     0
281
     0
  0
CLASS
  1
VISUALSTYLE
  2
AcDbVisualStyle
  3
ObjectDBX Classes
 90
     4095
 91
        3
280
     0
281
     0
  0
CLASS
  1
MATERIAL
  2
AcDbMaterial
  3
ObjectDBX Classes
 90
     1153
 91
        3
280
     0
281
     0
  0
CLASS
  1
SCALE
  2
AcDbScale
  3
ObjectDBX Classes
 90
     1153
 91
        3
280
     0
281
     0
  0
CLASS
  1
TABLESTYLE
  2
AcDbTableStyle
  3
ObjectDBX Classes
 90
     4095
 91
        3
280
     0
281
     0
  0
CLASS
  1
MLEADERSTYLE
  2
AcDbMLeaderStyle
  3
ACDB_MLEADERSTYLE_CLASS
 90
     4095
 91
        3
280
     0
281
     0
  0
CLASS
  1
SUN
  2
AcDbSun
  3
SCENEOE
 90
     1153
 91
        3
280
     0
281
     0
  0
CLASS
  1
DICTIONARYVAR
  2
AcDbDictionaryVar
  3
ObjectDBX Classes
 90
        0
 91
        3
280
     0
281
     0
  0
CLASS
  1
CELLSTYLEMAP
  2
AcDbCellStyleMap
  3
ObjectDBX Classes
 90
     1152
 91
        3
280
     0
281
     0
  0
ENDSEC
  0
SECTION
  2
TABLES
  0
TABLE
  2
VPORT
  5
8
330
0
100
AcDbSymbolTable
 70
     1
  0
VPORT
  5
29
330
8
100
AcDbSymbolTableRecord
100
AcDbViewportTableRecord
  2
*Active
 70
     0
 10
0.0
 20
0.0
 11
1.0
 21
1.0
 12
210.0
 22
148.5
 13
0.0
 23
0.0
 14
10.0
 24
10.0
 15
10.0
 25
10.0
 16
0.0
 26
0.0
 36
1.0
 17
0.0
 27
0.0
 37
0.0
 40
297.0
 41
1.4141414141
 42
50.0
 43
0.0
 44
0.0
 50
0.0
 51
0.0
 71
     0
 72
  2000
 73
     1
 74
     3
 75
     0
 76
     0
 77
     0
 78
     0
281
     0
 65
     1
110
0.0
120
0.0
130
0.0
111
1.0
121
0.0
131
0.0
112
0.0
122
1.0
132
0.0
 79
     0
146
0.0
348
2F
 60
     3
 61
     5
292
     1
282
     1
141
0.0
142
0.0
 63
   250
361
5D
  0
ENDTAB
  0
TABLE
  2
LTYPE
  5
5
330
0
100
AcDbSymbolTable
 70
     6
  0
LTYPE
  5
14
330
5
100
AcDbSymbolTableRecord
100
AcDbLinetypeTableRecord
  2
ByBlock
 70
     0
  3

 72
    65
 73
     0
 40
0.0
  0
LTYPE
  5
15
330
5
100
AcDbSymbolTableRecord
100
AcDbLinetypeTableRecord
  2
ByLayer
 70
     0
  3

 72
    65
 73
     0
 40
0.0
  0
LTYPE
  5
16
330
5
100
AcDbSymbolTableRecord
100
AcDbLinetypeTableRecord
  2
Continuous
 70
     0
  3
Solid line
 72
    65
 73
     0
 40
0.0
  0
LTYPE
  5
5E
330
5
100
AcDbSymbolTableRecord
100
AcDbLinetypeTableRecord
  2
HIDDEN
 70
     0
  3
Hidden __ __ __ __ __ __ __ __ __ __ __ __ __ __
 72
    65
 73
     2
 40
1.905
 49
1.27
 74
     0
 49
-0.635
 74
     0
  0
LTYPE
  5
5F
330
5
100
AcDbSymbolTableRecord
100
AcDbLinetypeTableRecord
  2
PHANTOM
 70
     0
  3
Phantom ______  __  __  ______  __  __  ______
 72
    65
 73
     6
 40
12.7
 49
6.35
 74
     0
 49
-1.27
 74
     0
 49
1.27
 74
     0
 49
-1.27
 74
     0
 49
1.27
 74
     0
 49
-1.27
 74
     0
  0
LTYPE
  5
60
330
5
100
AcDbSymbolTableRecord
100
AcDbLinetypeTableRecord
  2
CENTER
 70
     0
  3
Center ____ _ ____ _ ____ _ ____ _ ____ _ ____
 72
    65
 73
     4
 40
10.16
 49
6.35
 74
     0
 49
-1.27
 74
     0
 49
1.27
 74
     0
 49
-1.27
 74
     0
  0
LTYPE
  5
61
330
5
100
AcDbSymbolTableRecord
100
AcDbLinetypeTableRecord
  2
CENTERX2
 70
     0
  3
Center (2x) ________  __  ________  __  _____
 72
    65
 73
     4
 40
20.32
 49
12.7
 74
     0
 49
-2.54
 74
     0
 49
2.54
 74
     0
 49
-2.54
 74
     0
  0
LTYPE
  5
62
330
5
100
AcDbSymbolTableRecord
100
AcDbLinetypeTableRecord
  2
DOT2
 70
     0
  3
Dot (.5x) ........................................
 72
    65
 73
     2
 40
0.635
 49
0.0
 74
     0
 49
-0.635
 74
     0
  0
ENDTAB
  0
TABLE
  2
LAYER
  5
2
330
0
100
AcDbSymbolTable
 70
    13
  0
LAYER
  5
10
330
2
100
AcDbSymbolTableRecord
100
AcDbLayerTableRecord
  2
0
 70
     0
 62
     7
  6
Continuous
370
    -3
390
F
347
46
348
0
  0
LAYER
  5
63
330
2
100
AcDbSymbolTableRecord
100
AcDbLayerTableRecord
  2
DRAWING-SHEET
 70
     0
 62
   179
  6
Continuous
370
    -3
390
F
347
46
348
0
  0
LAYER
  5
64
330
2
100
AcDbSymbolTableRecord
100
AcDbLayerTableRecord
  2
BORDER
 70
     0
 62
   179
  6
Continuous
370
    -3
390
F
347
46
348
0
  0
LAYER
  5
65
330
2
100
AcDbSymbolTableRecord
100
AcDbLayerTableRecord
  2
DIMENSIONS
 70
     0
 62
     7
  6
Continuous
370
    -3
390
F
347
46
348
0
  0
LAYER
  5
66
330
2
100
AcDbSymbolTableRecord
100
AcDbLayerTableRecord
  2
CENTRE_LINES
 70
     0
 62
     7
  6
Continuous
370
    -3
390
F
347
46
348
0
  0
LAYER
  5
67
330
2
100
AcDbSymbolTableRecord
100
AcDbLayerTableRecord
  2
FORMAT
 70
     0
 62
     7
  6
Continuous
370
    -3
390
F
347
46
348
0
  0
LAYER
  5
68
330
2
100
AcDbSymbolTableRecord
100
AcDbLayerTableRecord
  2
SLD-0
 70
     0
 62
   179
  6
Continuous
370
    -3
390
F
347
46
348
0
  0
LAYER
  5
69
330
2
100
AcDbSymbolTableRecord
100
AcDbLayerTableRecord
  2
OUTLINE
 70
     0
 62
     4
  6
Continuous
370
    -3
390
F
347
46
348
0
  0
LAYER
  5
6A
330
2
100
AcDbSymbolTableRecord
100
AcDbLayerTableRecord
  2
4
 70
     0
 62
     7
  6
Continuous
370
    70
390
F
347
46
348
0
  0
LAYER
  5
6B
330
2
100
AcDbSymbolTableRecord
100
AcDbLayerTableRecord
  2
TEXT25
 70
     0
 62
   179
  6
Continuous
370
    -3
390
F
347
46
348
0
  0
LAYER
  5
6C
330
2
100
AcDbSymbolTableRecord
100
AcDbLayerTableRecord
  2
TEXT35
 70
     0
 62
     7
  6
Continuous
370
    -3
390
F
347
46
348
0
  0
LAYER
  5
6D
330
2
100
AcDbSymbolTableRecord
100
AcDbLayerTableRecord
  2
TEXT5
 70
     0
 62
     7
  6
Continuous
370
    -3
390
F
347
46
348
0
  0
LAYER
  5
6E
330
2
100
AcDbSymbolTableRecord
100
AcDbLayerTableRecord
  2
5
 70
     0
 62
     7
  6
Continuous
370
    35
390
F
347
46
348
0
  0
ENDTAB
  0
TABLE
  2
STYLE
  5
3
330
0
100
AcDbSymbolTable
 70
     3
  0
STYLE
  5
11
330
3
100
AcDbSymbolTableRecord
100
AcDbTextStyleTableRecord
  2
Standard
 70
     0
 40
0.0
 41
1.0
 50
0.0
 71
     0
 42
4.2333333333
  3
txt
  4

  0
STYLE
  5
75
330
3
100
AcDbSymbolTableRecord
100
AcDbTextStyleTableRecord
  2
SLDTEXTSTYLE0
 70
     0
 40
0.0
 41
0.75
 50
0.0
 71
     0
 42
4.2333333333
  3
TXT
  4

  0
STYLE
  5
7B
330
3
100
AcDbSymbolTableRecord
100
AcDbTextStyleTableRecord
  2
SLDTEXTSTYLE1
 70
     0
 40
0.0
 41
0.6
 50
0.0
 71
     0
 42
4.2333333333
  3
TXT
  4

  0
ENDTAB
  0
TABLE
  2
VIEW
  5
6
330
0
100
AcDbSymbolTable
 70
     0
  0
ENDTAB
  0
TABLE
  2
UCS
  5
7
330
0
100
AcDbSymbolTable
 70
     0
  0
ENDTAB
  0
TABLE
  2
APPID
  5
9
330
0
100
AcDbSymbolTable
 70
     1
  0
APPID
  5
12
330
9
100
AcDbSymbolTableRecord
100
AcDbRegAppTableRecord
  2
ACAD
 70
     0
  0
ENDTAB
  0
TABLE
  2
DIMSTYLE
  5
A
330
0
100
AcDbSymbolTable
 70
     1
100
AcDbDimStyleTable
  0
DIMSTYLE
105
27
330
A
100
AcDbSymbolTableRecord
100
AcDbDimStyleTableRecord
  2
ISO-25
 70
     0
 41
2.5
 42
0.625
 43
3.75
 44
1.25
 73
     0
 74
     0
 77
     1
 78
     8
140
2.5
141
2.5
143
0.0393700787
147
0.625
171
     3
172
     1
178
     0
271
     2
272
     2
274
     3
278
    44
283
     0
284
     8
340
11
  0
ENDTAB
  0
TABLE
  2
BLOCK_RECORD
  5
1
330
0
100
AcDbSymbolTable
 70
     6
  0
BLOCK_RECORD
  5
1F
330
1
100
AcDbSymbolTableRecord
100
AcDbBlockTableRecord
  2
*Model_Space
340
22
 70
     0
280
     1
281
     0
  0
BLOCK_RECORD
  5
1B
330
1
100
AcDbSymbolTableRecord
100
AcDbBlockTableRecord
  2
*Paper_Space
340
1E
 70
     0
280
     1
281
     0
  0
BLOCK_RECORD
  5
23
330
1
100
AcDbSymbolTableRecord
100
AcDbBlockTableRecord
  2
*Paper_Space0
340
26
 70
     0
280
     1
281
     0
  0
BLOCK_RECORD
  5
6F
330
1
100
AcDbSymbolTableRecord
100
AcDbBlockTableRecord
  2
Block1
340
0
 70
     0
280
     1
281
     0
  0
BLOCK_RECORD
  5
72
330
1
100
AcDbSymbolTableRecord
100
AcDbBlockTableRecord
  2
SW_NOTE_0
340
0
102
{BLKREFS
331
77
102
}
 70
     0
280
     1
281
     0
  0
BLOCK_RECORD
  5
78
330
1
100
AcDbSymbolTableRecord
100
AcDbBlockTableRecord
  2
SW_NOTE_0_1
340
0
102
{BLKREFS
331
7D
102
}
 70
     0
280
     1
281
     0
  0
BLOCK_RECORD
  5
7E
330
1
100
AcDbSymbolTableRecord
100
AcDbBlockTableRecord
  2
SW_NOTE_0_2
340
0
102
{BLKREFS
331
82
102
}
 70
     0
280
     1
281
     0
  0
BLOCK_RECORD
  5
83
330
1
100
AcDbSymbolTableRecord
100
AcDbBlockTableRecord
  2
SW_NOTE_0_3
340
0
102
{BLKREFS
331
87
102
}
 70
     0
280
     1
281
     0
  0
ENDTAB
  0
ENDSEC
  0
SECTION
  2
BLOCKS
  0
BLOCK
  5
20
330
1F
100
AcDbEntity
  8
0
100
AcDbBlockBegin
  2
*Model_Space
 70
     0
 10
0.0
 20
0.0
 30
0.0
  3
*Model_Space
  1

  0
ENDBLK
  5
21
330
1F
100
AcDbEntity
  8
0
100
AcDbBlockEnd
  0
BLOCK
  5
1C
330
1B
100
AcDbEntity
 67
     1
  8
0
100
AcDbBlockBegin
  2
*Paper_Space
 70
     0
 10
0.0
 20
0.0
 30
0.0
  3
*Paper_Space
  1

  0
ENDBLK
  5
1D
330
1B
100
AcDbEntity
 67
     1
  8
0
100
AcDbBlockEnd
  0
BLOCK
  5
24
330
23
100
AcDbEntity
  8
0
100
AcDbBlockBegin
  2
*Paper_Space0
 70
     0
 10
0.0
 20
0.0
 30
0.0
  3
*Paper_Space0
  1

  0
ENDBLK
  5
25
330
23
100
AcDbEntity
  8
0
100
AcDbBlockEnd
  0
BLOCK
  5
70
330
6F
100
AcDbEntity
  8
0
100
AcDbBlockBegin
  2
Block1
 70
     0
 10
0.0
 20
0.0
 30
0.0
  3
Block1
  1

  0
INSERT
  5
77
330
6F
100
AcDbEntity
  8
0
  6
Continuous
 62
     7
370
     0
100
AcDbBlockReference
  2
SW_NOTE_0
 10
40.5248655077
 20
20.5912386523
 30
0.0
  0
INSERT
  5
7D
330
6F
100
AcDbEntity
  8
DRAWING-SHEET
 62
     7
100
AcDbBlockReference
  2
SW_NOTE_0_1
 10
3.556761253
 20
-0.3611706024
 30
0.0
  0
INSERT
  5
82
330
6F
100
AcDbEntity
  8
DRAWING-SHEET
 62
     7
100
AcDbBlockReference
  2
SW_NOTE_0_2
 10
7.9590819428
 20
3.0109637777
 30
0.0
  0
INSERT
  5
87
330
6F
100
AcDbEntity
  8
DRAWING-SHEET
 62
     7
100
AcDbBlockReference
  2
SW_NOTE_0_3
 10
0.0721004934
 20
6.5234823937
 30
0.0
  0
ENDBLK
  5
71
330
6F
100
AcDbEntity
  8
0
100
AcDbBlockEnd
  0
BLOCK
  5
73
330
72
100
AcDbEntity
  8
0
100
AcDbBlockBegin
  2
SW_NOTE_0
 70
     0
 10
0.0
 20
0.0
 30
0.0
  3
SW_NOTE_0
  1

  0
MTEXT
  5
76
330
72
100
AcDbEntity
  8
0
  6
Continuous
 62
     0
370
     0
100
AcDbMText
 10
0.0
 20
1.9336016097
 30
0.0
 40
1.5
 41
0.0
 46
0.0
 71
     1
 72
     1
  1
TITLE:
  7
SLDTEXTSTYLE0
 73
     1
 44
1.0
  0
ENDBLK
  5
74
330
72
100
AcDbEntity
  8
0
100
AcDbBlockEnd
  0
BLOCK
  5
79
330
78
100
AcDbEntity
  8
0
100
AcDbBlockBegin
  2
SW_NOTE_0_1
 70
     0
 10
0.0
 20
0.0
 30
0.0
  3
SW_NOTE_0_1
  1

  0
MTEXT
  5
7C
330
78
100
AcDbEntity
  8
DRAWING-SHEET
 62
     0
100
AcDbMText
 10
0.0
 20
2.7285267159
 30
0.0
 40
2.1166666667
 41
0.0
 46
0.0
 71
     1
 72
     1
  1
Email: roddyeng.com.au
  7
SLDTEXTSTYLE1
 73
     1
 44
1.0
  0
ENDBLK
  5
7A
330
78
100
AcDbEntity
  8
0
100
AcDbBlockEnd
  0
BLOCK
  5
7F
330
7E
100
AcDbEntity
  8
0
100
AcDbBlockBegin
  2
SW_NOTE_0_2
 70
     0
 10
0.0
 20
0.0
 30
0.0
  3
SW_NOTE_0_2
  1

  0
MTEXT
  5
81
330
7E
100
AcDbEntity
  8
DRAWING-SHEET
 62
     0
100
AcDbMText
 10
0.0
 20
2.7285267159
 30
0.0
 40
2.1166666667
 41
0.0
 46
0.0
 71
     1
 72
     1
  1
Ph: - 02 6947 4039
  7
SLDTEXTSTYLE1
 73
     1
 44
1.0
  0
ENDBLK
  5
80
330
7E
100
AcDbEntity
  8
0
100
AcDbBlockEnd
  0
BLOCK
  5
84
330
83
100
AcDbEntity
  8
0
100
AcDbBlockBegin
  2
SW_NOTE_0_3
 70
     0
 10
0.0
 20
0.0
 30
0.0
  3
SW_NOTE_0_3
  1

  0
MTEXT
  5
86
330
83
100
AcDbEntity
  8
DRAWING-SHEET
 62
     0
100
AcDbMText
 10
0.0
 20
2.7285267159
 30
0.0
 40
2.1166666667
 41
0.0
 46
0.0
 71
     1
 72
     1
  1
14 Waratah St TUMUT NSW 2720
  7
SLDTEXTSTYLE1
 73
     1
 44
1.0
  0
ENDBLK
  5
85
330
83
100
AcDbEntity
  8
0
100
AcDbBlockEnd
  0
ENDSEC
  0
SECTION
  2
ENTITIES
  0
SPLINE
  5
88
330
1F
100
AcDbEntity
  8
0
  6
Continuous
 62
     7
370
    25
100
AcDbSpline
210
0.0
220
0.0
230
1.0
 70
     8
 71
     3
 72
    23
 73
    19
 74
     0
 42
0.00000001
 43
0.00000001
 40
0.0
 40
0.0
 40
0.0
 40
0.0
 40
0.0609592009948324
 40
0.120025094023512
 40
0.1777977987159752
 40
0.2349182088208575
 40
0.2921681677424008
 40
0.3503805538065393
 40
0.4095309745449676
 40
0.4709743661326853
 40
0.532809067449241
 40
0.5949384066986927
 40
0.6572891922790796
 40
0.7208061792890775
 40
0.786656400940773
 40
0.8544976322293628
 40
0.9254508013359566
 40
1.0
 40
1.0
 40
1.0
 40
1.0
 10
904.5349021805736
 20
738.3089853804942
 30
0.0
 10
904.4760914233913
 20
738.2569674246142
 30
0.0
 10
904.3602964893173
 20
738.1545471181877
 30
0.0
 10
904.1712214173493
 20
738.0247094429934
 30
0.0
 10
903.9749777046383
 20
737.9161372705128
 30
0.0
 10
903.7698812673789
 20
737.8314065395195
 30
0.0
 10
903.5572490069333
 20
737.7655526141045
 30
0.0
 10
903.33536955615
 20
737.727244520524
 30
0.0
 10
903.1058251427737
 20
737.7066529932828
 30
0.0
 10
902.8706959174195
 20
737.7127569892673
 30
0.0
 10
902.6331824897551
 20
737.7388959968514
 30
0.0
 10
902.398742455713
 20
737.7918972901667
 30
0.0
 10
902.1698589775076
 20
737.8716316042136
 30
0.0
 10
901.9454078181467
 20
737.97500133661
 30
0.0
 10
901.7260812955752
 20
738.1035357166392
 30
0.0
 10
901.5118567185547
 20
738.257243841591
 30
0.0
 10
901.3024205310537
 20
738.4354800268632
 30
0.0
 10
901.1721566500072
 20
738.5701264892224
 30
0.0
 10
901.1054150010863
 20
738.6391135856225
 30
0.0
  0
SPLINE
  5
89
330
1F
100
AcDbEntity
  8
0
  6
Continuous
 62
     7
370
    25
100
AcDbSpline
210
0.0
220
0.0
230
1.0
 70
     8
 71
     3
 72
    19
 73
    15
 74
     0
 42
0.00000001
 43
0.00000001
 40
0.0
 40
0.0
 40
0.0
 40
0.0
 40
0.1095496651877154
 40
0.2088600135313782
 40
0.2986784236632766
 40
0.3800744778194831
 40
0.4564804122615738
 40
0.532230881359471
 40
0.6077309487945186
 40
0.6850158021672916
 40
0.7621616832986504
 40
0.8401133936638132
 40
0.9185554917694253
 40
1.0
 40
1.0
 40
1.0
 40
1.0
 10
904.9018893600606
 20
740.9291776881864
 30
0.0
 10
904.9435347035349
 20
740.833651404246
 30
0.0
 10
905.0229329106094
 20
740.6515274249327
 30
0.0
 10
905.1118177033
 20
740.381296409172
 30
0.0
 10
905.1693957803155
 20
740.1301922226351
 30
0.0
 10
905.1964744481348
 20
739.8956756141595
 30
0.0
 10
905.1938299750175
 20
739.6731840493629
 30
0.0
 10
905.1706529553979
 20
739.4575422686809
 30
0.0
 10
905.1213930534569
 20
739.2453977121828
 30
0.0
 10
905.0500019940313
 20
739.0383268631265
 30
0.0
 10
904.9547857491167
 20
738.8383783552181
 30
0.0
 10
904.8375073817733
 20
738.6493930281413
 30
0.0
 10
904.6986534391548
 20
738.4700548779184
 30
0.0
 10
904.5901650121036
 20
738.363343170339
 30
0.0
 10
904.5349021805736
 20
738.3089853804942
 30
0.0
  0
SPLINE
  5
8A
330
1F
100
AcDbEntity
  8
0
  6
Continuous
 62
     7
370
    25
100
AcDbSpline
210
0.0
220
0.0
230
1.0
 70
     8
 71
     3
 72
    15
 73
    11
 74
     0
 42
0.00000001
 43
0.00000001
 40
0.0
 40
0.0
 40
0.0
 40
0.0
 40
0.125829784672844
 40
0.2478758475658024
 40
0.3688789748285423
 40
0.4908508380614495
 40
0.6132425712563074
 40
0.7375450133708331
 40
0.8654300745357855
 40
1.0
 40
1.0
 40
1.0
 40
1.0
 10
906.8217611549325
 20
741.3202033292121
 30
0.0
 10
906.7565992797428
 20
741.2630194078824
 30
0.0
 10
906.6282349573876
 20
741.1503710948969
 30
0.0
 10
906.4092868560505
 20
741.0201985344814
 30
0.0
 10
906.1808904556428
 20
740.914607222595
 30
0.0
 10
905.9379466260601
 20
740.8469767399897
 30
0.0
 10
905.6862687882847
 20
740.8102250880597
 30
0.0
 10
905.4279176177926
 20
740.8134907245923
 30
0.0
 10
905.1633570048529
 20
740.8493169395534
 30
0.0
 10
904.9905127194501
 20
740.9021092230506
 30
0.0
 10
904.9018893600606
 20
740.9291776881864
 30
0.0
  0
SPLINE
  5
8B
330
1F
100
AcDbEntity
  8
0
  6
Continuous
 62
     7
370
    25
100
AcDbSpline
210
0.0
220
0.0
230
1.0
 70
     8
 71
     3
 72
    23
 73
    19
 74
     0
 42
0.00000001
 43
0.00000001
 40
0.0
 40
0.0
 40
0.0
 40
0.0
 40
0.0629015180820517
 40
0.1222031007905621
 40
0.1779846108857248
 40
0.2305981936895631
 40
0.2790403688130315
 40
0.3245397423379272
 40
0.3670314189763168
 40
0.406726690709607
 40
0.4814112150876723
 40
0.5540791368049625
 40
0.6271400044784321
 40
0.701415430717412
 40
0.77568955464413
 40
0.8492583773669229
 40
0.9234504095358989
 40
1.0
 40
1.0
 40
1.0
 40
1.0
 10
906.5060560267274
 20
744.5157161497249
 30
0.0
 10
906.5577396076267
 20
744.459451960453
 30
0.0
 10
906.6581488511301
 20
744.3501436543555
 30
0.0
 10
906.7977695795087
 20
744.1850071290913
 30
0.0
 10
906.9227034148367
 20
744.0241425673545
 30
0.0
 10
907.0355134534408
 20
743.8705268597084
 30
0.0
 10
907.130178633336
 20
743.7196737103684
 30
0.0
 10
907.2127158084527
 20
743.5759188899764
 30
0.0
 10
907.2804717178749
 20
743.4362577137448
 30
0.0
 10
907.3504248632365
 20
743.2588458299055
 30
0.0
 10
907.4088091155171
 20
743.0384936824772
 30
0.0
 10
907.4429816702997
 20
742.7720159861622
 30
0.0
 10
907.4322985788452
 20
742.5038189508052
 30
0.0
 10
907.3822075508843
 20
742.238564726392
 30
0.0
 10
907.2963620755585
 20
741.9817453498356
 30
0.0
 10
907.1725875073479
 20
741.741296807367
 30
0.0
 10
907.0168034766989
 20
741.5162111970918
 30
0.0
 10
906.8874496153483
 20
741.38621697668
 30
0.0
 10
906.8217611549325
 20
741.3202033292121
 30
0.0
  0
LINE
  5
8C
330
1F
100
AcDbEntity
  8
0
  6
Continuous
 62
     7
370
    25
100
AcDbLine
 10
905.4355432062
 20
745.6631520472
 30
0.0
 11
906.5060560267
 21
744.5157161497
 31
0.0
  0
LINE
  5
8D
330
1F
100
AcDbEntity
  8
0
  6
Continuous
 62
     7
370
    25
100
AcDbLine
 10
899.6150303857
 20
740.2368699959
 30
0.0
 11
905.4355432062
 21
745.6631520472
 31
0.0
  0
LINE
  5
8E
330
1F
100
AcDbEntity
  8
0
  6
Continuous
 62
     7
370
    25
100
AcDbLine
 10
901.1054150011
 20
738.6391135856
 30
0.0
 11
899.6150303857
 21
740.2368699959
 31
0.0
  0
LINE
  5
8F
330
1F
100
AcDbEntity
  8
0
  6
Continuous
 62
     7
370
    25
100
AcDbLine
 10
898.2364336169
 20
741.9047304532
 30
0.0
 11
899.8774592579
 21
749.6931919916
 31
0.0
  0
LINE
  5
90
330
1F
100
AcDbEntity
  8
0
  6
Continuous
 62
     7
370
    25
100
AcDbLine
 10
898.3438054117
 20
741.762102248
 30
0.0
 11
898.2364336169
 21
741.9047304532
 31
0.0
  0
LINE
  5
91
330
1F
100
AcDbEntity
  8
0
  6
Continuous
 62
     7
370
    25
100
AcDbLine
 10
904.6787413092
 20
746.5361407096
 30
0.0
 11
898.3438054117
 21
741.762102248
 31
0.0
  0
LINE
  5
92
330
1F
100
AcDbEntity
  8
0
  6
Continuous
 62
     7
370
    25
100
AcDbLine
 10
904.207587463
 20
747.1611407096
 30
0.0
 11
904.6787413092
 21
746.5361407096
 31
0.0
  0
LINE
  5
93
330
1F
100
AcDbEntity
  8
0
  6
Continuous
 62
     7
370
    25
100
AcDbLine
 10
899.3582284887
 20
743.5072945557
 30
0.0
 11
904.207587463
 21
747.1611407096
 31
0.0
  0
LINE
  5
94
330
1F
100
AcDbEntity
  8
0
  6
Continuous
 62
     7
370
    25
100
AcDbLine
 10
901.0345105399
 20
751.3726791711
 30
0.0
 11
899.3582284887
 21
743.5072945557
 31
0.0
  0
LINE
  5
95
330
1F
100
AcDbEntity
  8
0
  6
Continuous
 62
     7
370
    25
100
AcDbLine
 10
900.9303438733
 20
751.5104996839
 30
0.0
 11
901.0345105399
 21
751.3726791711
 31
0.0
  0
LINE
  5
96
330
1F
100
AcDbEntity
  8
0
  6
Continuous
 62
     7
370
    25
100
AcDbLine
 10
894.5954079758
 20
746.7364612224
 30
0.0
 11
900.9303438733
 21
751.5104996839
 31
0.0
  0
LINE
  5
97
330
1F
100
AcDbEntity
  8
0
  6
Continuous
 62
     7
370
    25
100
AcDbLine
 10
895.0873951553
 20
746.0826150686
 30
0.0
 11
894.5954079758
 21
746.7364612224
 31
0.0
  0
LINE
  5
98
330
1F
100
AcDbEntity
  8
0
  6
Continuous
 62
     7
370
    25
100
AcDbLine
 10
899.8774592579
 20
749.6931919916
 30
0.0
 11
895.0873951553
 21
746.0826150686
 31
0.0
  0
SPLINE
  5
99
330
1F
100
AcDbEntity
  8
0
  6
Continuous
 62
     7
370
    25
100
AcDbSpline
210
0.0
220
0.0
230
1.0
 70
     8
 71
     3
 72
    23
 73
    19
 74
     0
 42
0.00000001
 43
0.00000001
 40
0.0
 40
0.0
 40
0.0
 40
0.0
 40
0.096119335177887
 40
0.1860105507620062
 40
0.2700307606022668
 40
0.3484460568741389
 40
0.4213633563093263
 40
0.4888099184681095
 40
0.5510850375104414
 40
0.6078720676095872
 40
0.6615142544625495
 40
0.713205827946771
 40
0.7636750487330318
 40
0.812605537260982
 40
0.8602123863470872
 40
0.9075055676935445
 40
0.9540144306924309
 40
1.0
 40
1.0
 40
1.0
 40
1.0
 10
919.5460774028227
 20
729.7140720695743
 30
0.0
 10
919.5871127118053
 20
729.6181018389798
 30
0.0
 10
919.6665244182058
 20
729.4323798360488
 30
0.0
 10
919.774678355688
 20
729.1597732128633
 30
0.0
 10
919.8660433988077
 20
728.901392411103
 30
0.0
 10
919.9432331135872
 20
728.6577326923964
 30
0.0
 10
920.0067865762309
 20
728.4287086267663
 30
0.0
 10
920.053013264702
 20
728.2134975729997
 30
0.0
 10
920.0864903902258
 20
728.0135907734087
 30
0.0
 10
920.1019199672784
 20
727.8265333894312
 30
0.0
 10
920.1073195178984
 20
727.6504907864703
 30
0.0
 10
920.1010323020995
 20
727.4812758620926
 30
0.0
 10
920.0832606381441
 20
727.318041421786
 30
0.0
 10
920.0559539393904
 20
727.1606952084336
 30
0.0
 10
920.0198545568544
 20
727.0085254825848
 30
0.0
 10
919.9692961814474
 20
726.8633600266971
 30
0.0
 10
919.9107347472582
 20
726.7231164756162
 30
0.0
 10
919.8630527500742
 20
726.6346550888381
 30
0.0
 10
919.839346633592
 20
726.5906746336768
 30
0.0
  0
SPLINE
  5
9A
330
1F
100
AcDbEntity
  8
0
  6
Continuous
 62
     7
370
    25
100
AcDbSpline
210
0.0
220
0.0
230
1.0
 70
     8
 71
     3
 72
    15
 73
    11
 74
     0
 42
0.00000001
 43
0.00000001
 40
0.0
 40
0.0
 40
0.0
 40
0.0
 40
0.0516593217925014
 40
0.1251181935620061
 40
0.2184162701191833
 40
0.3335965194844746
 40
0.4695549055615422
 40
0.6253532383184457
 40
0.8019515454484546
 40
1.0
 40
1.0
 40
1.0
 40
1.0
 10
919.0508850951303
 20
730.920802838805
 30
0.0
 10
919.0576212425226
 20
730.899362459143
 30
0.0
 10
919.0739361023392
 20
730.8474341434099
 30
0.0
 10
919.1088156239739
 20
730.7590221938065
 30
0.0
 10
919.151441540858
 20
730.6440601125444
 30
0.0
 10
919.2077100590499
 20
730.5051963995097
 30
0.0
 10
919.2773903106992
 20
730.3425077792308
 30
0.0
 10
919.3549881560795
 20
730.1541594953109
 30
0.0
 10
919.4474143402692
 20
729.9427728525384
 30
0.0
 10
919.511957915692
 20
729.7931609729507
 30
0.0
 10
919.5460774028227
 20
729.7140720695743
 30
0.0
  0
SPLINE
  5
9B
330
1F
100
AcDbEntity
  8
0
  6
Continuous
 62
     7
370
    25
100
AcDbSpline
210
0.0
220
0.0
230
1.0
 70
     8
 71
     3
 72
    15
 73
    11
 74
     0
 42
0.00000001
 43
0.00000001
 40
0.0
 40
0.0
 40
0.0
 40
0.0
 40
0.1087386846008703
 40
0.2173598410592847
 40
0.3274410808775157
 40
0.4382574979159561
 40
0.5571984646720544
 40
0.6899158219481373
 40
0.8364841535124524
 40
1.0
 40
1.0
 40
1.0
 40
1.0
 10
919.1294107361559
 20
732.0714438644461
 30
0.0
 10
919.1094865307139
 20
732.0333228940061
 30
0.0
 10
919.0696596545288
 20
731.9571221554531
 30
0.0
 10
919.0221845300314
 20
731.8361798616407
 30
0.0
 10
918.9918030282545
 20
731.7092647718168
 30
0.0
 10
918.9686596091906
 20
731.5766184019112
 30
0.0
 10
918.9653136456162
 20
731.4328790043845
 30
0.0
 10
918.976591619861
 20
731.2755927312486
 30
0.0
 10
919.0071785936625
 20
731.1029220230936
 30
0.0
 10
919.0357949236476
 20
730.9836815783269
 30
0.0
 10
919.0508850951303
 20
730.920802838805
 30
0.0
  0
SPLINE
  5
9C
330
1F
100
AcDbEntity
  8
0
  6
Continuous
 62
     7
370
    25
100
AcDbSpline
210
0.0
220
0.0
230
1.0
 70
     8
 71
     3
 72
    15
 73
    11
 74
     0
 42
0.00000001
 43
0.00000001
 40
0.0
 40
0.0
 40
0.0
 40
0.0
 40
0.1382867273357875
 40
0.2675494367038276
 40
0.3916453520872301
 40
0.5167032657074541
 40
0.6396798324652602
 40
0.7572488800947846
 40
0.8761085414422295
 40
1.0
 40
1.0
 40
1.0
 40
1.0
 10
920.5861415053868
 20
732.4047771977794
 30
0.0
 10
920.5178498830218
 20
732.4406234260574
 30
0.0
 10
920.3857230661729
 20
732.5099767065097
 30
0.0
 10
920.1733621768466
 20
732.5666775031744
 30
0.0
 10
919.9619442402288
 20
732.580151817622
 30
0.0
 10
919.7556179657361
 20
732.5508290441987
 30
0.0
 10
919.5618939518707
 20
732.4845359707621
 30
0.0
 10
919.3890293169027
 20
732.3812778907351
 30
0.0
 10
919.2415096894293
 20
732.2425182617527
 30
0.0
 10
919.1672898686944
 20
732.1292512710301
 30
0.0
 10
919.1294107361559
 20
732.0714438644461
 30
0.0
  0
SPLINE
  5
9D
330
1F
100
AcDbEntity
  8
0
  6
Continuous
 62
     7
370
    25
100
AcDbSpline
210
0.0
220
0.0
230
1.0
 70
     8
 71
     3
 72
    19
 73
    15
 74
     0
 42
0.00000001
 43
0.00000001
 40
0.0
 40
0.0
 40
0.0
 40
0.0
 40
0.0988051475630324
 40
0.190084915944195
 40
0.2747962268634743
 40
0.3539024171278919
 40
0.4247651177711206
 40
0.4902971052435565
 40
0.5498899320450705
 40
0.6026797171326934
 40
0.7026043856163192
 40
0.8005741784694422
 40
0.8991158864939338
 40
0.9999999999999999
 40
0.9999999999999999
 40
0.9999999999999999
 40
0.9999999999999999
 10
921.3665902233355
 20
730.8294566849589
 30
0.0
 10
921.3589638979793
 20
730.8893405592407
 30
0.0
 10
921.3442920974703
 20
731.0045473221476
 30
0.0
 10
921.3168779143828
 20
731.170216095492
 30
0.0
 10
921.28650159637
 20
731.3231029642964
 30
0.0
 10
921.253334638124
 20
731.4626244510193
 30
0.0
 10
921.2178997150314
 20
731.5894619099761
 30
0.0
 10
921.1799561129745
 20
731.7030991064748
 30
0.0
 10
921.1386760042541
 20
731.8037509599533
 30
0.0
 10
921.0808394202551
 20
731.9199706849341
 30
0.0
 10
920.9970508583907
 20
732.0488296163672
 30
0.0
 10
920.8791422374649
 20
732.1869351557212
 30
0.0
 10
920.7415860689213
 20
732.3069448444876
 30
0.0
 10
920.6383605136909
 20
732.3719120505347
 30
0.0
 10
920.5861415053868
 20
732.4047771977794
 30
0.0
  0
LINE
  5
9E
330
1F
100
AcDbEntity
  8
0
  6
Continuous
 62
     7
370
    25
100
AcDbLine
 10
922.1774876592
 20
730.9320207875
 30
0.0
 11
921.3665902233
 21
730.829456685
 31
0.0
  0
SPLINE
  5
9F
330
1F
100
AcDbEntity
  8
0
  6
Continuous
 62
     7
370
    25
100
AcDbSpline
210
0.0
220
0.0
230
1.0
 70
     8
 71
     3
 72
    19
 73
    15
 74
     0
 42
0.00000001
 43
0.00000001
 40
0.0
 40
0.0
 40
0.0
 40
0.0
 40
0.1081226744584918
 40
0.2139342010311868
 40
0.3205609622582585
 40
0.4285118826825769
 40
0.48498208677135
 40
0.5453979108334258
 40
0.6097276871549627
 40
0.6785713454964555
 40
0.7517087722184113
 40
0.829748208946005
 40
0.9122379069879306
 40
1.0
 40
1.0
 40
1.0
 40
1.0
 10
921.0124235566688
 20
733.1115079670102
 30
0.0
 10
921.0912601528394
 20
733.062186538717
 30
0.0
 10
921.2472481941845
 20
732.9645979393925
 30
0.0
 10
921.4567077789187
 20
732.7838660364508
 30
0.0
 10
921.637793224439
 20
732.5755800369568
 30
0.0
 10
921.7683339659641
 20
732.3820062791924
 30
0.0
 10
921.860556669523
 20
732.2120347908613
 30
0.0
 10
921.9218452781823
 20
732.0687594347804
 30
0.0
 10
921.980393499578
 20
731.9129880994223
 30
0.0
 10
922.0304323339568
 20
731.742830566243
 30
0.0
 10
922.0775892286789
 20
731.5597275322469
 30
0.0
 10
922.117005348505
 20
731.3627851661515
 30
0.0
 10
922.1505963820907
 20
731.1520745490585
 30
0.0
 10
922.1683407298949
 20
731.0068709404807
 30
0.0
 10
922.177487659233
 20
730.932020787523
 30
0.0
  0
SPLINE
  5
A0
330
1F
100
AcDbEntity
  8
0
  6
Continuous
 62
     7
370
    25
100
AcDbSpline
210
0.0
220
0.0
230
1.0
 70
     8
 71
     3
 72
    19
 73
    15
 74
     0
 42
0.00000001
 43
0.00000001
 40
0.0
 40
0.0
 40
0.0
 40
0.0
 40
0.084996756518758
 40
0.1673748302606206
 40
0.2485493016073397
 40
0.3299980088635494
 40
0.4117582578009056
 40
0.492657563626917
 40
0.5743204747615637
 40
0.6586124923780637
 40
0.7436376510413382
 40
0.8282122689110043
 40
0.9130015690577378
 40
1.0
 40
1.0
 40
1.0
 40
1.0
 10
918.3986415053868
 20
732.4528541208564
 30
0.0
 10
918.4437767739956
 20
732.5252348663598
 30
0.0
 10
918.5326567293209
 20
732.6677663639011
 30
0.0
 10
918.6970032032324
 20
732.856383291984
 30
0.0
 10
918.8810110737254
 20
733.0198606109415
 30
0.0
 10
919.0851418853241
 20
733.1568490646188
 30
0.0
 10
919.3062334190448
 20
733.2630404165377
 30
0.0
 10
919.5387238583687
 20
733.3427439850935
 30
0.0
 10
919.7838626242839
 20
733.382633908799
 30
0.0
 10
920.0356126920728
 20
733.3939891443333
 30
0.0
 10
920.2901754153636
 20
733.3739878368609
 30
0.0
 10
920.5395074530567
 20
733.3179357222909
 30
0.0
 10
920.7832924176256
 20
733.2338178848751
 30
0.0
 10
920.9353945168612
 20
733.1526259729321
 30
0.0
 10
921.0124235566688
 20
733.1115079670102
 30
0.0
  0
SPLINE
  5
A1
330
1F
100
AcDbEntity
  8
0
  6
Continuous
 62
     7
370
    25
100
AcDbSpline
210
0.0
220
0.0
230
1.0
 70
     8
 71
     3
 72
    15
 73
    11
 74
     0
 42
0.00000001
 43
0.00000001
 40
0.0
 40
0.0
 40
0.0
 40
0.0
 40
0.1318992623379983
 40
0.2609145118349589
 40
0.3864853199104881
 40
0.509553991973532
 40
0.632067754435171
 40
0.7536896133398258
 40
0.8764268475645394
 40
0.9999999999999999
 40
0.9999999999999999
 40
0.9999999999999999
 40
0.9999999999999999
 10
918.1566543258996
 20
731.182020787523
 30
0.0
 10
918.150895171996
 20
731.2396600971592
 30
0.0
 10
918.1395027896377
 20
731.3536784174262
 30
0.0
 10
918.1391722792001
 20
731.5234921135319
 30
0.0
 10
918.147278926615
 20
731.6892177413995
 30
0.0
 10
918.1722853524348
 20
731.8504390800864
 30
0.0
 10
918.2086943492228
 20
732.0076223960989
 30
0.0
 10
918.2591456575602
 20
732.1607082505063
 30
0.0
 10
918.3208579166328
 20
732.3102370535115
 30
0.0
 10
918.3726550468016
 20
732.4052076626064
 30
0.0
 10
918.3986415053868
 20
732.4528541208564
 30
0.0
  0
SPLINE
  5
A2
330
1F
100
AcDbEntity
  8
0
  6
Continuous
 62
     7
370
    25
100
AcDbSpline
210
0.0
220
0.0
230
1.0
 70
     8
 71
     3
 72
    15
 73
    11
 74
     0
 42
0.00000001
 43
0.00000001
 40
0.0
 40
0.0
 40
0.0
 40
0.0
 40
0.1803703127680198
 40
0.3452712062752788
 40
0.4940390742333758
 40
0.6265210795137124
 40
0.7436800261038948
 40
0.8441335423959181
 40
0.9295440138453739
 40
0.9999999999999999
 40
0.9999999999999999
 40
0.9999999999999999
 40
0.9999999999999999
 10
918.6903081720534
 20
729.6179182234205
 30
0.0
 10
918.6517122680169
 20
729.7097404061851
 30
0.0
 10
918.5778306289629
 20
729.8855096628852
 30
0.0
 10
918.4742289163598
 20
730.1379278680579
 30
0.0
 10
918.3884596594079
 20
730.3689340608408
 30
0.0
 10
918.314360287071
 20
730.5760667202416
 30
0.0
 10
918.2521980097272
 20
730.7592320337275
 30
0.0
 10
918.2078758946748
 20
730.9205906829262
 30
0.0
 10
918.1734923769335
 20
731.0580933642956
 30
0.0
 10
918.161896145804
 20
731.143441189892
 30
0.0
 10
918.1566543258996
 20
731.182020787523
 30
0.0
  0
SPLINE
  5
A3
330
1F
100
AcDbEntity
  8
0
  6
Continuous
 62
     7
370
    25
100
AcDbSpline
210
0.0
220
0.0
230
1.0
 70
     8
 71
     3
 72
    15
 73
    11
 74
     0
 42
0.00000001
 43
0.00000001
 40
0.0
 40
0.0
 40
0.0
 40
0.0
 40
0.0909475383720188
 40
0.1914958287800496
 40
0.3009705979175364
 40
0.4206399308800886
 40
0.5504490779847432
 40
0.6897109170022291
 40
0.8396338623360415
 40
1.0
 40
1.0
 40
1.0
 40
1.0
 10
919.2383850951303
 20
727.8246489926512
 30
0.0
 10
919.2322397688376
 20
727.8813909545559
 30
0.0
 10
919.2193003933182
 20
728.0008647656783
 30
0.0
 10
919.1822592962341
 20
728.1861723685457
 30
0.0
 10
919.1344059823514
 20
728.3873961743989
 30
0.0
 10
919.0708631547791
 20
728.603491443222
 30
0.0
 10
918.9956835331704
 20
728.8354722143116
 30
0.0
 10
918.9072017667892
 20
729.0830002952663
 30
0.0
 10
918.8042481974303
 20
729.3455606042379
 30
0.0
 10
918.7291309046884
 20
729.525117936641
 30
0.0
 10
918.6903081720534
 20
729.6179182234205
 30
0.0
  0
SPLINE
  5
A4
330
1F
100
AcDbEntity
  8
0
  6
Continuous
 62
     7
370
    25
100
AcDbSpline
210
0.0
220
0.0
230
1.0
 70
     8
 71
     3
 72
    11
 73
     7
 74
     0
 42
0.00000001
 43
0.00000001
 40
0.0
 40
0.0
 40
0.0
 40
0.0
 40
0.2366339149725664
 40
0.4785780064386477
 40
0.7306718672514081
 40
0.9999999999999999
 40
0.9999999999999999
 40
0.9999999999999999
 40
0.9999999999999999
 10
919.0797312489765
 20
727.0073413003435
 30
0.0
 10
919.1103276541314
 20
727.0667976811246
 30
0.0
 10
919.1722070621823
 20
727.1870446718721
 30
0.0
 10
919.223883965165
 20
727.3876222054166
 30
0.0
 10
919.2520266656812
 20
727.6017518136863
 30
0.0
 10
919.2430313905933
 20
727.7487305969304
 30
0.0
 10
919.2383850951303
 20
727.8246489926512
 30
0.0
  0
SPLINE
  5
A5
330
1F
100
AcDbEntity
  8
0
  6
Continuous
 62
     7
370
    25
100
AcDbSpline
210
0.0
220
0.0
230
1.0
 70
     8
 71
     3
 72
    19
 73
    15
 74
     0
 42
0.00000001
 43
0.00000001
 40
0.0
 40
0.0
 40
0.0
 40
0.0
 40
0.0889332617108697
 40
0.1765823054552665
 40
0.2633270258960202
 40
0.3520485103623672
 40
0.4396799119762723
 40
0.523244109165869
 40
0.6045291515320544
 40
0.6857666263281652
 40
0.7660083028173654
 40
0.8444210817920726
 40
0.9217484188282922
 40
0.9999999999999999
 40
0.9999999999999999
 40
0.9999999999999999
 40
0.9999999999999999
 10
917.1230004797457
 20
726.5650336080358
 30
0.0
 10
917.1816204357364
 20
726.5341871330425
 30
0.0
 10
917.2980138612712
 20
726.47293961367
 30
0.0
 10
917.4834884594765
 20
726.4074635418864
 30
0.0
 10
917.6751125554358
 20
726.3656256031333
 30
0.0
 10
917.8704639802834
 20
726.3457595324355
 30
0.0
 10
918.0641790836582
 20
726.3529947347749
 30
0.0
 10
918.2506654065976
 20
726.3802427167162
 30
0.0
 10
918.4257875997009
 20
726.4361833376838
 30
0.0
 10
918.5893558771054
 20
726.514295654529
 30
0.0
 10
918.7375897303468
 20
726.6146292743674
 30
0.0
 10
918.8721424653407
 20
726.7280040442836
 30
0.0
 10
918.9879812281267
 20
726.8592390597794
 30
0.0
 10
919.0490270242365
 20
726.9577787559792
 30
0.0
 10
919.0797312489765
 20
727.0073413003435
 30
0.0
  0
SPLINE
  5
A6
330
1F
100
AcDbEntity
  8
0
  6
Continuous
 62
     7
370
    25
100
AcDbSpline
210
0.0
220
0.0
230
1.0
 70
     8
 71
     3
 72
    15
 73
    11
 74
     0
 42
0.00000001
 43
0.00000001
 40
0.0
 40
0.0
 40
0.0
 40
0.0
 40
0.1614313411309438
 40
0.3090722089283994
 40
0.4440420923795172
 40
0.5682403973993805
 40
0.6826565430067885
 40
0.7909905278805407
 40
0.8954493010277074
 40
1.0
 40
1.0
 40
1.0
 40
1.0
 10
916.3457568900021
 20
728.5345848900871
 30
0.0
 10
916.3453412058285
 20
728.4148557382886
 30
0.0
 10
916.3445453478195
 20
728.185625446573
 30
0.0
 10
916.3752882512769
 20
727.8574139697616
 30
0.0
 10
916.4290220944836
 20
727.5600943343595
 30
0.0
 10
916.5137550583861
 20
727.2955282681841
 30
0.0
 10
916.624998457856
 20
727.0626761986359
 30
0.0
 10
916.7614657644475
 20
726.8610793857914
 30
0.0
 10
916.9269136123778
 20
726.6909852426597
 30
0.0
 10
917.0576190284879
 20
726.6070297945757
 30
0.0
 10
917.1230004797457
 20
726.5650336080358
 30
0.0
  0
LINE
  5
A7
330
1F
100
AcDbEntity
  8
0
  6
Continuous
 62
     7
370
    25
100
AcDbLine
 10
915.5540902233
 20
728.5217643773
 30
0.0
 11
916.34575689
 21
728.5345848901
 31
0.0
  0
SPLINE
  5
A8
330
1F
100
AcDbEntity
  8
0
  6
Continuous
 62
     7
370
    25
100
AcDbSpline
210
0.0
220
0.0
230
1.0
 70
     8
 71
     3
 72
    23
 73
    19
 74
     0
 42
0.00000001
 43
0.00000001
 40
0.0
 40
0.0
 40
0.0
 40
0.0
 40
0.0576020954456882
 40
0.1147858325554543
 40
0.1707123213553541
 40
0.226078589519735
 40
0.2811734468873758
 40
0.3362899700289644
 40
0.3921523787213527
 40
0.448635880394698
 40
0.5067401392281088
 40
0.5670293160128898
 40
0.6306376457996328
 40
0.6970117251572389
 40
0.7673071744374926
 40
0.8407551450476998
 40
0.9186165386156425
 40
1.0
 40
1.0
 40
1.0
 40
1.0
 10
916.8024876592328
 20
725.8534951464974
 30
0.0
 10
916.7512736863838
 20
725.8842898089665
 30
0.0
 10
916.6492177027172
 20
725.9456554753096
 30
0.0
 10
916.5056957360931
 20
726.0497195533947
 30
0.0
 10
916.3720640053344
 20
726.1624859231623
 30
0.0
 10
916.2482642175302
 20
726.2829223776604
 30
0.0
 10
916.1342600943661
 20
726.4115198038013
 30
0.0
 10
916.0292363755102
 20
726.5482632091853
 30
0.0
 10
915.935241282515
 20
726.6944635437243
 30
0.0
 10
915.8488545177978
 20
726.848917731328
 30
0.0
 10
915.7758714062229
 20
727.0151614924799
 30
0.0
 10
915.7105475840759
 20
727.1924362020068
 30
0.0
 10
915.6591686493578
 20
727.3831513694505
 30
0.0
 10
915.6150383265157
 20
727.5862096181476
 30
0.0
 10
915.5836695162707
 20
727.8020339829912
 30
0.0
 10
915.5634870726254
 20
728.0310251153832
 30
0.0
 10
915.5515570782576
 20
728.2721753247331
 30
0.0
 10
915.5532334824591
 20
728.4373502844946
 30
0.0
 10
915.5540902233355
 20
728.5217643772665
 30
0.0
  0
SPLINE
  5
A9
330
1F
100
AcDbEntity
  8
0
  6
Continuous
 62
     7
370
    25
100
AcDbSpline
210
0.0
220
0.0
230
1.0
 70
     8
 71
     3
 72
    23
 73
    19
 74
     0
 42
0.00000001
 43
0.00000001
 40
0.0
 40
0.0
 40
0.0
 40
0.0
 40
0.0614917667775246
 40
0.1216457003389609
 40
0.1810844562409298
 40
0.2404531965189714
 40
0.3001444006429103
 40
0.361082160551892
 40
0.4238594888994096
 40
0.4890191924357734
 40
0.5541445165173533
 40
0.6177940634543805
 40
0.6806053585441008
 40
0.7427389399505129
 40
0.8048725213569252
 40
0.8684399149334939
 40
0.933276389825687
 40
1.0
 40
1.0
 40
1.0
 40
1.0
 10
919.839346633592
 20
726.5906746336768
 30
0.0
 10
919.8021241935231
 20
726.5300006116129
 30
0.0
 10
919.7284891358925
 20
726.4099726096033
 30
0.0
 10
919.597218733931
 20
726.2460636438474
 30
0.0
 10
919.4524285970998
 20
726.0977371314239
 30
0.0
 10
919.2933161042392
 20
725.9654664313778
 30
0.0
 10
919.1186772507418
 20
725.851385762872
 30
0.0
 10
918.9302132519779
 20
725.7532877858556
 30
0.0
 10
918.7272527229421
 20
725.6715803049607
 30
0.0
 10
918.5132550577141
 20
725.6068610533338
 30
0.0
 10
918.2935690897763
 20
725.5600349882692
 30
0.0
 10
918.0728923941004
 20
725.5356034041697
 30
0.0
 10
917.8544346613983
 20
725.5344895379527
 30
0.0
 10
917.638444360503
 20
725.5529627125734
 30
0.0
 10
917.4250985220187
 20
725.5960462888705
 30
0.0
 10
917.2134013150248
 20
725.6581757101687
 30
0.0
 10
917.0036596978005
 20
725.7430420528818
 30
0.0
 10
916.8701832136406
 20
725.8163270417169
 30
0.0
 10
916.8024876592328
 20
725.8534951464974
 30
0.0
  0
SPLINE
  5
AA
330
1F
100
AcDbEntity
  8
0
  6
Continuous
 62
     7
370
    25
100
AcDbSpline
210
0.0
220
0.0
230
1.0
 70
     8
 71
     3
 72
    19
 73
    15
 74
     0
 42
0.00000001
 43
0.00000001
 40
0.0
 40
0.0
 40
0.0
 40
0.0
 40
0.1051868811435666
 40
0.2067427089080254
 40
0.305082439608248
 40
0.401987726185534
 40
0.4940941642814241
 40
0.5781214195929133
 40
0.6549699503559054
 40
0.7277533540011368
 40
0.7975626908067479
 40
0.8649449202967563
 40
0.9319363532443778
 40
1.0
 40
1.0
 40
1.0
 40
1.0
 10
923.8707855661536
 20
727.7681858805063
 30
0.0
 10
923.952389516106
 20
727.7322868067514
 30
0.0
 10
924.1127804459193
 20
727.6617278960326
 30
0.0
 10
924.3607678193399
 20
727.5868688702868
 30
0.0
 10
924.6077373037806
 20
727.5383264347015
 30
0.0
 10
924.8505377076846
 20
727.5153039727533
 30
0.0
 10
925.0821645279345
 20
727.5201862452946
 30
0.0
 10
925.2952847152796
 20
727.5471133269899
 30
0.0
 10
925.4864855725044
 20
727.6016107289087
 30
0.0
 10
925.6547137598616
 20
727.6826524008767
 30
0.0
 10
925.801247886821
 20
727.7845407093046
 30
0.0
 10
925.9283988569047
 20
727.9025915115941
 30
0.0
 10
926.0342755444901
 20
728.0387385948392
 30
0.0
 10
926.087534445671
 20
728.140153021405
 30
0.0
 10
926.1143753097433
 20
728.1912628035832
 30
0.0
  0
LINE
  5
AB
330
1F
100
AcDbEntity
  8
0
  6
Continuous
 62
     7
370
    25
100
AcDbLine
 10
923.5598881303
 20
727.1063269061
 30
0.0
 11
923.8707855662
 21
727.7681858805
 31
0.0
  0
SPLINE
  5
AC
330
1F
100
AcDbEntity
  8
0
  6
Continuous
 62
     7
370
    25
100
AcDbSpline
210
0.0
220
0.0
230
1.0
 70
     8
 71
     3
 72
    23
 73
    19
 74
     0
 42
0.00000001
 43
0.00000001
 40
0.0
 40
0.0
 40
0.0
 40
0.0
 40
0.0703219874357011
 40
0.1396934013286837
 40
0.2100017041157644
 40
0.2822672316952434
 40
0.354891382851965
 40
0.4267161610611837
 40
0.4980367815771642
 40
0.5714188277969117
 40
0.6106471237986768
 40
0.6533178978355233
 40
0.700667815099044
 40
0.7517754974615524
 40
0.8071463471773341
 40
0.8668829341382125
 40
0.9310669015048967
 40
1.0
 40
1.0
 40
1.0
 40
1.0
 10
924.9380932584612
 20
724.5406217779422
 30
0.0
 10
924.9674926203561
 20
724.6114701668756
 30
0.0
 10
925.0258939399112
 20
724.752209255597
 30
0.0
 10
925.0753234278233
 20
724.9768244503828
 30
0.0
 10
925.0907645426536
 20
725.2078052395144
 30
0.0
 10
925.0748328919547
 20
725.442415634082
 30
0.0
 10
925.0265858773504
 20
725.6740985558015
 30
0.0
 10
924.9491126756318
 20
725.8969795266164
 30
0.0
 10
924.8351338886373
 20
726.1043500971327
 30
0.0
 10
924.7179335787123
 20
726.2676351622448
 30
0.0
 10
924.6031665413864
 20
726.3920805573006
 30
0.0
 10
924.5010985068844
 20
726.4891732284929
 30
0.0
 10
924.3827050661245
 20
726.5873318451913
 30
0.0
 10
924.2492743536055
 20
726.6887356296037
 30
0.0
 10
924.0998387235469
 20
726.791035636597
 30
0.0
 10
923.9345651474563
 20
726.8951099615703
 30
0.0
 10
923.7529619040893
 20
727.0007277077963
 30
0.0
 10
923.6257587694156
 20
727.0702998137461
 30
0.0
 10
923.559888130256
 20
727.1063269061473
 30
0.0
  0
SPLINE
  5
AD
330
1F
100
AcDbEntity
  8
0
  6
Continuous
 62
     7
370
    25
100
AcDbSpline
210
0.0
220
0.0
230
1.0
 70
     8
 71
     3
 72
    23
 73
    19
 74
     0
 42
0.00000001
 43
0.00000001
 40
0.0
 40
0.0
 40
0.0
 40
0.0
 40
0.0732711032524239
 40
0.1433617236052054
 40
0.2104371106406362
 40
0.2753230079346709
 40
0.3390679128502148
 40
0.4018811934620183
 40
0.4643783903374323
 40
0.5280148260313909
 40
0.59088673759617
 40
0.6513564022464414
 40
0.7099198314473181
 40
0.7679010235636424
 40
0.8251065215319335
 40
0.882574419136174
 40
0.9405132312069158
 40
1.0
 40
1.0
 40
1.0
 40
1.0
 10
922.4621317199997
 20
723.7794038292242
 30
0.0
 10
922.5269177691974
 20
723.7512193976862
 30
0.0
 10
922.653677695912
 20
723.696073937815
 30
0.0
 10
922.8462340125789
 20
723.6309881920574
 30
0.0
 10
923.0365288245155
 20
723.588324864124
 30
0.0
 10
923.2235099513347
 20
723.5610000593317
 30
0.0
 10
923.4084787774033
 20
723.556610758168
 30
0.0
 10
923.5903637007158
 20
723.5714905510819
 30
0.0
 10
923.7701582478096
 20
723.6029257621169
 30
0.0
 10
923.9448038907184
 20
723.656286715763
 30
0.0
 10
924.1116950957794
 20
723.7248986859478
 30
0.0
 10
924.2680046969141
 20
723.8049398799586
 30
0.0
 10
924.4119219922509
 20
723.897069776981
 30
0.0
 10
924.5440592564297
 20
724.0006278437871
 30
0.0
 10
924.6612292923821
 20
724.119343448162
 30
0.0
 10
924.7674581131224
 20
724.2476288719878
 30
0.0
 10
924.861938929356
 20
724.3878541207847
 30
0.0
 10
924.9124863690786
 20
724.4892536608039
 30
0.0
 10
924.9380932584612
 20
724.5406217779422
 30
0.0
  0
SPLINE
  5
AE
330
1F
100
AcDbEntity
  8
0
  6
Continuous
 62
     7
370
    25
100
AcDbSpline
210
0.0
220
0.0
230
1.0
 70
     8
 71
     3
 72
    15
 73
    11
 74
     0
 42
0.00000001
 43
0.00000001
 40
0.0
 40
0.0
 40
0.0
 40
0.0
 40
0.1203649793443955
 40
0.2390892765582888
 40
0.3589713222459508
 40
0.4804045070987678
 40
0.6044540562079214
 40
0.731387328020405
 40
0.8628166644215458
 40
1.0
 40
1.0
 40
1.0
 40
1.0
 10
921.508606078974
 20
724.7104935728139
 30
0.0
 10
921.5316573536603
 20
724.6608350248082
 30
0.0
 10
921.5774456935787
 20
724.562194819141
 30
0.0
 10
921.6637372878375
 20
724.4232168611803
 30
0.0
 10
921.7636841457501
 20
724.293406661319
 30
0.0
 10
921.8759236951595
 20
724.1706551427637
 30
0.0
 10
922.0031992617546
 20
724.0585568163035
 30
0.0
 10
922.1437747927162
 20
723.9561127901584
 30
0.0
 10
922.2961517347815
 20
723.8601323649106
 30
0.0
 10
922.4060205518575
 20
723.8066949055176
 30
0.0
 10
922.4621317199997
 20
723.7794038292242
 30
0.0
  0
SPLINE
  5
AF
330
1F
100
AcDbEntity
  8
0
  6
Continuous
 62
     7
370
    25
100
AcDbSpline
210
0.0
220
0.0
230
1.0
 70
     8
 71
     3
 72
    15
 73
    11
 74
     0
 42
0.00000001
 43
0.00000001
 40
0.0
 40
0.0
 40
0.0
 40
0.0
 40
0.1516065838585568
 40
0.2947827086211755
 40
0.4296941713902486
 40
0.5569803399774738
 40
0.6770913678755907
 40
0.7897157378889825
 40
0.8977605521473631
 40
1.0
 40
1.0
 40
1.0
 40
1.0
 10
921.4525163353843
 20
725.9765192138397
 30
0.0
 10
921.4418660728799
 20
725.9124964861518
 30
0.0
 10
921.4211577820608
 20
725.78801117291
 30
0.0
 10
921.3992498587711
 20
725.6052334808891
 30
0.0
 10
921.3918117706004
 20
725.431707914949
 30
0.0
 10
921.3933311769055
 20
725.2680473136004
 30
0.0
 10
921.4028121066053
 20
725.1139550178003
 30
0.0
 10
921.4284588940111
 20
724.9702088907152
 30
0.0
 10
921.4599338422139
 20
724.8352889820977
 30
0.0
 10
921.492683374701
 20
724.7513193192548
 30
0.0
 10
921.508606078974
 20
724.7104935728139
 30
0.0
  0
LINE
  5
B0
330
1F
100
AcDbEntity
  8
0
  6
Continuous
 62
     7
370
    25
100
AcDbLine
 10
920.7457855662
 20
726.306647419
 30
0.0
 11
921.4525163354
 21
725.9765192138
 31
0.0
  0
SPLINE
  5
B1
330
1F
100
AcDbEntity
  8
0
  6
Continuous
 62
     7
370
    25
100
AcDbSpline
210
0.0
220
0.0
230
1.0
 70
     8
 71
     3
 72
    23
 73
    19
 74
     0
 42
0.00000001
 43
0.00000001
 40
0.0
 40
0.0
 40
0.0
 40
0.0
 40
0.0654177540687141
 40
0.1282752274615046
 40
0.1891950246628825
 40
0.248653159158687
 40
0.3074454350053608
 40
0.3652110871774641
 40
0.423310561489973
 40
0.4814768671877754
 40
0.5402794215327843
 40
0.600269526986033
 40
0.6610019655603098
 40
0.7235316882549727
 40
0.7883554945174268
 40
0.8555094462368366
 40
0.9262155188230141
 40
1.0
 40
1.0
 40
1.0
 40
1.0
 10
922.1239906943587
 20
723.0822884446088
 30
0.0
 10
922.0485897097037
 20
723.1196070921563
 30
0.0
 10
921.9007387387386
 20
723.1927838324902
 30
0.0
 10
921.6931284081184
 20
723.3201573606127
 30
0.0
 10
921.5029576352734
 20
723.4596704408317
 30
0.0
 10
921.3307081536418
 20
723.6130312928325
 30
0.0
 10
921.1747733044112
 20
723.7774753653955
 30
0.0
 10
921.0377787653681
 20
723.9557976413105
 30
0.0
 10
920.9170878648695
 20
724.1445490592639
 30
0.0
 10
920.8157627403415
 20
724.3459690588301
 30
0.0
 10
920.7339760478329
 20
724.5585849458697
 30
0.0
 10
920.6710349869597
 20
724.7810183985201
 30
0.0
 10
920.6312377329618
 20
725.013650006512
 30
0.0
 10
920.6128967897677
 20
725.2549772918571
 30
0.0
 10
920.6120323151679
 20
725.5053447137726
 30
0.0
 10
920.6361820868623
 20
725.7650580508187
 30
0.0
 10
920.6785767695939
 20
726.0340962336602
 30
0.0
 10
920.7230666776372
 20
726.2145157292049
 30
0.0
 10
920.7457855661535
 20
726.3066474189678
 30
0.0
  0
SPLINE
  5
B2
330
1F
100
AcDbEntity
  8
0
  6
Continuous
 62
     7
370
    25
100
AcDbSpline
210
0.0
220
0.0
230
1.0
 70
     8
 71
     3
 72
    23
 73
    19
 74
     0
 42
0.00000001
 43
0.00000001
 40
0.0
 40
0.0
 40
0.0
 40
0.0
 40
0.0802668299028894
 40
0.1601423028671963
 40
0.241336153489734
 40
0.3249997261472086
 40
0.3671781894539914
 40
0.4087669121187524
 40
0.4499923764365803
 40
0.4907139750301034
 40
0.5317655859968186
 40
0.5727524864410025
 40
0.6139779507588299
 40
0.6556286787526183
 40
0.7397282402001524
 40
0.8238514700589334
 40
0.9105778990964746
 40
1.0
 40
1.0
 40
1.0
 40
1.0
 10
925.6768753097433
 20
724.2649807523012
 30
0.0
 10
925.625629672232
 20
724.1655948667857
 30
0.0
 10
925.5233882555361
 20
723.9673076714624
 30
0.0
 10
925.3205876430052
 20
723.6978108976937
 30
0.0
 10
925.0815869180406
 20
723.4541787665821
 30
0.0
 10
924.8541353168831
 20
723.2763360063921
 30
0.0
 10
924.6597221498392
 20
723.1477135161435
 30
0.0
 10
924.5063888599418
 20
723.0654388983659
 30
0.0
 10
924.3516352011345
 20
722.9904108520192
 30
0.0
 10
924.1913166733532
 20
722.9301799323596
 30
0.0
 10
924.0285944448905
 20
722.8779712219525
 30
0.0
 10
923.8611730091222
 20
722.8400796359799
 30
0.0
 10
923.6909565698724
 20
722.8126169224955
 30
0.0
 10
923.4595181052579
 20
722.7914650984922
 30
0.0
 10
923.1665930578264
 20
722.7921450787542
 30
0.0
 10
922.8145983615528
 20
722.8420410445592
 30
0.0
 10
922.463493286847
 20
722.9355973461802
 30
0.0
 10
922.2383069310071
 20
723.0328950829874
 30
0.0
 10
922.1239906943587
 20
723.0822884446088
 30
0.0
  0
SPLINE
  5
B3
330
1F
100
AcDbEntity
  8
0
  6
Continuous
 62
     7
370
    25
100
AcDbSpline
210
0.0
220
0.0
230
1.0
 70
     8
 71
     3
 72
    15
 73
    11
 74
     0
 42
0.00000001
 43
0.00000001
 40
0.0
 40
0.0
 40
0.0
 40
0.0
 40
0.1304099622650275
 40
0.2580469237126998
 40
0.3826810449248522
 40
0.5051948578295389
 40
0.6276911035111762
 40
0.7499939432012959
 40
0.8740048899027644
 40
1.0
 40
1.0
 40
1.0
 40
1.0
 10
925.8082855661535
 20
725.772993572814
 30
0.0
 10
925.823272328983
 20
725.7074938566886
 30
0.0
 10
925.8529271803254
 20
725.5778871920089
 30
0.0
 10
925.8777806321292
 20
725.3821036125147
 30
0.0
 10
925.8882948230242
 20
725.1891876877253
 30
0.0
 10
925.8801644812845
 20
724.9986908115588
 30
0.0
 10
925.8542881324719
 20
724.8110343468119
 30
0.0
 10
925.8119423074851
 20
724.6257391921039
 30
0.0
 10
925.755398566153
 20
724.4421370269167
 30
0.0
 10
925.7031878513191
 20
724.3243444625493
 30
0.0
 10
925.6768753097433
 20
724.2649807523012
 30
0.0
  0
SPLINE
  5
B4
330
1F
100
AcDbEntity
  8
0
  6
Continuous
 62
     7
370
    25
100
AcDbSpline
210
0.0
220
0.0
230
1.0
 70
     8
 71
     3
 72
    11
 73
     7
 74
     0
 42
0.00000001
 43
0.00000001
 40
0.0
 40
0.0
 40
0.0
 40
0.0
 40
0.2585392203559431
 40
0.5093002428594319
 40
0.7550895735515631
 40
0.9999999999999999
 40
0.9999999999999999
 40
0.9999999999999999
 40
0.9999999999999999
 10
925.2441830020509
 20
726.7906217779422
 30
0.0
 10
925.3109691070213
 20
726.7142687691421
 30
0.0
 10
925.442532045264
 20
726.563859845222
 30
0.0
 10
925.6004896988018
 20
726.312583725887
 30
0.0
 10
925.7275937733268
 20
726.0501556008344
 30
0.0
 10
925.7814204386268
 20
725.8652705314425
 30
0.0
 10
925.8082855661535
 20
725.772993572814
 30
0.0
  0
SPLINE
  5
B5
330
1F
100
AcDbEntity
  8
0
  6
Continuous
 62
     7
370
    25
100
AcDbSpline
210
0.0
220
0.0
230
1.0
 70
     8
 71
     3
 72
    15
 73
    11
 74
     0
 42
0.00000001
 43
0.00000001
 40
0.0
 40
0.0
 40
0.0
 40
0.0
 40
0.1239923097251185
 40
0.2439770562511454
 40
0.360940323488609
 40
0.4790228309396518
 40
0.5997906860244286
 40
0.7253092977833295
 40
0.8585262558885011
 40
1.0
 40
1.0
 40
1.0
 40
1.0
 10
926.8643753097433
 20
727.8338910087115
 30
0.0
 10
926.8256953808678
 20
727.7595670222822
 30
0.0
 10
926.749585699518
 20
727.613321279639
 30
0.0
 10
926.6040243174662
 20
727.4165582013729
 30
0.0
 10
926.4348072187553
 20
727.2458986380232
 30
0.0
 10
926.2428563770702
 20
727.100055754369
 30
0.0
 10
926.0255233182858
 20
726.9829781585431
 30
0.0
 10
925.785559927575
 20
726.8920229883078
 30
0.0
 10
925.5234809467818
 20
726.82322008825
 30
0.0
 10
925.3391294260243
 20
726.8017034670477
 30
0.0
 10
925.2441830020509
 20
726.7906217779422
 30
0.0
  0
SPLINE
  5
B6
330
1F
100
AcDbEntity
  8
0
  6
Continuous
 62
     7
370
    25
100
AcDbSpline
210
0.0
220
0.0
230
1.0
 70
     8
 71
     3
 72
    19
 73
    15
 74
     0
 42
0.00000001
 43
0.00000001
 40
0.0
 40
0.0
 40
0.0
 40
0.0
 40
0.0896350463997114
 40
0.1777658033811781
 40
0.2654333370386815
 40
0.3536177702579278
 40
0.4405352138082327
 40
0.5246695349838681
 40
0.6067098865210345
 40
0.6891636770048393
 40
0.7699660001943923
 40
0.8476520994961964
 40
0.923675804685782
 40
1.0
 40
1.0
 40
1.0
 40
1.0
 10
925.6624522328202
 20
730.6704294702498
 30
0.0
 10
925.7535611543263
 20
730.624129177609
 30
0.0
 10
925.9342499727882
 20
730.5323056214369
 30
0.0
 10
926.1799927329272
 20
730.3544848913634
 30
0.0
 10
926.4032035820115
 20
730.152195077086
 30
0.0
 10
926.5969058257756
 20
729.9231926060552
 30
0.0
 10
926.7629164217107
 20
729.6782312369579
 30
0.0
 10
926.8900787741354
 20
729.418621575542
 30
0.0
 10
926.9804320870461
 20
729.1492644522154
 30
0.0
 10
927.0280163970516
 20
728.8732130496866
 30
0.0
 10
927.0440474663967
 20
728.598564097306
 30
0.0
 10
927.0209259933907
 20
728.3317971280567
 30
0.0
 10
926.9645829331841
 20
728.0746928399368
 30
0.0
 10
926.897821744019
 20
727.9142637622506
 30
0.0
 10
926.8643753097433
 20
727.8338910087115
 30
0.0
  0
SPLINE
  5
B7
330
1F
100
AcDbEntity
  8
0
  6
Continuous
 62
     7
370
    25
100
AcDbSpline
210
0.0
220
0.0
230
1.0
 70
     8
 71
     3
 72
    23
 73
    19
 74
     0
 42
0.00000001
 43
0.00000001
 40
0.0
 40
0.0
 40
0.0
 40
0.0
 40
0.0730540379162068
 40
0.1434514678166384
 40
0.2108718637786387
 40
0.2763747147923146
 40
0.3393322433634542
 40
0.4016624214796286
 40
0.462830642309705
 40
0.5235271122725885
 40
0.583768642433274
 40
0.6425478959962369
 40
0.7008842064002755
 40
0.7592416855718797
 40
0.8176145553890125
 40
0.8769319541648898
 40
0.9377743937179287
 40
1.0
 40
1.0
 40
1.0
 40
1.0
 10
922.6784778738458
 20
729.8066474189678
 30
0.0
 10
922.7299322554388
 20
729.8709816907542
 30
0.0
 10
922.8309698814985
 20
729.9973107203593
 30
0.0
 10
922.9947304776954
 20
730.1699893631672
 30
0.0
 10
923.1636429724715
 20
730.3251889012876
 30
0.0
 10
923.337967810032
 20
730.4610937896813
 30
0.0
 10
923.5175098404411
 20
730.5799507449744
 30
0.0
 10
923.7031325298051
 20
730.6792465242995
 30
0.0
 10
923.8948899086472
 20
730.7596227441924
 30
0.0
 10
924.0906744522539
 20
730.8221200282065
 30
0.0
 10
924.2884678201494
 20
730.8672298992531
 30
0.0
 10
924.4870384379361
 20
730.8928010223523
 30
0.0
 10
924.6849175854991
 20
730.9009454478359
 30
0.0
 10
924.8823049405089
 20
730.8913566026912
 30
0.0
 10
925.0790843134453
 20
730.8637365228964
 30
0.0
 10
925.2754826920819
 20
730.818768113798
 30
0.0
 10
925.4712867255791
 20
730.7548323701336
 30
0.0
 10
925.5982547308962
 20
730.6987737851101
 30
0.0
 10
925.6624522328202
 20
730.6704294702498
 30
0.0
  0
LINE
  5
B8
330
1F
100
AcDbEntity
  8
0
  6
Continuous
 62
     7
370
    25
100
AcDbLine
 10
923.4140547969
 20
729.4620961369
 30
0.0
 11
922.6784778738
 21
729.806647419
 31
0.0
  0
SPLINE
  5
B9
330
1F
100
AcDbEntity
  8
0
  6
Continuous
 62
     7
370
    25
100
AcDbSpline
210
0.0
220
0.0
230
1.0
 70
     8
 71
     3
 72
    19
 73
    15
 74
     0
 42
0.00000001
 43
0.00000001
 40
0.0
 40
0.0
 40
0.0
 40
0.0
 40
0.1164286194073676
 40
0.227749163197773
 40
0.3366743359592877
 40
0.4458217893984938
 40
0.5026470738635663
 40
0.5620474744694949
 40
0.6245052671766154
 40
0.6908150104194682
 40
0.7611946812786761
 40
0.83672371346426
 40
0.9155501346683265
 40
1.0
 40
1.0
 40
1.0
 40
1.0
 10
925.3323240276919
 20
729.9685063933268
 30
0.0
 10
925.2557041471082
 20
730.0003419032314
 30
0.0
 10
925.1058259318029
 20
730.0626162029496
 30
0.0
 10
924.8700557602751
 20
730.1130113899918
 30
0.0
 10
924.6347136280177
 20
730.1210849877065
 30
0.0
 10
924.4400055196407
 20
730.0937692090215
 30
0.0
 10
924.2850641651193
 20
730.0516509363445
 30
0.0
 10
924.1661940910462
 20
730.0060705858726
 30
0.0
 10
924.0451375059298
 20
729.9484195526559
 30
0.0
 10
923.9239497285923
 20
729.874739496934
 30
0.0
 10
923.7977691255749
 20
729.7916870685066
 30
0.0
 10
923.6710608414122
 20
729.693952192449
 30
0.0
 10
923.5412673062197
 20
729.5841649417986
 30
0.0
 10
923.4574215516947
 20
729.5037094024348
 30
0.0
 10
923.4140547969228
 20
729.4620961369164
 30
0.0
  0
SPLINE
  5
BA
330
1F
100
AcDbEntity
  8
0
  6
Continuous
 62
     7
370
    25
100
AcDbSpline
210
0.0
220
0.0
230
1.0
 70
     8
 71
     3
 72
    23
 73
    19
 74
     0
 42
0.00000001
 43
0.00000001
 40
0.0
 40
0.0
 40
0.0
 40
0.0
 40
0.0592083159606125
 40
0.117163677199971
 40
0.1743358218803504
 40
0.2308113092321192
 40
0.288723963768077
 40
0.3472410720399161
 40
0.4085704203409787
 40
0.4716672921252477
 40
0.5363518900545772
 40
0.5995532413448492
 40
0.6631751159195911
 40
0.7272190450585491
 40
0.7923103617843772
 40
0.859044962143119
 40
0.9283698402619474
 40
1.0
 40
1.0
 40
1.0
 40
1.0
 10
926.1143753097433
 20
728.1912628035832
 30
0.0
 10
926.1312026446842
 20
728.2304852989747
 30
0.0
 10
926.1645012178183
 20
728.3081002710351
 30
0.0
 10
926.2000350174168
 20
728.4289624914077
 30
0.0
 10
926.2203893549004
 20
728.5511026954637
 30
0.0
 10
926.2292261707313
 20
728.6746511227095
 30
0.0
 10
926.2220258346449
 20
728.7992825037704
 30
0.0
 10
926.2028587481309
 20
728.926103051962
 30
0.0
 10
926.1687376255261
 20
729.0536635345327
 30
0.0
 10
926.1221594529135
 20
729.181824837234
 30
0.0
 10
926.0643014375654
 20
729.3069395906565
 30
0.0
 10
925.992462200896
 20
729.4250004029801
 30
0.0
 10
925.9109122104205
 20
729.5359604291891
 30
0.0
 10
925.8173352930392
 20
729.6388782745875
 30
0.0
 10
925.7127173002019
 20
729.7339401695594
 30
0.0
 10
925.5961205114036
 20
729.8202011988338
 30
0.0
 10
925.4701823919025
 20
729.9014933849306
 30
0.0
 10
925.3787751294683
 20
729.9459264933607
 30
0.0
 10
925.3323240276919
 20
729.9685063933268
 30
0.0
  0
SPLINE
  5
BB
330
1F
100
AcDbEntity
  8
0
  6
Continuous
 62
     7
370
    25
100
AcDbSpline
210
0.0
220
0.0
230
1.0
 70
     8
 71
     3
 72
    11
 73
     7
 74
     0
 42
0.00000001
 43
0.00000001
 40
0.0
 40
0.0
 40
0.0
 40
0.0
 40
0.2623160288263865
 40
0.5162185938661682
 40
0.7597463851145799
 40
1.0
 40
1.0
 40
1.0
 40
1.0
 10
910.2827909403483
 20
731.2139050967024
 30
0.0
 10
910.3076917580336
 20
731.1728172379522
 30
0.0
 10
910.356694730323
 20
731.0919593629535
 30
0.0
 10
910.4414719215077
 20
730.9813277108466
 30
0.0
 10
910.5352869620785
 20
730.8836781409481
 30
0.0
 10
910.6042914395339
 20
730.8280629534336
 30
0.0
 10
910.6385601711175
 20
730.8004435582409
 30
0.0
  0
SPLINE
  5
BC
330
1F
100
AcDbEntity
  8
0
  6
Continuous
 62
     7
370
    25
100
AcDbSpline
210
0.0
220
0.0
230
1.0
 70
     8
 71
     3
 72
    11
 73
     7
 74
     0
 42
0.00000001
 43
0.00000001
 40
0.0
 40
0.0
 40
0.0
 40
0.0
 40
0.2993376086619681
 40
0.566311983920626
 40
0.7986865685301856
 40
1.0
 40
1.0
 40
1.0
 40
1.0
 10
909.8180473506047
 20
732.3260845838819
 30
0.0
 10
909.8564227771432
 20
732.2118727081936
 30
0.0
 10
909.9290246263863
 20
731.9957971064757
 30
0.0
 10
910.0489003375905
 20
731.6975683980818
 30
0.0
 10
910.1596270176022
 20
731.4379547544211
 30
0.0
 10
910.2437444909001
 20
731.28493517953
 30
0.0
 10
910.2827909403483
 20
731.2139050967024
 30
0.0
  0
LINE
  5
BD
330
1F
100
AcDbEntity
  8
0
  6
Continuous
 62
     7
370
    25
100
AcDbLine
 10
909.1017011968
 20
732.0680717634
 30
0.0
 11
909.8180473506
 21
732.3260845839
 31
0.0
  0
SPLINE
  5
BE
330
1F
100
AcDbEntity
  8
0
  6
Continuous
 62
     7
370
    25
100
AcDbSpline
210
0.0
220
0.0
230
1.0
 70
     8
 71
     3
 72
    15
 73
    11
 74
     0
 42
0.00000001
 43
0.00000001
 40
0.0
 40
0.0
 40
0.0
 40
0.0
 40
0.1086986189168785
 40
0.2178893075925
 40
0.3286285387236571
 40
0.4412385171906959
 40
0.5615846616903479
 40
0.6943797132077669
 40
0.8399602784806499
 40
1.0
 40
1.0
 40
1.0
 40
1.0
 10
910.1962524788098
 20
730.2026871479845
 30
0.0
 10
910.1332881090274
 20
730.2522648097079
 30
0.0
 10
910.0070743349098
 20
730.3516445671746
 30
0.0
 10
909.8348687921333
 20
730.522807982589
 30
0.0
 10
909.6802457123075
 20
730.7131910336785
 30
0.0
 10
909.5349356403486
 20
730.921134872306
 30
0.0
 10
909.4085200763155
 20
731.1597513204845
 30
0.0
 10
909.2914828388222
 20
731.429481191544
 30
0.0
 10
909.1875760994893
 20
731.7357970247898
 30
0.0
 10
909.1312149949658
 20
731.9538743754015
 30
0.0
 10
909.1017011967585
 20
732.0680717633691
 30
0.0
  0
SPLINE
  5
BF
330
1F
100
AcDbEntity
  8
0
  6
Continuous
 62
     7
370
    25
100
AcDbSpline
210
0.0
220
0.0
230
1.0
 70
     8
 71
     3
 72
    23
 73
    19
 74
     0
 42
0.00000001
 43
0.00000001
 40
0.0
 40
0.0
 40
0.0
 40
0.0
 40
0.0763696168775083
 40
0.1466258799149891
 40
0.2112013732325169
 40
0.269519678134679
 40
0.3222591416996958
 40
0.3692239048522343
 40
0.4105617984324001
 40
0.4464761584604141
 40
0.5120806334460983
 40
0.5760843159281986
 40
0.6412188700390362
 40
0.7080063024438131
 40
0.7767249744693965
 40
0.8472138056647733
 40
0.9212486210986686
 40
1.0
 40
1.0
 40
1.0
 40
1.0
 10
913.4045858121431
 20
731.3036486864461
 30
0.0
 10
913.3453179537184
 20
731.2236210051518
 30
0.0
 10
913.2315266025564
 20
731.0699718228317
 30
0.0
 10
913.05868105627
 20
730.8555618344361
 30
0.0
 10
912.8984575544948
 20
730.661209472926
 30
0.0
 10
912.7449916159474
 20
730.4912090278341
 30
0.0
 10
912.6038424456032
 20
730.3409990962479
 30
0.0
 10
912.4688063321713
 20
730.2159933041794
 30
0.0
 10
912.3442050053596
 20
730.1123461495911
 30
0.0
 10
912.1913056353104
 20
730.0055309277924
 30
0.0
 10
911.9986516772577
 20
729.9062569596699
 30
0.0
 10
911.7575667367971
 20
729.8230236564831
 30
0.0
 10
911.503796009411
 20
729.7848993108403
 30
0.0
 10
911.241487955832
 20
729.7808409012619
 30
0.0
 10
910.9741614343258
 20
729.8188714493527
 30
0.0
 10
910.7090285638797
 20
729.9056373849454
 30
0.0
 10
910.4447079579376
 20
730.030408021239
 30
0.0
 10
910.2807580357412
 20
730.14409096164
 30
0.0
 10
910.1962524788098
 20
730.2026871479845
 30
0.0
  0
LINE
  5
C0
330
1F
100
AcDbEntity
  8
0
  6
Continuous
 62
     7
370
    25
100
AcDbLine
 10
916.6065088891
 20
735.6289691993
 30
0.0
 11
913.4045858121
 21
731.3036486864
 31
0.0
  0
LINE
  5
C1
330
1F
100
AcDbEntity
  8
0
  6
Continuous
 62
     7
370
    25
100
AcDbLine
 10
915.9606755557
 20
736.1065333018
 30
0.0
 11
916.6065088891
 21
735.6289691993
 31
0.0
  0
LINE
  5
C2
330
1F
100
AcDbEntity
  8
0
  6
Continuous
 62
     7
370
    25
100
AcDbLine
 10
912.7747781198
 20
731.8020461223
 30
0.0
 11
915.9606755557
 21
736.1065333018
 31
0.0
  0
SPLINE
  5
C3
330
1F
100
AcDbEntity
  8
0
  6
Continuous
 62
     7
370
    25
100
AcDbSpline
210
0.0
220
0.0
230
1.0
 70
     8
 71
     3
 72
    23
 73
    19
 74
     0
 42
0.00000001
 43
0.00000001
 40
0.0
 40
0.0
 40
0.0
 40
0.0
 40
0.0620931238536485
 40
0.1237697047664146
 40
0.1847222336968665
 40
0.2483277881371954
 40
0.3119333425775244
 40
0.3747715647280867
 40
0.4381063599919692
 40
0.5033732326141638
 40
0.5400048093145886
 40
0.5840395201459959
 40
0.6348112626882382
 40
0.6936963920455883
 40
0.759050974262366
 40
0.8318459407143023
 40
0.9124013722541022
 40
1.0
 40
1.0
 40
1.0
 40
1.0
 10
910.6385601711175
 20
730.8004435582409
 30
0.0
 10
910.6846472376984
 20
730.7694224300338
 30
0.0
 10
910.7765122022911
 20
730.7075882744716
 30
0.0
 10
910.9300104832712
 20
730.6444918595582
 30
0.0
 10
911.0920734847996
 20
730.604625733015
 30
0.0
 10
911.2603474094595
 20
730.5930172982994
 30
0.0
 10
911.4303533179207
 20
730.6046021289466
 30
0.0
 10
911.595295498713
 20
730.6463582891747
 30
0.0
 10
911.7544906165733
 20
730.7102173893976
 30
0.0
 10
911.8805339926649
 20
730.788283858926
 30
0.0
 10
911.9827803812212
 20
730.8692344727053
 30
0.0
 10
912.0678208259278
 20
730.9502102606488
 30
0.0
 10
912.165588815887
 20
731.0465277111088
 30
0.0
 10
912.2692200257551
 20
731.163558971958
 30
0.0
 10
912.3842932175645
 20
731.2966241327903
 30
0.0
 10
912.5049269087808
 20
731.4502051850103
 30
0.0
 10
912.6384804410109
 20
731.6188402484838
 30
0.0
 10
912.7280943888899
 20
731.7392957233883
 30
0.0
 10
912.7747781198354
 20
731.8020461223434
 30
0.0
  0
LINE
  5
C4
330
1F
100
AcDbEntity
  8
0
  6
Continuous
 62
     7
370
    25
100
AcDbLine
 10
918.3585097002
 20
734.378845949
 30
0.0
 11
914.0043430335
 21
727.7490382567
 31
0.0
  0
LINE
  5
C5
330
1F
100
AcDbEntity
  8
0
  6
Continuous
 62
     7
370
    25
100
AcDbLine
 10
917.6950481617
 20
734.8147433849
 30
0.0
 11
918.3585097002
 21
734.378845949
 31
0.0
  0
LINE
  5
C6
330
1F
100
AcDbEntity
  8
0
  6
Continuous
 62
     7
370
    25
100
AcDbLine
 10
913.340881495
 20
728.1849356926
 30
0.0
 11
917.6950481617
 21
734.8147433849
 31
0.0
  0
LINE
  5
C7
330
1F
100
AcDbEntity
  8
0
  6
Continuous
 62
     7
370
    25
100
AcDbLine
 10
914.0043430335
 20
727.7490382567
 30
0.0
 11
913.340881495
 21
728.1849356926
 31
0.0
  0
LINE
  5
C8
330
1F
100
AcDbEntity
  8
0
  6
Continuous
 62
     7
370
    25
100
AcDbLine
 10
933.4893706451
 20
722.9517082886
 30
0.0
 11
932.5518706451
 21
719.3779903399
 31
0.0
  0
LINE
  5
C9
330
1F
100
AcDbEntity
  8
0
  6
Continuous
 62
     7
370
    25
100
AcDbLine
 10
935.9172552604
 20
718.4949775194
 30
0.0
 11
933.4893706451
 21
722.9517082886
 31
0.0
  0
LINE
  5
CA
330
1F
100
AcDbEntity
  8
0
  6
Continuous
 62
     7
370
    25
100
AcDbLine
 10
936.9332809015
 20
718.2289518784
 30
0.0
 11
935.9172552604
 21
718.4949775194
 31
0.0
  0
LINE
  5
CB
330
1F
100
AcDbEntity
  8
0
  6
Continuous
 62
     7
370
    25
100
AcDbLine
 10
934.0727039784
 20
723.4949775194
 30
0.0
 11
936.9332809015
 21
718.2289518784
 31
0.0
  0
LINE
  5
CC
330
1F
100
AcDbEntity
  8
0
  6
Continuous
 62
     7
370
    25
100
AcDbLine
 10
938.6576398758
 20
725.9661313656
 30
0.0
 11
934.0727039784
 21
723.4949775194
 31
0.0
  0
LINE
  5
CD
330
1F
100
AcDbEntity
  8
0
  6
Continuous
 62
     7
370
    25
100
AcDbLine
 10
937.6207809015
 20
726.238567263
 30
0.0
 11
938.6576398758
 21
725.9661313656
 31
0.0
  0
LINE
  5
CE
330
1F
100
AcDbEntity
  8
0
  6
Continuous
 62
     7
370
    25
100
AcDbLine
 10
933.8082809015
 20
724.1648493143
 30
0.0
 11
937.6207809015
 21
726.238567263
 31
0.0
  0
LINE
  5
CF
330
1F
100
AcDbEntity
  8
0
  6
Continuous
 62
     7
370
    25
100
AcDbLine
 10
934.5630885938
 20
727.0398493143
 30
0.0
 11
933.8082809015
 21
724.1648493143
 31
0.0
  0
LINE
  5
D0
330
1F
100
AcDbEntity
  8
0
  6
Continuous
 62
     7
370
    25
100
AcDbLine
 10
933.7826398758
 20
727.2449775194
 30
0.0
 11
934.5630885938
 21
727.0398493143
 31
0.0
  0
LINE
  5
D1
330
1F
100
AcDbEntity
  8
0
  6
Continuous
 62
     7
370
    25
100
AcDbLine
 10
931.7714219271
 20
719.583118545
 30
0.0
 11
933.7826398758
 21
727.2449775194
 31
0.0
  0
LINE
  5
D2
330
1F
100
AcDbEntity
  8
0
  6
Continuous
 62
     7
370
    25
100
AcDbLine
 10
932.5518706451
 20
719.3779903399
 30
0.0
 11
931.7714219271
 21
719.583118545
 31
0.0
  0
SPLINE
  5
D3
330
1F
100
AcDbEntity
  8
0
  6
Continuous
 62
     7
370
    25
100
AcDbSpline
210
0.0
220
0.0
230
1.0
 70
     8
 71
     3
 72
    31
 73
    27
 74
     0
 42
0.00000001
 43
0.00000001
 40
0.0
 40
0.0
 40
0.0
 40
0.0
 40
0.0340482096550194
 40
0.0676157488554356
 40
0.1006323064318395
 40
0.1333027650124878
 40
0.166023427938665
 40
0.198843018830148
 40
0.2321540746378675
 40
0.266131100346214
 40
0.3003859851086005
 40
0.3352382422765646
 40
0.3709385366536552
 40
0.4072677988721524
 40
0.4451367948411701
 40
0.4839064249180055
 40
0.5243087655754995
 40
0.5665192135768284
 40
0.6106386472438349
 40
0.6571373579449873
 40
0.7067784766675447
 40
0.7591541071081526
 40
0.8143407309774677
 40
0.8730615222705481
 40
0.9348597345663099
 40
1.0
 40
1.0
 40
1.0
 40
1.0
 10
930.6610544777549
 20
728.5294017397636
 30
0.0
 10
930.7201866590365
 20
728.5062278998308
 30
0.0
 10
930.8376162319664
 20
728.4602073731489
 30
0.0
 10
931.00584484801
 20
728.3764906319476
 30
0.0
 10
931.1649656235064
 20
728.2817248912306
 30
0.0
 10
931.3152519364921
 20
728.1759512518423
 30
0.0
 10
931.4539426796365
 20
728.0561131776218
 30
0.0
 10
931.5869916059543
 20
727.9282856186753
 30
0.0
 10
931.7082178635992
 20
727.7860278396835
 30
0.0
 10
931.8220373788516
 20
727.6345739674699
 30
0.0
 10
931.9252918073379
 20
727.4721697729655
 30
0.0
 10
932.0153282871288
 20
727.2983998833365
 30
0.0
 10
932.0911067549824
 20
727.1139060925962
 30
0.0
 10
932.1583304766239
 20
726.9201420823526
 30
0.0
 10
932.2100021454316
 20
726.7157151128654
 30
0.0
 10
932.250643331015
 20
726.501145566486
 30
0.0
 10
932.2769139019231
 20
726.2761996295453
 30
0.0
 10
932.293528202795
 20
726.0403858510294
 30
0.0
 10
932.2953939496133
 20
725.7925002994103
 30
0.0
 10
932.2784556712863
 20
725.5313314853287
 30
0.0
 10
932.2446972128844
 20
725.2563198709724
 30
0.0
 10
932.1924755799005
 20
724.9677590913867
 30
0.0
 10
932.1248094619365
 20
724.6650946320974
 30
0.0
 10
932.0398232434783
 20
724.348581666029
 30
0.0
 10
931.9367059300599
 20
724.0180122574428
 30
0.0
 10
931.8583270067988
 20
723.7946594171866
 30
0.0
 10
931.818105759806
 20
723.6800427654046
 30
0.0
  0
SPLINE
  5
D4
330
1F
100
AcDbEntity
  8
0
  6
Continuous
 62
     7
370
    25
100
AcDbSpline
210
0.0
220
0.0
230
1.0
 70
     8
 71
     3
 72
    31
 73
    27
 74
     0
 42
0.00000001
 43
0.00000001
 40
0.0
 40
0.0
 40
0.0
 40
0.0
 40
0.06847789372528
 40
0.1331457400504394
 40
0.1936958489686032
 40
0.2505942452591063
 40
0.3036667986829306
 40
0.3534524644327091
 40
0.3995660535383173
 40
0.4424164228826138
 40
0.4830372320503435
 40
0.5224221527098922
 40
0.5600995214906924
 40
0.5969233698128801
 40
0.6325501762441784
 40
0.6676474052974752
 40
0.7020452063019014
 40
0.7360744553203944
 40
0.769592346313933
 40
0.8026501758105375
 40
0.8353536232389168
 40
0.8679551111130571
 40
0.9003709798977131
 40
0.9330973244487277
 40
0.9663346843321174
 40
1.0
 40
1.0
 40
1.0
 40
1.0
 10
926.7395801187804
 20
725.5277991756609
 30
0.0
 10
926.7836275859879
 20
725.6467109495129
 30
0.0
 10
926.8692717595982
 20
725.8779183548363
 30
0.0
 10
927.0074648703314
 20
726.208957640999
 30
0.0
 10
927.1461940891878
 20
726.5164117040877
 30
0.0
 10
927.2895462033734
 20
726.7978023252617
 30
0.0
 10
927.4309298423711
 20
727.057764153445
 30
0.0
 10
927.5783100554277
 20
727.2911478228655
 30
0.0
 10
927.7273258695798
 20
727.5006083620262
 30
0.0
 10
927.879181092109
 20
727.6866163630468
 30
0.0
 10
928.0344165791304
 20
727.8531300366333
 30
0.0
 10
928.1926953450187
 20
728.0030153318347
 30
0.0
 10
928.3533298520423
 20
728.139977242172
 30
0.0
 10
928.5204168834555
 20
728.2572329750597
 30
0.0
 10
928.6893408674323
 20
728.3628828453433
 30
0.0
 10
928.8622477523649
 20
728.4528498202549
 30
0.0
 10
929.0394300070985
 20
728.5264259239977
 30
0.0
 10
929.2186339060042
 20
728.5865351789547
 30
0.0
 10
929.4002742169927
 20
728.6285555877627
 30
0.0
 10
929.5814872756504
 20
728.6606701830206
 30
0.0
 10
929.7633639552272
 20
728.6736778865227
 30
0.0
 10
929.9444480202673
 20
728.6766872028696
 30
0.0
 10
930.1250742797062
 20
728.6613984137011
 30
0.0
 10
930.3050152531788
 20
728.6323635789972
 30
0.0
 10
930.4847999596308
 20
728.589760419034
 30
0.0
 10
930.6020529612822
 20
728.5496069160457
 30
0.0
 10
930.6610544777549
 20
728.5294017397636
 30
0.0
  0
SPLINE
  5
D5
330
1F
100
AcDbEntity
  8
0
  6
Continuous
 62
     7
370
    25
100
AcDbSpline
210
0.0
220
0.0
230
1.0
 70
     8
 71
     3
 72
    31
 73
    27
 74
     0
 42
0.00000001
 43
0.00000001
 40
0.0
 40
0.0
 40
0.0
 40
0.0
 40
0.0336935443474848
 40
0.0669004687167431
 40
0.0995535147301604
 40
0.1318634774116109
 40
0.1642688907077518
 40
0.1965504217538008
 40
0.2293297658908136
 40
0.262787123101405
 40
0.2967815747037859
 40
0.3308949119575729
 40
0.3659876630028148
 40
0.4015294909563807
 40
0.4384581381763712
 40
0.4766524124323944
 40
0.5158966078362063
 40
0.5569882707394723
 40
0.6003271976748605
 40
0.6469946705562635
 40
0.696844842606542
 40
0.7500539483373984
 40
0.8070297746095946
 40
0.867592759358325
 40
0.9317433565790268
 40
1.0
 40
1.0
 40
1.0
 40
1.0
 10
927.814900631601
 20
720.7136966115584
 30
0.0
 10
927.7568348002607
 20
720.7363322536733
 30
0.0
 10
927.6415417550103
 20
720.7812766219944
 30
0.0
 10
927.4765500536843
 20
720.86344556162
 30
0.0
 10
927.3204622894342
 20
720.9564189162967
 30
0.0
 10
927.173919345357
 20
721.0613588520688
 30
0.0
 10
927.0364412746397
 20
721.1767194503722
 30
0.0
 10
926.9066515091407
 20
721.3020849748912
 30
0.0
 10
926.7886081567517
 20
721.4410776053775
 30
0.0
 10
926.6774198576895
 20
721.5895286248211
 30
0.0
 10
926.5786416825566
 20
721.7495396123109
 30
0.0
 10
926.4914651382138
 20
721.9194456594198
 30
0.0
 10
926.4160339990191
 20
722.0980764630596
 30
0.0
 10
926.3552941454443
 20
722.2876861779239
 30
0.0
 10
926.3060883329248
 20
722.4863849593521
 30
0.0
 10
926.2668240360811
 20
722.6943611422319
 30
0.0
 10
926.2440271237665
 20
722.9124963709531
 30
0.0
 10
926.2306137855973
 20
723.1408286099331
 30
0.0
 10
926.2315533318894
 20
723.3834814295874
 30
0.0
 10
926.254289671883
 20
723.6412572944291
 30
0.0
 10
926.2907968690807
 20
723.9157645089856
 30
0.0
 10
926.3463226807543
 20
724.2065370673705
 30
0.0
 10
926.4184313466725
 20
724.5139853073971
 30
0.0
 10
926.5093101571816
 20
724.8374479083244
 30
0.0
 10
926.6143297512778
 20
725.1785197259217
 30
0.0
 10
926.696975692414
 20
725.4089903378549
 30
0.0
 10
926.7395801187804
 20
725.5277991756609
 30
0.0
  0
SPLINE
  5
D6
330
1F
100
AcDbEntity
  8
0
  6
Continuous
 62
     7
370
    25
100
AcDbSpline
210
0.0
220
0.0
230
1.0
 70
     8
 71
     3
 72
    31
 73
    27
 74
     0
 42
0.00000001
 43
0.00000001
 40
0.0
 40
0.0
 40
0.0
 40
0.0
 40
0.0650390968296135
 40
0.1265663169772877
 40
0.1850326776369629
 40
0.2402784876413288
 40
0.2925316975971432
 40
0.3416578389528779
 40
0.388201710537764
 40
0.4321246416686504
 40
0.4738772763840564
 40
0.5140193041993839
 40
0.5529154354776135
 40
0.5905276947615972
 40
0.6271945906748095
 40
0.662954310897152
 40
0.6980276180963297
 40
0.7326484083593122
 40
0.7668467306344819
 40
0.8004881580530158
 40
0.8335459289538183
 40
0.8665029270087835
 40
0.8992749965600326
 40
0.9323501538699636
 40
0.9659243777887876
 40
1.0
 40
1.0
 40
1.0
 40
1.0
 10
931.818105759806
 20
723.6800427654046
 30
0.0
 10
931.775588722499
 20
723.5665001616483
 30
0.0
 10
931.6928504145725
 20
723.3455458452762
 30
0.0
 10
931.5593987187564
 20
723.0274186326006
 30
0.0
 10
931.4224238151202
 20
722.7307693577387
 30
0.0
 10
931.2792171274893
 20
722.4564421887396
 30
0.0
 10
931.1341490433692
 20
722.2029763841339
 30
0.0
 10
930.9847856001982
 20
721.9710497258542
 30
0.0
 10
930.831584993672
 20
721.7605026651651
 30
0.0
 10
930.6721760099329
 20
721.5722243628942
 30
0.0
 10
930.5087813633692
 20
721.4038712098316
 30
0.0
 10
930.345763942834
 20
721.2483901125997
 30
0.0
 10
930.1772440771323
 20
721.1106352052956
 30
0.0
 10
930.0050775845941
 20
720.988507795444
 30
0.0
 10
929.8305247378163
 20
720.8804535144961
 30
0.0
 10
929.6520971654088
 20
720.788809135386
 30
0.0
 10
929.4705156549645
 20
720.7129032329325
 30
0.0
 10
929.285797396237
 20
720.6541411786509
 30
0.0
 10
929.1001285141091
 20
720.6085553085834
 30
0.0
 10
928.9139858792524
 20
720.5801984985677
 30
0.0
 10
928.7286528738464
 20
720.5654164014892
 30
0.0
 10
928.5443202254454
 20
720.5654542160862
 30
0.0
 10
928.3605060673497
 20
720.5798956997902
 30
0.0
 10
928.1774031406084
 20
720.6092696874024
 30
0.0
 10
927.9941112383578
 20
720.6513650840532
 30
0.0
 10
927.8749319397057
 20
720.6928170263595
 30
0.0
 10
927.814900631601
 20
720.7136966115584
 30
0.0
  0
CIRCLE
  5
D7
330
1F
100
AcDbEntity
  8
0
  6
Continuous
 62
     7
370
    25
100
AcDbCircle
 10
951.4872798434
 20
785.6360078278
 30
0.0
 40
105.0
  0
CIRCLE
  5
D8
330
1F
100
AcDbEntity
  8
0
  6
Continuous
 62
     7
370
    25
100
AcDbCircle
 10
984.0153715945
 20
864.1657680912
 30
0.0
 40
11.5
  0
CIRCLE
  5
D9
330
1F
100
AcDbEntity
  8
0
  6
Continuous
 62
     7
370
    25
100
AcDbCircle
 10
1030.0170401069
 20
818.1640995788
 30
0.0
 40
11.50000000000009
  0
CIRCLE
  5
DA
330
1F
100
AcDbEntity
  8
0
  6
Continuous
 62
     7
370
    25
100
AcDbCircle
 10
1030.0170401069
 20
753.1079160768
 30
0.0
 40
11.5
  0
CIRCLE
  5
DB
330
1F
100
AcDbEntity
  8
0
  6
Continuous
 62
     7
370
    25
100
AcDbCircle
 10
984.0153715945
 20
707.1062475643
 30
0.0
 40
11.49999999999993
  0
CIRCLE
  5
DC
330
1F
100
AcDbEntity
  8
0
  6
Continuous
 62
     7
370
    25
100
AcDbCircle
 10
918.9591880924
 20
707.1062475643
 30
0.0
 40
11.50000000000011
  0
CIRCLE
  5
DD
330
1F
100
AcDbEntity
  8
0
  6
Continuous
 62
     7
370
    25
100
AcDbCircle
 10
872.95751958
 20
753.1079160768
 30
0.0
 40
11.50000000000009
  0
CIRCLE
  5
DE
330
1F
100
AcDbEntity
  8
0
  6
Continuous
 62
     7
370
    25
100
AcDbCircle
 10
872.95751958
 20
818.1640995788
 30
0.0
 40
11.5
  0
CIRCLE
  5
DF
330
1F
100
AcDbEntity
  8
0
  6
Continuous
 62
     7
370
    25
100
AcDbCircle
 10
918.9591880924
 20
864.1657680912
 30
0.0
 40
11.50000000000001
  0
CIRCLE
  5
E0
330
1F
100
AcDbEntity
  8
0
  6
Continuous
 62
     7
370
    25
100
AcDbCircle
 10
951.4872798434
 20
785.6360078278
 30
0.0
 40
57.50000000000011
  0
SPLINE
  5
E1
330
1F
100
AcDbEntity
  8
0
  6
Continuous
 62
     7
370
    25
100
AcDbSpline
210
0.0
220
0.0
230
1.0
 70
     8
 71
     3
 72
    19
 73
    15
 74
     0
 42
0.00000001
 43
0.00000001
 40
0.0
 40
0.0
 40
0.0
 40
0.0
 40
0.0743303213747069
 40
0.1496115478127868
 40
0.2268930033652989
 40
0.3086212246759606
 40
0.3919406787193231
 40
0.4749174212959765
 40
0.559278083942123
 40
0.6461217325007067
 40
0.7341570746285011
 40
0.8216071115992245
 40
0.9097920917122942
 40
1.0
 40
1.0
 40
1.0
 40
1.0
 10
893.9430522382278
 20
760.2955076597243
 30
0.0
 10
894.0223167175161
 20
760.3295264921107
 30
0.0
 10
894.1818597036565
 20
760.3979993585531
 30
0.0
 10
894.4397345083169
 20
760.4557293466253
 30
0.0
 10
894.7109583344655
 20
760.4783403420004
 30
0.0
 10
894.9918885349197
 20
760.4622327267709
 30
0.0
 10
895.2762513233523
 20
760.4152760996179
 30
0.0
 10
895.5524566290968
 20
760.3226436236725
 30
0.0
 10
895.8195093623813
 20
760.1965138764322
 30
0.0
 10
896.0690758901421
 20
760.027929662833
 30
0.0
 10
896.3028718611639
 20
759.8328206811701
 30
0.0
 10
896.5105673544917
 20
759.6078994631876
 30
0.0
 10
896.6928893218188
 20
759.3583891521928
 30
0.0
 10
896.7887892855035
 20
759.1750670813863
 30
0.0
 10
896.8372830074586
 20
759.0823666340833
 30
0.0
  0
SPLINE
  5
E2
330
1F
100
AcDbEntity
  8
0
  6
Continuous
 62
     7
370
    25
100
AcDbSpline
210
0.0
220
0.0
230
1.0
 70
     8
 71
     3
 72
    15
 73
    11
 74
     0
 42
0.00000001
 43
0.00000001
 40
0.0
 40
0.0
 40
0.0
 40
0.0
 40
0.145145644634925
 40
0.2806687326533012
 40
0.4090896995965363
 40
0.5332316063509381
 40
0.6530136520340226
 40
0.7694047893074922
 40
0.8838639796039763
 40
1.0
 40
1.0
 40
1.0
 40
1.0
 10
892.912603520279
 20
758.4990333007499
 30
0.0
 10
892.9185352982229
 20
758.6045715776237
 30
0.0
 10
892.9300056017379
 20
758.8086513796121
 30
0.0
 10
892.9894839968306
 20
759.1011506434576
 30
0.0
 10
893.0761383083868
 20
759.3706784663037
 30
0.0
 10
893.1991027373438
 20
759.6131817078676
 30
0.0
 10
893.3484922873051
 20
759.8295671180849
 30
0.0
 10
893.5228006870706
 20
760.016793829024
 30
0.0
 10
893.720290692217
 20
760.1762397673292
 30
0.0
 10
893.8684392898361
 20
760.2555594314084
 30
0.0
 10
893.9430522382278
 20
760.2955076597243
 30
0.0
  0
SPLINE
  5
E3
330
1F
100
AcDbEntity
  8
0
  6
Continuous
 62
     7
370
    25
100
AcDbSpline
210
0.0
220
0.0
230
1.0
 70
     8
 71
     3
 72
    19
 73
    15
 74
     0
 42
0.00000001
 43
0.00000001
 40
0.0
 40
0.0
 40
0.0
 40
0.0
 40
0.1160034174036484
 40
0.2283916924064593
 40
0.3391786957606726
 40
0.4521203140252011
 40
0.5102460183589169
 40
0.5707550857563871
 40
0.6339027072701516
 40
0.7000051323119401
 40
0.7695996594281109
 40
0.8421999030255615
 40
0.9189929012131755
 40
1.0
 40
1.0
 40
1.0
 40
1.0
 10
890.310039417715
 20
758.9525589417756
 30
0.0
 10
890.4093221227944
 20
758.9963477795683
 30
0.0
 10
890.6047934765465
 20
759.0825608153202
 30
0.0
 10
890.914850867382
 20
759.1554933325391
 30
0.0
 10
891.2286215025902
 20
759.1816478880295
 30
0.0
 10
891.4922301011143
 20
759.1636732915682
 30
0.0
 10
891.705441761823
 20
759.1262397242488
 30
0.0
 10
891.8691074619644
 20
759.0803123641332
 30
0.0
 10
892.0360922491396
 20
759.0207216868023
 30
0.0
 10
892.2065847130007
 20
758.9467865002136
 30
0.0
 10
892.3792119719147
 20
758.8568114525718
 30
0.0
 10
892.5544215156518
 20
758.751258844548
 30
0.0
 10
892.7345636904145
 20
758.6334050593863
 30
0.0
 10
892.8522096530011
 20
758.5446142820571
 30
0.0
 10
892.912603520279
 20
758.4990333007499
 30
0.0
  0
SPLINE
  5
E4
330
1F
100
AcDbEntity
  8
0
  6
Continuous
 62
     7
370
    25
100
AcDbSpline
210
0.0
220
0.0
230
1.0
 70
     8
 71
     3
 72
    23
 73
    19
 74
     0
 42
0.00000001
 43
0.00000001
 40
0.0
 40
0.0
 40
0.0
 40
0.0
 40
0.0794034994402932
 40
0.1538155185146288
 40
0.2245451936005134
 40
0.2923289561065792
 40
0.35704620008697
 40
0.4203430760829639
 40
0.4826712729723125
 40
0.5450297716242855
 40
0.6064675926319123
 40
0.665777679783401
 40
0.7235509295939955
 40
0.7793841798939092
 40
0.8343765028278314
 40
0.8892929120132029
 40
0.9444267561255343
 40
1.0
 40
1.0
 40
1.0
 40
1.0
 10
889.310039417715
 20
755.487815352032
 30
0.0
 10
889.2651441522465
 20
755.5848855390279
 30
0.0
 10
889.1781758374299
 20
755.7729238654283
 30
0.0
 10
889.0779389094312
 20
756.0587061537876
 30
0.0
 10
889.0084381032707
 20
756.337210521447
 30
0.0
 10
888.9673443341561
 20
756.6082013539539
 30
0.0
 10
888.9569689056066
 20
756.8722458878128
 30
0.0
 10
888.9782364310653
 20
757.1281884173787
 30
0.0
 10
889.0273660615716
 20
757.3771282672628
 30
0.0
 10
889.1084937653624
 20
757.6149305603593
 30
0.0
 10
889.2117921722872
 20
757.8390312863016
 30
0.0
 10
889.3267558195024
 20
758.0503478408484
 30
0.0
 10
889.4561087429785
 20
758.244373253953
 30
0.0
 10
889.600138656868
 20
758.4202146588101
 30
0.0
 10
889.7561737095198
 20
758.5801922559718
 30
0.0
 10
889.926619039065
 20
758.7232600007136
 30
0.0
 10
890.1111701930826
 20
758.8493988203016
 30
0.0
 10
890.2435745039401
 20
758.9180813669199
 30
0.0
 10
890.310039417715
 20
758.9525589417756
 30
0.0
  0
SPLINE
  5
E5
330
1F
100
AcDbEntity
  8
0
  6
Continuous
 62
     7
370
    25
100
AcDbSpline
210
0.0
220
0.0
230
1.0
 70
     8
 71
     3
 72
    15
 73
    11
 74
     0
 42
0.00000001
 43
0.00000001
 40
0.0
 40
0.0
 40
0.0
 40
0.0
 40
0.1193307316466806
 40
0.2367826190627356
 40
0.3540274303651398
 40
0.4731720030961324
 40
0.596434325362013
 40
0.724230896163843
 40
0.8580925525576273
 40
1.0
 40
1.0
 40
1.0
 40
1.0
 10
890.9991419818175
 20
753.973392275109
 30
0.0
 10
890.909668988247
 20
754.0000428921788
 30
0.0
 10
890.7321317397891
 20
754.0529245164037
 30
0.0
 10
890.480774704405
 20
754.1707652123098
 30
0.0
 10
890.2445315324293
 20
754.3155207817492
 30
0.0
 10
890.0250788941972
 20
754.4923558615004
 30
0.0
 10
889.8219574130503
 20
754.6989983465686
 30
0.0
 10
889.6312567317469
 20
754.9322145722272
 30
0.0
 10
889.4591435808738
 20
755.1973254434338
 30
0.0
 10
889.3606982136952
 20
755.3891201264782
 30
0.0
 10
889.310039417715
 20
755.487815352032
 30
0.0
  0
SPLINE
  5
E6
330
1F
100
AcDbEntity
  8
0
  6
Continuous
 62
     7
370
    25
100
AcDbSpline
210
0.0
220
0.0
230
1.0
 70
     8
 71
     3
 72
    15
 73
    11
 74
     0
 42
0.00000001
 43
0.00000001
 40
0.0
 40
0.0
 40
0.0
 40
0.0
 40
0.1277708950644445
 40
0.2533259794917159
 40
0.3767291663353204
 40
0.4987939353078532
 40
0.621613779090034
 40
0.7452608823062002
 40
0.8708028168502745
 40
1.0
 40
1.0
 40
1.0
 40
1.0
 10
892.7170906997662
 20
754.1416615058781
 30
0.0
 10
892.6486954188384
 20
754.1104697245612
 30
0.0
 10
892.5130909721064
 20
754.048627091697
 30
0.0
 10
892.302397907381
 20
753.979058662374
 30
0.0
 10
892.0903820569285
 20
753.9266212528163
 30
0.0
 10
891.875585699702
 20
753.8964817063029
 30
0.0
 10
891.6589418283338
 20
753.8852855361905
 30
0.0
 10
891.4400730774347
 20
753.8931039729952
 30
0.0
 10
891.2190667841815
 20
753.9220564584388
 30
0.0
 10
891.0731481773967
 20
753.95611742276
 30
0.0
 10
890.9991419818175
 20
753.973392275109
 30
0.0
  0
SPLINE
  5
E7
330
1F
100
AcDbEntity
  8
0
  6
Continuous
 62
     7
370
    25
100
AcDbSpline
210
0.0
220
0.0
230
1.0
 70
     8
 71
     3
 72
    19
 73
    15
 74
     0
 42
0.00000001
 43
0.00000001
 40
0.0
 40
0.0
 40
0.0
 40
0.0
 40
0.0801281780108961
 40
0.1569143571182426
 40
0.2293782288267802
 40
0.2989110713370824
 40
0.3646175792850256
 40
0.427753322937237
 40
0.4879157893304199
 40
0.5461239199138586
 40
0.658503350550663
 40
0.7697537162918988
 40
0.8826135741877158
 40
1.0
 40
1.0
 40
1.0
 40
1.0
 10
893.9318342895099
 20
756.3996743263909
 30
0.0
 10
893.9304082488077
 20
756.3269965128732
 30
0.0
 10
893.9276156449376
 20
756.1846721437435
 30
0.0
 10
893.9115808979437
 20
755.9770965811019
 30
0.0
 10
893.88587321078
 20
755.78025653634
 30
0.0
 10
893.8515178418385
 20
755.5948451445083
 30
0.0
 10
893.8054767951688
 20
755.4208267812614
 30
0.0
 10
893.7545544134388
 20
755.2569090255581
 30
0.0
 10
893.6887599003373
 20
755.1057440212408
 30
0.0
 10
893.5944785389581
 20
754.9187450118519
 30
0.0
 10
893.4497287795849
 20
754.7064025257306
 30
0.0
 10
893.2405841272341
 20
754.4827947283013
 30
0.0
 10
892.9957825894037
 20
754.2902013597812
 30
0.0
 10
892.8111976233424
 20
754.1918195090316
 30
0.0
 10
892.7170906997662
 20
754.1416615058781
 30
0.0
  0
SPLINE
  5
E8
330
1F
100
AcDbEntity
  8
0
  6
Continuous
 62
     7
370
    25
100
AcDbSpline
210
0.0
220
0.0
230
1.0
 70
     8
 71
     3
 72
    15
 73
    11
 74
     0
 42
0.00000001
 43
0.00000001
 40
0.0
 40
0.0
 40
0.0
 40
0.0
 40
0.1225163212488314
 40
0.2407218340174736
 40
0.3568738396851884
 40
0.4735402235315894
 40
0.5934301269393378
 40
0.7204465703825665
 40
0.8552928643480439
 40
1.0
 40
1.0
 40
1.0
 40
1.0
 10
895.9478599305355
 20
756.1176230443397
 30
0.0
 10
895.8676293400889
 20
756.0817766282079
 30
0.0
 10
895.7099911194852
 20
756.0113450730792
 30
0.0
 10
895.4597042170755
 20
755.9537469125312
 30
0.0
 10
895.2088764174828
 20
755.9297910966974
 30
0.0
 10
894.9558340690351
 20
755.946544211533
 30
0.0
 10
894.7008811635029
 20
756.00278670896
 30
0.0
 10
894.4436504309983
 20
756.0970026989203
 30
0.0
 10
894.183811470645
 20
756.229841371161
 30
0.0
 10
894.017778869602
 20
756.3417475650974
 30
0.0
 10
893.9318342895099
 20
756.3996743263909
 30
0.0
  0
SPLINE
  5
E9
330
1F
100
AcDbEntity
  8
0
  6
Continuous
 62
     7
370
    25
100
AcDbSpline
210
0.0
220
0.0
230
1.0
 70
     8
 71
     3
 72
    19
 73
    15
 74
     0
 42
0.00000001
 43
0.00000001
 40
0.0
 40
0.0
 40
0.0
 40
0.0
 40
0.0889322034686178
 40
0.1756769706533435
 40
0.2620152011180432
 40
0.348840294521616
 40
0.4347130045567961
 40
0.5182583167236726
 40
0.6004259227881893
 40
0.6835687053764291
 40
0.7653443167123111
 40
0.8442400928656785
 40
0.922019346662139
 40
0.9999999999999999
 40
0.9999999999999999
 40
0.9999999999999999
 40
0.9999999999999999
 10
896.8372830074586
 20
759.0823666340833
 30
0.0
 10
896.8787234361924
 20
758.9892654423923
 30
0.0
 10
896.9605849970062
 20
758.805353038532
 30
0.0
 10
897.0399937289945
 20
758.5150633538242
 30
0.0
 10
897.0845758974841
 20
758.2201936838885
 30
0.0
 10
897.0879410662842
 20
757.9229503019166
 30
0.0
 10
897.05911259596
 20
757.6303956434299
 30
0.0
 10
896.991363830391
 20
757.3495313584771
 30
0.0
 10
896.8872821910035
 20
757.083540202897
 30
0.0
 10
896.7504531105243
 20
756.8351206881451
 30
0.0
 10
896.5842481890576
 20
756.6099315067632
 30
0.0
 10
896.3952456669081
 20
756.4122753934035
 30
0.0
 10
896.1844852273658
 20
756.243458331948
 30
0.0
 10
896.0268029911913
 20
756.1596042816604
 30
0.0
 10
895.9478599305355
 20
756.1176230443397
 30
0.0
  0
SPLINE
  5
EA
330
1F
100
AcDbEntity
  8
0
  6
Continuous
 62
     7
370
    25
100
AcDbSpline
210
0.0
220
0.0
230
1.0
 70
     8
 71
     3
 72
    31
 73
    27
 74
     0
 42
0.00000001
 43
0.00000001
 40
0.0
 40
0.0
 40
0.0
 40
0.0
 40
0.0340495146008128
 40
0.0674552091333834
 40
0.1003161826675925
 40
0.1327564058611082
 40
0.1657128665367839
 40
0.1985640308249419
 40
0.2317943979065309
 40
0.2656028740832854
 40
0.2998964320930909
 40
0.3349682475967287
 40
0.3703716161423038
 40
0.4070163277004823
 40
0.4447444100957725
 40
0.4837328209441013
 40
0.5242922266801513
 40
0.5662662201595519
 40
0.610286536501531
 40
0.6568957388886864
 40
0.7066796238465749
 40
0.7589905305436657
 40
0.814360329852115
 40
0.8728990617424888
 40
0.934858045295288
 40
0.9999999999999999
 40
0.9999999999999999
 40
0.9999999999999999
 40
0.9999999999999999
 10
899.4317597775068
 20
754.4023085053668
 30
0.0
 10
899.4635953478202
 20
754.3466751236168
 30
0.0
 10
899.5266645304073
 20
754.2364602954544
 30
0.0
 10
899.6055278789488
 20
754.0645631473994
 30
0.0
 10
899.6671715012142
 20
753.8891822482333
 30
0.0
 10
899.7184325477085
 20
753.7113360194083
 30
0.0
 10
899.7529011682653
 20
753.5294350800697
 30
0.0
 10
899.7740371117274
 20
753.3440966636679
 30
0.0
 10
899.7803523072276
 20
753.1560010488795
 30
0.0
 10
899.7719811607619
 20
752.965352720398
 30
0.0
 10
899.7504231443905
 20
752.772135565653
 30
0.0
 10
899.7092467343972
 20
752.5790852341123
 30
0.0
 10
899.6550171494346
 20
752.3847526461798
 30
0.0
 10
899.5822037021721
 20
752.1911590904721
 30
0.0
 10
899.4936764679923
 20
751.9969285417302
 30
0.0
 10
899.3894286264854
 20
751.802165726235
 30
0.0
 10
899.2665603434139
 20
751.6091271555346
 30
0.0
 10
899.1303825848986
 20
751.4136202115014
 30
0.0
 10
898.9740589552398
 20
751.2188166658934
 30
0.0
 10
898.7948561923964
 20
751.0243866984099
 30
0.0
 10
898.5934366914992
 20
750.8298980099943
 30
0.0
 10
898.3695246525876
 20
750.6356123653209
 30
0.0
 10
898.1239443995023
 20
750.4416704075575
 30
0.0
 10
897.8552640285708
 20
750.2483141644743
 30
0.0
 10
897.5661390173402
 20
750.0520179705981
 30
0.0
 10
897.3618055640993
 20
749.9276091523907
 30
0.0
 10
897.2570802903274
 20
749.8638469669053
 30
0.0
  0
SPLINE
  5
EB
330
1F
100
AcDbEntity
  8
0
  6
Continuous
 62
     7
370
    25
100
AcDbSpline
210
0.0
220
0.0
230
1.0
 70
     8
 71
     3
 72
    31
 73
    27
 74
     0
 42
0.00000001
 43
0.00000001
 40
0.0
 40
0.0
 40
0.0
 40
0.0
 40
0.0685178885495359
 40
0.1330841573980955
 40
0.1937880337223311
 40
0.2505717599467084
 40
0.3037960609887581
 40
0.353318262677687
 40
0.3996367518104683
 40
0.4425099535504593
 40
0.4832060261575511
 40
0.5221748758046737
 40
0.5599000794274183
 40
0.5968178940964495
 40
0.6322630235824551
 40
0.6672910006957614
 40
0.7017549211896746
 40
0.7357716652215481
 40
0.7695220986182998
 40
0.8025572309181789
 40
0.8352906435132705
 40
0.8676022226256107
 40
0.9003468596019354
 40
0.93312140946846
 40
0.9661565417683385
 40
1.0
 40
1.0
 40
1.0
 40
1.0
 10
894.4477854185326
 20
754.5401290181874
 30
0.0
 10
894.5578458380081
 20
754.6056763148158
 30
0.0
 10
894.7716191824421
 20
754.7329906107783
 30
0.0
 10
895.091413447092
 20
754.9033708687979
 30
0.0
 10
895.3953403442476
 20
755.0565791852433
 30
0.0
 10
895.685932398784
 20
755.1886985098273
 30
0.0
 10
895.9628590333623
 20
755.2997230122893
 30
0.0
 10
896.2266789482659
 20
755.389650061224
 30
0.0
 10
896.4759350159599
 20
755.4619769737349
 30
0.0
 10
896.7142773571535
 20
755.5093304311456
 30
0.0
 10
896.9410630096114
 20
755.5426034959055
 30
0.0
 10
897.1601316777594
 20
755.5578578330753
 30
0.0
 10
897.3725883983708
 20
755.5619213472427
 30
0.0
 10
897.5782780575233
 20
755.5509019957352
 30
0.0
 10
897.7776088197097
 20
755.525255266257
 30
0.0
 10
897.9696213608207
 20
755.4845675603792
 30
0.0
 10
898.1564867980286
 20
755.4332237913459
 30
0.0
 10
898.3341182358979
 20
755.3621795860175
 30
0.0
 10
898.5058572874293
 20
755.2841428587416
 30
0.0
 10
898.6660844358925
 20
755.1891547170371
 30
0.0
 10
898.8190531358808
 20
755.0878451198047
 30
0.0
 10
898.9612791045225
 20
754.9725372365763
 30
0.0
 10
899.0935314619496
 20
754.8460305069913
 30
0.0
 10
899.2178800167817
 20
754.7098377662395
 30
0.0
 10
899.3305642268783
 20
754.5611393458963
 30
0.0
 10
899.3977572186533
 20
754.4556770079278
 30
0.0
 10
899.4317597775068
 20
754.4023085053668
 30
0.0
  0
SPLINE
  5
EC
330
1F
100
AcDbEntity
  8
0
  6
Continuous
 62
     7
370
    25
100
AcDbSpline
210
0.0
220
0.0
230
1.0
 70
     8
 71
     3
 72
    31
 73
    27
 74
     0
 42
0.00000001
 43
0.00000001
 40
0.0
 40
0.0
 40
0.0
 40
0.0
 40
0.0336688832896723
 40
0.0670682209123053
 40
0.0996405205842195
 40
0.1320516948918377
 40
0.164361757818116
 40
0.1968938509637696
 40
0.2295188465056667
 40
0.2630123444614749
 40
0.2967140108905538
 40
0.3312120972983086
 40
0.3660593491911387
 40
0.4019120443169669
 40
0.4387671680564941
 40
0.4766586629005276
 40
0.5162529789599991
 40
0.5572151001010075
 40
0.6006826961259121
 40
0.6470169018119986
 40
0.6967938275076031
 40
0.7501517918834246
 40
0.8070185302805784
 40
0.8674962403308694
 40
0.9319084289680767
 40
1.0
 40
1.0
 40
1.0
 40
1.0
 10
892.2346443928915
 20
750.0769879925463
 30
0.0
 10
892.2033955044144
 20
750.1315795595154
 30
0.0
 10
892.1411478991815
 20
750.2403256453877
 30
0.0
 10
892.0628205625401
 20
750.4094864949507
 30
0.0
 10
892.0006222749969
 20
750.5825243670372
 30
0.0
 10
891.9495543213868
 20
750.7571652700118
 30
0.0
 10
891.9170334762508
 20
750.9361138869829
 30
0.0
 10
891.8955292336361
 20
751.1170118455061
 30
0.0
 10
891.8892889122932
 20
751.3013979255238
 30
0.0
 10
891.8975575478212
 20
751.4877826488313
 30
0.0
 10
891.9191884194718
 20
751.6767538481738
 30
0.0
 10
891.9604455271713
 20
751.8649643731073
 30
0.0
 10
892.014227103607
 20
752.0541634362477
 30
0.0
 10
892.0878907006639
 20
752.2412884449656
 30
0.0
 10
892.173691972318
 20
752.4293466918419
 30
0.0
 10
892.2778843228007
 20
752.6159803637895
 30
0.0
 10
892.3959254818305
 20
752.8032032108467
 30
0.0
 10
892.5318934423287
 20
752.9909753393621
 30
0.0
 10
892.6882263629141
 20
753.1788171944614
 30
0.0
 10
892.8668281391405
 20
753.3689892008522
 30
0.0
 10
893.0716635575162
 20
753.5588909892703
 30
0.0
 10
893.2990694517256
 20
753.7529056218709
 30
0.0
 10
893.5513282452771
 20
753.9480583972182
 30
0.0
 10
893.8275226288031
 20
754.14557582968
 30
0.0
 10
894.1289553276046
 20
754.3433500531246
 30
0.0
 10
894.3395593610882
 20
754.473332902693
 30
0.0
 10
894.4477854185326
 20
754.5401290181874
 30
0.0
  0
SPLINE
  5
ED
330
1F
100
AcDbEntity
  8
0
  6
Continuous
 62
     7
370
    25
100
AcDbSpline
210
0.0
220
0.0
230
1.0
 70
     8
 71
     3
 72
    31
 73
    27
 74
     0
 42
0.00000001
 43
0.00000001
 40
0.0
 40
0.0
 40
0.0
 40
0.0
 40
0.065045232498966
 40
0.1266896890766765
 40
0.185132105791899
 40
0.2403387916974219
 40
0.2924078751309639
 40
0.3417262221042364
 40
0.3881684360215053
 40
0.4321263529456028
 40
0.4739507098592508
 40
0.5141055862290987
 40
0.5530235626294009
 40
0.590589977943706
 40
0.6272705886966209
 40
0.6629836379976726
 40
0.6982201204196625
 40
0.7329328427086914
 40
0.7672398551443097
 40
0.8007134708011022
 40
0.833807649581815
 40
0.8665488136934287
 40
0.8995012608644892
 40
0.9324830817871881
 40
0.9661190311527983
 40
1.0
 40
1.0
 40
1.0
 40
1.0
 10
897.2570802903274
 20
749.8638469669053
 30
0.0
 10
897.1516877659375
 20
749.8017605695991
 30
0.0
 10
896.9464129804844
 20
749.6808338533984
 30
0.0
 10
896.640179254957
 20
749.5150126106015
 30
0.0
 10
896.3435735433208
 20
749.3709851398703
 30
0.0
 10
896.0582621092848
 20
749.2454712063089
 30
0.0
 10
895.7836539044564
 20
749.1387866089048
 30
0.0
 10
895.5193486937993
 20
749.0523105178868
 30
0.0
 10
895.2656074835481
 20
748.9833490894584
 30
0.0
 10
895.0209851287607
 20
748.9375879212284
 30
0.0
 10
894.7860811957885
 20
748.9069620424298
 30
0.0
 10
894.5591848581292
 20
748.8898152878828
 30
0.0
 10
894.3396865196195
 20
748.8907370720428
 30
0.0
 10
894.1271000950092
 20
748.9027483613003
 30
0.0
 10
893.9218878434024
 20
748.92987308045
 30
0.0
 10
893.7236859283655
 20
748.9717432292157
 30
0.0
 10
893.5327410795168
 20
749.0275145392205
 30
0.0
 10
893.349780333106
 20
749.0985352307285
 30
0.0
 10
893.1755530438534
 20
749.1813577977971
 30
0.0
 10
893.0111246820445
 20
749.2763996059622
 30
0.0
 10
892.8574011748411
 20
749.3826743797955
 30
0.0
 10
892.7115336884896
 20
749.4980597719274
 30
0.0
 10
892.5777169650618
 20
749.6269314436037
 30
0.0
 10
892.4513861792587
 20
749.7652967815906
 30
0.0
 10
892.3360607864029
 20
749.9154323169365
 30
0.0
 10
892.2685315454621
 20
750.0230059721006
 30
0.0
 10
892.2346443928915
 20
750.0769879925463
 30
0.0
  0
LINE
  5
EE
330
1F
100
AcDbEntity
  8
0
  6
Continuous
 62
     7
370
    25
100
AcDbLine
 10
907.959445216
 20
736.4892658421
 30
0.0
 11
907.5123298314
 21
736.0068940473
 31
0.0
  0
LINE
  5
EF
330
1F
100
AcDbEntity
  8
0
  6
Continuous
 62
     7
370
    25
100
AcDbLine
 10
905.7831631647
 20
738.5052914832
 30
0.0
 11
907.959445216
 21
736.4892658421
 31
0.0
  0
LINE
  5
F0
330
1F
100
AcDbEntity
  8
0
  6
Continuous
 62
     7
370
    25
100
AcDbLine
 10
905.3360477801
 20
738.0229196883
 30
0.0
 11
905.7831631647
 21
738.5052914832
 31
0.0
  0
LINE
  5
F1
330
1F
100
AcDbEntity
  8
0
  6
Continuous
 62
     7
370
    25
100
AcDbLine
 10
907.5123298314
 20
736.0068940473
 30
0.0
 11
905.3360477801
 21
738.0229196883
 31
0.0
  0
SPLINE
  5
F2
330
1F
100
AcDbEntity
  8
0
  6
Continuous
 62
     7
370
    25
100
AcDbSpline
210
0.0
220
0.0
230
1.0
 70
     8
 71
     3
 72
    23
 73
    19
 74
     0
 42
0.00000001
 43
0.00000001
 40
0.0
 40
0.0
 40
0.0
 40
0.0
 40
0.071872777592784
 40
0.1412169770315458
 40
0.2080728305242174
 40
0.2733098863708804
 40
0.3370866313786727
 40
0.4010705563961859
 40
0.4647006505443289
 40
0.5288546920139233
 40
0.5924358273750149
 40
0.6532422400034545
 40
0.7122333839433833
 40
0.7692196897559268
 40
0.8262969989892867
 40
0.8833879462243295
 40
0.9405924170298879
 40
1.0
 40
1.0
 40
1.0
 40
1.0
 10
896.1273471100226
 20
758.7794820186987
 30
0.0
 10
896.1030683146308
 20
758.826965958335
 30
0.0
 10
896.055364883568
 20
758.9202632906153
 30
0.0
 10
895.9709472233683
 20
759.049617690301
 30
0.0
 10
895.8821217433782
 20
759.1700011531794
 30
0.0
 10
895.7815216670851
 20
759.275112826286
 30
0.0
 10
895.6754874322214
 20
759.3715329337153
 30
0.0
 10
895.5596366081571
 20
759.4539016297263
 30
0.0
 10
895.4376659351767
 20
759.5274962699046
 30
0.0
 10
895.3077543721947
 20
759.5851070866506
 30
0.0
 10
895.1766516387115
 20
759.6342001991223
 30
0.0
 10
895.0440564173306
 20
759.6657180212085
 30
0.0
 10
894.914324377702
 20
759.6850326472037
 30
0.0
 10
894.7858892771468
 20
759.6928460839463
 30
0.0
 10
894.6591297870569
 20
759.6819162539455
 30
0.0
 10
894.5337612088293
 20
759.6601978704921
 30
0.0
 10
894.4100632418292
 20
759.6228032562176
 30
0.0
 10
894.3310577211428
 20
759.5875206934303
 30
0.0
 10
894.2908086484842
 20
759.5695461212629
 30
0.0
  0
SPLINE
  5
F3
330
1F
100
AcDbEntity
  8
0
  6
Continuous
 62
     7
370
    25
100
AcDbSpline
210
0.0
220
0.0
230
1.0
 70
     8
 71
     3
 72
    23
 73
    19
 74
     0
 42
0.00000001
 43
0.00000001
 40
0.0
 40
0.0
 40
0.0
 40
0.0
 40
0.0571296324242063
 40
0.1139314267397057
 40
0.1705208447500754
 40
0.2281003406133585
 40
0.2874286329383887
 40
0.3486445857654323
 40
0.4123508485837499
 40
0.4799751634981477
 40
0.5479871795931675
 40
0.613451238978711
 40
0.678084214863553
 40
0.741193666395191
 40
0.8047570509172997
 40
0.8687058584749354
 40
0.93344520114884
 40
1.0
 40
1.0
 40
1.0
 40
1.0
 10
894.2908086484842
 20
759.5695461212629
 30
0.0
 10
894.2523965675821
 20
759.5489914048885
 30
0.0
 10
894.1757928333112
 20
759.5079999252766
 30
0.0
 10
894.0697962899904
 20
759.4321334701526
 30
0.0
 10
893.9730924349415
 20
759.3445546662873
 30
0.0
 10
893.8839351106869
 20
759.2465442795414
 30
0.0
 10
893.8057707161336
 20
759.1352173443805
 30
0.0
 10
893.7365142987162
 20
759.012830665376
 30
0.0
 10
893.677466266077
 20
758.878332114638
 30
0.0
 10
893.6264223166735
 20
758.7350520306319
 30
0.0
 10
893.589410864296
 20
758.5862111612589
 30
0.0
 10
893.56178898373
 20
758.4375483841184
 30
0.0
 10
893.5534668323407
 20
758.2902687113888
 30
0.0
 10
893.5559350549855
 20
758.1443797679302
 30
0.0
 10
893.5735976405243
 20
757.9998655850465
 30
0.0
 10
893.606598913665
 20
757.8570164996555
 30
0.0
 10
893.6502704493035
 20
757.7144254289766
 30
0.0
 10
893.6924859539655
 20
757.6235997318238
 30
0.0
 10
893.7138855715611
 20
757.5775589417756
 30
0.0
  0
SPLINE
  5
F4
330
1F
100
AcDbEntity
  8
0
  6
Continuous
 62
     7
370
    25
100
AcDbSpline
210
0.0
220
0.0
230
1.0
 70
     8
 71
     3
 72
    19
 73
    15
 74
     0
 42
0.00000001
 43
0.00000001
 40
0.0
 40
0.0
 40
0.0
 40
0.0
 40
0.0861717592585588
 40
0.1710678696830802
 40
0.2561171266187488
 40
0.3431816417964875
 40
0.4301771448633702
 40
0.5153704609993568
 40
0.5993328858897415
 40
0.6843762576745939
 40
0.7685767898842614
 40
0.8481944012820034
 40
0.9247219912879718
 40
1.0
 40
1.0
 40
1.0
 40
1.0
 10
893.7138855715611
 20
757.5775589417756
 30
0.0
 10
893.7444342909394
 20
757.520014833716
 30
0.0
 10
893.8050794998865
 20
757.4057784752702
 30
0.0
 10
893.9224723890391
 20
757.2510356633256
 30
0.0
 10
894.0585872886055
 20
757.1121934445036
 30
0.0
 10
894.2113472023453
 20
756.9890999689723
 30
0.0
 10
894.379060927059
 20
756.8871063434672
 30
0.0
 10
894.5560040823588
 20
756.8076723606277
 30
0.0
 10
894.7409742365679
 20
756.7539791904009
 30
0.0
 10
894.930937027409
 20
756.7274547231294
 30
0.0
 10
895.1191831060729
 20
756.7249048632345
 30
0.0
 10
895.3003748086702
 20
756.7410024781298
 30
0.0
 10
895.470976651613
 20
756.7828318467207
 30
0.0
 10
895.5765817612692
 20
756.8277303684686
 30
0.0
 10
895.6289496741252
 20
756.8499948392116
 30
0.0
  0
SPLINE
  5
F5
330
1F
100
AcDbEntity
  8
0
  6
Continuous
 62
     7
370
    25
100
AcDbSpline
210
0.0
220
0.0
230
1.0
 70
     8
 71
     3
 72
    23
 73
    19
 74
     0
 42
0.00000001
 43
0.00000001
 40
0.0
 40
0.0
 40
0.0
 40
0.0
 40
0.0535024939506048
 40
0.1068302695661508
 40
0.1599388389647093
 40
0.2139476997704051
 40
0.2683868406766483
 40
0.3253257792968311
 40
0.3842559534588023
 40
0.445903690661899
 40
0.5090101821574499
 40
0.5719974301352626
 40
0.6361833003115176
 40
0.7025260426928187
 40
0.7710674817214804
 40
0.8431952012650912
 40
0.9197244579035221
 40
1.0
 40
1.0
 40
1.0
 40
1.0
 10
895.6289496741252
 20
756.8499948392116
 30
0.0
 10
895.6640816022269
 20
756.8685321420957
 30
0.0
 10
895.734230731218
 20
756.905546212243
 30
0.0
 10
895.8319165412601
 20
756.9733789628035
 30
0.0
 10
895.9228397409906
 20
757.0505714623082
 30
0.0
 10
896.0038812006836
 20
757.1392175139396
 30
0.0
 10
896.0787383867821
 20
757.2365907942103
 30
0.0
 10
896.1459543125108
 20
757.3438622434193
 30
0.0
 10
896.2046228353314
 20
757.4618697514976
 30
0.0
 10
896.2585880230147
 20
757.5872206948023
 30
0.0
 10
896.2976773015411
 20
757.7211895862624
 30
0.0
 10
896.3247287255339
 20
757.8600725892081
 30
0.0
 10
896.3317641850946
 20
758.003876436377
 30
0.0
 10
896.3237661419963
 20
758.1515855852563
 30
0.0
 10
896.2989726964984
 20
758.3034122534824
 30
0.0
 10
896.2587599835952
 20
758.4596750326166
 30
0.0
 10
896.2005433397006
 20
758.6195109862033
 30
0.0
 10
896.1521313962111
 20
758.7253157335134
 30
0.0
 10
896.1273471100226
 20
758.7794820186987
 30
0.0
  0
SPLINE
  5
F6
330
1F
100
AcDbEntity
  8
0
  6
Continuous
 62
     7
370
    25
100
AcDbSpline
210
0.0
220
0.0
230
1.0
 70
     8
 71
     3
 72
    23
 73
    19
 74
     0
 42
0.00000001
 43
0.00000001
 40
0.0
 40
0.0
 40
0.0
 40
0.0
 40
0.0694373768022469
 40
0.1358337069242184
 40
0.200807694560198
 40
0.2646437618430344
 40
0.3275647834214601
 40
0.3909103279423857
 40
0.454945335740588
 40
0.5200520256412366
 40
0.5847925450855492
 40
0.6468704469572812
 40
0.7068013027177033
 40
0.7656948569641061
 40
0.8236893784140827
 40
0.8814300818489456
 40
0.9400969432422484
 40
1.0
 40
1.0
 40
1.0
 40
1.0
 10
893.0728599305355
 20
757.2554435571602
 30
0.0
 10
893.0417897115725
 20
757.3152836045385
 30
0.0
 10
892.9810100103363
 20
757.432342972738
 30
0.0
 10
892.8745070624296
 20
757.5961434124177
 30
0.0
 10
892.7545950202984
 20
757.7430631305914
 30
0.0
 10
892.6277565563697
 20
757.8797823812811
 30
0.0
 10
892.4842009598921
 20
757.9964389252875
 30
0.0
 10
892.3319665615611
 20
758.1013653536172
 30
0.0
 10
892.1679298462166
 20
758.1916529345968
 30
0.0
 10
891.9939608041375
 20
758.2641884385747
 30
0.0
 10
891.8164536017266
 20
758.3214607838813
 30
0.0
 10
891.6395155142526
 20
758.3618801241436
 30
0.0
 10
891.4651459715501
 20
758.3853716967678
 30
0.0
 10
891.2931881660236
 20
758.3880914330465
 30
0.0
 10
891.1239332877688
 20
758.3739814649024
 30
0.0
 10
890.9576269120797
 20
758.341089125685
 30
0.0
 10
890.7929959549133
 20
758.2925275311285
 30
0.0
 10
890.6882692279806
 20
758.2444676305138
 30
0.0
 10
890.6353599305354
 20
758.2201871469039
 30
0.0
  0
SPLINE
  5
F7
330
1F
100
AcDbEntity
  8
0
  6
Continuous
 62
     7
370
    25
100
AcDbSpline
210
0.0
220
0.0
230
1.0
 70
     8
 71
     3
 72
    19
 73
    15
 74
     0
 42
0.00000001
 43
0.00000001
 40
0.0
 40
0.0
 40
0.0
 40
0.0
 40
0.0772835066878611
 40
0.1541022036735765
 40
0.2319406625042138
 40
0.3115074985787996
 40
0.3917937415199754
 40
0.4712283242954522
 40
0.5521788927614727
 40
0.6355331688412273
 40
0.7210971247159879
 40
0.8096909931179365
 40
0.9021538730517911
 40
1.0
 40
1.0
 40
1.0
 40
1.0
 10
890.6353599305354
 20
758.2201871469039
 30
0.0
 10
890.5717742679376
 20
758.1861497578999
 30
0.0
 10
890.4449853688786
 20
758.1182796925057
 30
0.0
 10
890.2736449514034
 20
757.984652724616
 30
0.0
 10
890.1226544065204
 20
757.8261679800169
 30
0.0
 10
889.9915262836976
 20
757.6469125924206
 30
0.0
 10
889.8837681496294
 20
757.4508138981523
 30
0.0
 10
889.8062805922128
 20
757.2394792240299
 30
0.0
 10
889.7579973540322
 20
757.0168233618583
 30
0.0
 10
889.7403985696244
 20
756.7838377413357
 30
0.0
 10
889.7559602697262
 20
756.543688690224
 30
0.0
 10
889.8011382185401
 20
756.2988247468268
 30
0.0
 10
889.8789515760894
 20
756.0500309941592
 30
0.0
 10
889.9519796779115
 20
755.8882841320153
 30
0.0
 10
889.9895265972021
 20
755.8051230443397
 30
0.0
  0
SPLINE
  5
F8
330
1F
100
AcDbEntity
  8
0
  6
Continuous
 62
     7
370
    25
100
AcDbSpline
210
0.0
220
0.0
230
1.0
 70
     8
 71
     3
 72
    23
 73
    19
 74
     0
 42
0.00000001
 43
0.00000001
 40
0.0
 40
0.0
 40
0.0
 40
0.0
 40
0.0743523789521735
 40
0.1450684858590487
 40
0.2126870163788275
 40
0.2786174435026758
 40
0.3419002469395657
 40
0.4048308033878531
 40
0.4673920119553087
 40
0.5303726524198399
 40
0.5925471074509923
 40
0.6526745484633608
 40
0.7113985793296631
 40
0.7686738201584118
 40
0.8256648422502255
 40
0.8829290717858149
 40
0.9406457732366382
 40
1.0
 40
1.0
 40
1.0
 40
1.0
 10
889.9895265972021
 20
755.8051230443397
 30
0.0
 10
890.021560624336
 20
755.7420155088633
 30
0.0
 10
890.084062024799
 20
755.6188867704573
 30
0.0
 10
890.1938734710625
 20
755.4485381913302
 30
0.0
 10
890.3128253352021
 20
755.2945071275952
 30
0.0
 10
890.4426336629878
 20
755.1591519676621
 30
0.0
 10
890.580074663362
 20
755.0382064658576
 30
0.0
 10
890.7278891838446
 20
754.9355358429898
 30
0.0
 10
890.8858159919832
 20
754.8497573233499
 30
0.0
 10
891.052128683187
 20
754.783902235964
 30
0.0
 10
891.2208814259
 20
754.7321884576655
 30
0.0
 10
891.3900822137126
 20
754.698805135873
 30
0.0
 10
891.5568822647631
 20
754.6802796465514
 30
0.0
 10
891.7217740509053
 20
754.680710039242
 30
0.0
 10
891.884398633805
 20
754.6967754749332
 30
0.0
 10
892.0451293582802
 20
754.7286347659365
 30
0.0
 10
892.2038345234563
 20
754.778378885153
 30
0.0
 10
892.3051483179507
 20
754.8248378640362
 30
0.0
 10
892.3565137766893
 20
754.848392275109
 30
0.0
  0
SPLINE
  5
F9
330
1F
100
AcDbEntity
  8
0
  6
Continuous
 62
     7
370
    25
100
AcDbSpline
210
0.0
220
0.0
230
1.0
 70
     8
 71
     3
 72
    23
 73
    19
 74
     0
 42
0.00000001
 43
0.00000001
 40
0.0
 40
0.0
 40
0.0
 40
0.0
 40
0.0590651457456776
 40
0.1169571369541258
 40
0.1745412893272534
 40
0.2324677024936784
 40
0.2913751456521286
 40
0.3520741718618853
 40
0.4149957230129728
 40
0.4806383478465973
 40
0.546913098631306
 40
0.6118228319930178
 40
0.6753931166945712
 40
0.7388195208117194
 40
0.802162062197712
 40
0.8664934148217075
 40
0.9321107292148957
 40
1.0
 40
1.0
 40
1.0
 40
1.0
 10
892.3565137766893
 20
754.848392275109
 30
0.0
 10
892.40530713096
 20
754.8733622689067
 30
0.0
 10
892.5019247037405
 20
754.922806301381
 30
0.0
 10
892.633535740638
 20
755.0177510281344
 30
0.0
 10
892.7546506905953
 20
755.1237158016477
 30
0.0
 10
892.8639311509015
 20
755.2432379054569
 30
0.0
 10
892.9628309637538
 20
755.3751556034329
 30
0.0
 10
893.0471805940555
 20
755.5221818753628
 30
0.0
 10
893.121054667453
 20
755.6814761905215
 30
0.0
 10
893.182800779229
 20
755.8513921010413
 30
0.0
 10
893.2309034725479
 20
756.027600811563
 30
0.0
 10
893.2614660464155
 20
756.2057885027757
 30
0.0
 10
893.2745003170445
 20
756.3834337106479
 30
0.0
 10
893.269889036757
 20
756.5601173977109
 30
0.0
 10
893.2464901288611
 20
756.7359147133435
 30
0.0
 10
893.2088183959864
 20
756.9112988332839
 30
0.0
 10
893.1504050580725
 20
757.0855760620149
 30
0.0
 10
893.0989999031592
 20
757.1981822976355
 30
0.0
 10
893.0728599305355
 20
757.2554435571602
 30
0.0
  0
SPLINE
  5
FA
330
1F
100
AcDbEntity
  8
0
  6
Continuous
 62
     7
370
    25
100
AcDbSpline
210
0.0
220
0.0
230
1.0
 70
     8
 71
     3
 72
    15
 73
    11
 74
     0
 42
0.00000001
 43
0.00000001
 40
0.0
 40
0.0
 40
0.0
 40
0.0
 40
0.109860043717682
 40
0.2242555519504118
 40
0.3422015151011832
 40
0.4644388012252638
 40
0.5907703038529336
 40
0.722491516681448
 40
0.8587387706709733
 40
1.0
 40
1.0
 40
1.0
 40
1.0
 10
894.9429777262247
 20
749.695577736136
 30
0.0
 10
895.0173943216944
 20
749.7125375751223
 30
0.0
 10
895.169299729034
 20
749.7471574234686
 30
0.0
 10
895.397961875755
 20
749.8127345407685
 30
0.0
 10
895.6305594465542
 20
749.8939877071259
 30
0.0
 10
895.8680011722889
 20
749.9861477588267
 30
0.0
 10
896.1086941412499
 20
750.095222288021
 30
0.0
 10
896.3554096377345
 20
750.21430669922
 30
0.0
 10
896.6054870911886
 20
750.3497111353574
 30
0.0
 10
896.77178698096
 20
750.4472229611233
 30
0.0
 10
896.8564392646864
 20
750.4968597874181
 30
0.0
  0
SPLINE
  5
FB
330
1F
100
AcDbEntity
  8
0
  6
Continuous
 62
     7
370
    25
100
AcDbSpline
210
0.0
220
0.0
230
1.0
 70
     8
 71
     3
 72
    27
 73
    23
 74
     0
 42
0.00000001
 43
0.00000001
 40
0.0
 40
0.0
 40
0.0
 40
0.0
 40
0.073779502255379
 40
0.1432053611459592
 40
0.2078303878593017
 40
0.2679327005938924
 40
0.3239465073359557
 40
0.3753893612773288
 40
0.4226392318783919
 40
0.4661324506550065
 40
0.5065229661811497
 40
0.5454948452082807
 40
0.5830952123030494
 40
0.6194394081641447
 40
0.6547254352895051
 40
0.6893339166003796
 40
0.7231492371409175
 40
0.756761402722699
 40
0.8211031890614962
 40
0.8822118419377338
 40
0.9412022800652652
 40
1.0
 40
1.0
 40
1.0
 40
1.0
 10
894.8211828544299
 20
753.8830777361361
 30
0.0
 10
894.7278965012827
 20
753.8264572420684
 30
0.0
 10
894.5468285151339
 20
753.7165573640082
 30
0.0
 10
894.2895872034628
 20
753.5482438294334
 30
0.0
 10
894.0529405997809
 20
753.3854901088828
 30
0.0
 10
893.8397608441462
 20
753.2241217705663
 30
0.0
 10
893.6457237416824
 20
753.0699159283866
 30
0.0
 10
893.473273707389
 20
752.9193692701781
 30
0.0
 10
893.3233784379378
 20
752.7716602344819
 30
0.0
 10
893.1945408849521
 20
752.6265472202707
 30
0.0
 10
893.0819277138635
 20
752.4837631665513
 30
0.0
 10
892.9848068627149
 20
752.3405432760328
 30
0.0
 10
892.8966042071129
 20
752.1985326039583
 30
0.0
 10
892.8254659081991
 20
752.0533019040938
 30
0.0
 10
892.7632689435503
 20
751.9088919392052
 30
0.0
 10
892.7154817501583
 20
751.7629432500688
 30
0.0
 10
892.6795404363203
 20
751.6161780754086
 30
0.0
 10
892.6509262407453
 20
751.4232551627065
 30
0.0
 10
892.6401690322646
 20
751.1871636245099
 30
0.0
 10
892.6732778496447
 20
750.9155972950285
 30
0.0
 10
892.7427845835552
 20
750.6582234647199
 30
0.0
 10
892.8260784303178
 20
750.5046237385733
 30
0.0
 10
892.8676572134043
 20
750.4279495310078
 30
0.0
  0
SPLINE
  5
FC
330
1F
100
AcDbEntity
  8
0
  6
Continuous
 62
     7
370
    25
100
AcDbSpline
210
0.0
220
0.0
230
1.0
 70
     8
 71
     3
 72
    27
 73
    23
 74
     0
 42
0.00000001
 43
0.00000001
 40
0.0
 40
0.0
 40
0.0
 40
0.0
 40
0.0591859843367615
 40
0.1183818670069241
 40
0.1791321447852816
 40
0.2432025506241488
 40
0.2764086943335609
 40
0.3100182018184605
 40
0.3444240358629454
 40
0.3795748576575952
 40
0.4156650517925103
 40
0.4532346931162418
 40
0.4921273903455547
 40
0.5327620148699278
 40
0.5761712024306144
 40
0.6235279635528556
 40
0.6751354532082852
 40
0.7307594445182116
 40
0.7914475385605422
 40
0.8563206795305179
 40
0.9259243611310213
 40
1.0
 40
1.0
 40
1.0
 40
1.0
 10
898.7923367005837
 20
753.9872444028027
 30
0.0
 10
898.743459193999
 20
754.0601817082645
 30
0.0
 10
898.6456960064979
 20
754.2060685173084
 30
0.0
 10
898.45409429007
 20
754.3924904979863
 30
0.0
 10
898.2272457413397
 20
754.5449898436764
 30
0.0
 10
898.0158436515187
 20
754.6475466918981
 30
0.0
 10
897.8322796398767
 20
754.7099850774134
 30
0.0
 10
897.6875927149267
 20
754.7497194599314
 30
0.0
 10
897.5366414738521
 20
754.7743952132208
 30
0.0
 10
897.3808033378939
 20
754.7890105794743
 30
0.0
 10
897.2196163407557
 20
754.7917874702667
 30
0.0
 10
897.052987865492
 20
754.7843439072566
 30
0.0
 10
896.8809676791273
 20
754.7619136083332
 30
0.0
 10
896.7013786329691
 20
754.7321313197366
 30
0.0
 10
896.5118759319255
 20
754.6871272243073
 30
0.0
 10
896.3115492719425
 20
754.6211044342006
 30
0.0
 10
896.0970882103998
 20
754.5411232442895
 30
0.0
 10
895.8680119560106
 20
754.4443081220546
 30
0.0
 10
895.6259444640007
 20
754.3286052634459
 30
0.0
 10
895.3688226972467
 20
754.1967582973149
 30
0.0
 10
895.0981620203639
 20
754.0480621101447
 30
0.0
 10
894.9154053177542
 20
753.9392019362241
 30
0.0
 10
894.8211828544299
 20
753.8830777361361
 30
0.0
  0
SPLINE
  5
FD
330
1F
100
AcDbEntity
  8
0
  6
Continuous
 62
     7
370
    25
100
AcDbSpline
210
0.0
220
0.0
230
1.0
 70
     8
 71
     3
 72
    27
 73
    23
 74
     0
 42
0.00000001
 43
0.00000001
 40
0.0
 40
0.0
 40
0.0
 40
0.0
 40
0.0663254359909324
 40
0.1299144795884535
 40
0.1902282405839597
 40
0.2479273139550871
 40
0.3025233359583175
 40
0.3546457179303052
 40
0.4041750110010954
 40
0.450980270311941
 40
0.4956959425323967
 40
0.5384670661836437
 40
0.5788441183956136
 40
0.6176051979493904
 40
0.6546324373658658
 40
0.6906024553522029
 40
0.7248419774216553
 40
0.7584415956866967
 40
0.8227593634370199
 40
0.8830860914158355
 40
0.9417075118991757
 40
1.0
 40
1.0
 40
1.0
 40
1.0
 10
896.8564392646864
 20
750.4968597874181
 30
0.0
 10
896.940040241702
 20
750.5482476877859
 30
0.0
 10
897.1037930653332
 20
750.6489033749092
 30
0.0
 10
897.3390585833748
 20
750.8035082797246
 30
0.0
 10
897.5575726297949
 20
750.9599333898319
 30
0.0
 10
897.7610443507967
 20
751.1143258672134
 30
0.0
 10
897.9481401680431
 20
751.2700054484837
 30
0.0
 10
898.117173264466
 20
751.4277712817076
 30
0.0
 10
898.2737855330084
 20
751.5819205787448
 30
0.0
 10
898.411779204011
 20
751.7386502264252
 30
0.0
 10
898.5358986905483
 20
751.8939295064353
 30
0.0
 10
898.6441772416983
 20
752.0491768952372
 30
0.0
 10
898.7401889134645
 20
752.2019920969702
 30
0.0
 10
898.8203454712223
 20
752.3542350595148
 30
0.0
 10
898.8864026475185
 20
752.5059414386205
 30
0.0
 10
898.939840392201
 20
752.6555134584873
 30
0.0
 10
898.9773030983564
 20
752.8047640942276
 30
0.0
 10
899.0058390297919
 20
752.998369926539
 30
0.0
 10
899.0161078791293
 20
753.2332367004352
 30
0.0
 10
898.9855696785114
 20
753.503511181082
 30
0.0
 10
898.915187035427
 20
753.7582175632458
 30
0.0
 10
898.8332099324837
 20
753.9110454479
 30
0.0
 10
898.7923367005837
 20
753.9872444028027
 30
0.0
  0
SPLINE
  5
FE
330
1F
100
AcDbEntity
  8
0
  6
Continuous
 62
     7
370
    25
100
AcDbSpline
210
0.0
220
0.0
230
1.0
 70
     8
 71
     3
 72
    19
 73
    15
 74
     0
 42
0.00000001
 43
0.00000001
 40
0.0
 40
0.0
 40
0.0
 40
0.0
 40
0.1115693684748738
 40
0.2221955019828827
 40
0.3359821050120415
 40
0.4555345655409664
 40
0.5174876378513309
 40
0.580013088576319
 40
0.6440880257186286
 40
0.7102901987873804
 40
0.7783123230298912
 40
0.8491694222743501
 40
0.9231599132020868
 40
1.0
 40
1.0
 40
1.0
 40
1.0
 10
892.8676572134043
 20
750.4279495310078
 30
0.0
 10
892.9164740926041
 20
750.3549327896175
 30
0.0
 10
893.013695141063
 20
750.209516608383
 30
0.0
 10
893.2050569240912
 20
750.0250723136179
 30
0.0
 10
893.4271028993068
 20
749.8697304651242
 30
0.0
 10
893.6367338863156
 20
749.7679583391771
 30
0.0
 10
893.8178234839962
 20
749.7048204645251
 30
0.0
 10
893.9612851121507
 20
749.6672093010486
 30
0.0
 10
894.1110999296794
 20
749.6438496146329
 30
0.0
 10
894.2664280113772
 20
749.6310929350816
 30
0.0
 10
894.4276380473801
 20
749.6296306937895
 30
0.0
 10
894.5945868661587
 20
749.6397686287629
 30
0.0
 10
894.7677272193331
 20
749.6597355482569
 30
0.0
 10
894.8838297275614
 20
749.6834808029039
 30
0.0
 10
894.9429777262247
 20
749.695577736136
 30
0.0
  0
SPLINE
  5
FF
330
1F
100
AcDbEntity
  8
0
  6
Continuous
 62
     7
370
    25
100
AcDbSpline
210
0.0
220
0.0
230
1.0
 70
     8
 71
     3
 72
    19
 73
    15
 74
     0
 42
0.00000001
 43
0.00000001
 40
0.0
 40
0.0
 40
0.0
 40
0.0
 40
0.0614270504554718
 40
0.1214873711343124
 40
0.1807779929858656
 40
0.2389611892224117
 40
0.2974817388629412
 40
0.3555274788245592
 40
0.4152591430749042
 40
0.4763648884817775
 40
0.6002664840499643
 40
0.7264406043565629
 40
0.8587880128663293
 40
1.0
 40
1.0
 40
1.0
 40
1.0
 10
903.9579791036505
 20
738.9019340984429
 30
0.0
 10
903.9889120553025
 20
738.932448567564
 30
0.0
 10
904.0500897115593
 20
738.9927985698449
 30
0.0
 10
904.1326690836316
 20
739.0907813053079
 30
0.0
 10
904.2022263183339
 20
739.1954687304268
 30
0.0
 10
904.2647617627364
 20
739.3032717835321
 30
0.0
 10
904.3137483776077
 20
739.4170145958009
 30
0.0
 10
904.3527535653055
 20
739.5355823170714
 30
0.0
 10
904.3812425088378
 20
739.6590055533961
 30
0.0
 10
904.4072043934883
 20
739.8302449017398
 30
0.0
 10
904.4115550385744
 20
740.0516990325902
 30
0.0
 10
904.3668694718548
 20
740.3194185867033
 30
0.0
 10
904.2827357010932
 20
740.5907929856853
 30
0.0
 10
904.1922091281336
 20
740.7621811063742
 30
0.0
 10
904.1454791036505
 20
740.8506520471608
 30
0.0
  0
SPLINE
  5
100
330
1F
100
AcDbEntity
  8
0
  6
Continuous
 62
     7
370
    25
100
AcDbSpline
210
0.0
220
0.0
230
1.0
 70
     8
 71
     3
 72
    23
 73
    19
 74
     0
 42
0.00000001
 43
0.00000001
 40
0.0
 40
0.0
 40
0.0
 40
0.0
 40
0.0707397306902711
 40
0.1365211762567261
 40
0.1974012522733276
 40
0.2534518073379825
 40
0.305188681297815
 40
0.3526341084403829
 40
0.3953321148288618
 40
0.4340524789563232
 40
0.5063667993299931
 40
0.5772372120033857
 40
0.6478112013732394
 40
0.7201095256574863
 40
0.7923758471407253
 40
0.8614821230103177
 40
0.9303809695842498
 40
1.0
 40
1.0
 40
1.0
 40
1.0
 10
901.3890688472402
 20
739.478857175366
 30
0.0
 10
901.4373936213151
 20
739.427832176474
 30
0.0
 10
901.5306559921876
 20
739.3293586199699
 30
0.0
 10
901.6701338369229
 20
739.1914494056185
 30
0.0
 10
901.8031275991797
 20
739.0679091545425
 30
0.0
 10
901.929597438001
 20
738.9578663706034
 30
0.0
 10
902.0518987169626
 20
738.8638811905655
 30
0.0
 10
902.1660760796714
 20
738.7810664946697
 30
0.0
 10
902.2760925920979
 20
738.7153639118785
 30
0.0
 10
902.4115013360982
 20
738.6445215780136
 30
0.0
 10
902.5817883024636
 20
738.5815419166746
 30
0.0
 10
902.7903324470237
 20
738.5378926675885
 30
0.0
 10
903.003019116434
 20
738.5251113393747
 30
0.0
 10
903.2167555815826
 20
738.5426388434175
 30
0.0
 10
903.4243331741435
 20
738.5903387791757
 30
0.0
 10
903.6202107587349
 20
738.6646026852134
 30
0.0
 10
903.8006118141458
 20
738.7672488798149
 30
0.0
 10
903.905341835945
 20
738.8568836821131
 30
0.0
 10
903.9579791036505
 20
738.9019340984429
 30
0.0
  0
LINE
  5
101
330
1F
100
AcDbEntity
  8
0
  6
Continuous
 62
     7
370
    25
100
AcDbLine
 10
903.2544534626
 20
741.9516135856
 30
0.0
 11
902.9467611549
 21
742.2801392266
 31
0.0
  0
LINE
  5
102
330
1F
100
AcDbEntity
  8
0
  6
Continuous
 62
     7
370
    25
100
AcDbLine
 10
902.9467611549
 20
742.2801392266
 30
0.0
 11
900.7159919242
 21
740.2000110215
 31
0.0
  0
LINE
  5
103
330
1F
100
AcDbEntity
  8
0
  6
Continuous
 62
     7
370
    25
100
AcDbLine
 10
900.7159919242
 20
740.2000110215
 30
0.0
 11
901.3890688472
 21
739.4788571754
 31
0.0
  0
SPLINE
  5
104
330
1F
100
AcDbEntity
  8
0
  6
Continuous
 62
     7
370
    25
100
AcDbSpline
210
0.0
220
0.0
230
1.0
 70
     8
 71
     3
 72
    15
 73
    11
 74
     0
 42
0.00000001
 43
0.00000001
 40
0.0
 40
0.0
 40
0.0
 40
0.0
 40
0.0805839046564878
 40
0.1723803421110378
 40
0.278102557740817
 40
0.3964855863965869
 40
0.5279459870560592
 40
0.6721431024792365
 40
0.8297287352636586
 40
1.0
 40
1.0
 40
1.0
 40
1.0
 10
904.1454791036505
 20
740.8506520471608
 30
0.0
 10
904.1260919257095
 20
740.8834761239157
 30
0.0
 10
904.0846200166442
 20
740.9536914554337
 30
0.0
 10
904.0093463345173
 20
741.0616859486086
 30
0.0
 10
903.9190335431135
 20
741.1806716321249
 30
0.0
 10
903.8178771985832
 20
741.3150936434248
 30
0.0
 10
903.6956660707077
 20
741.4558819065685
 30
0.0
 10
903.563714568411
 20
741.6126287537364
 30
0.0
 10
903.4141956632915
 20
741.7784672552885
 30
0.0
 10
903.309056893228
 20
741.8924283259157
 30
0.0
 10
903.2544534626248
 20
741.9516135856223
 30
0.0
  0
SPLINE
  5
105
330
1F
100
AcDbEntity
  8
0
  6
Continuous
 62
     7
370
    25
100
AcDbSpline
210
0.0
220
0.0
230
1.0
 70
     8
 71
     3
 72
    27
 73
    23
 74
     0
 42
0.00000001
 43
0.00000001
 40
0.0
 40
0.0
 40
0.0
 40
0.0
 40
0.0737736786780212
 40
0.1430480169107893
 40
0.2079830042784821
 40
0.2681832966713699
 40
0.3240848715568783
 40
0.3754358488553873
 40
0.4227699904772931
 40
0.4661976824740398
 40
0.5066610405083463
 40
0.5454053280863069
 40
0.5829303876674116
 40
0.619459862481443
 40
0.6547557065438078
 40
0.6891402657421939
 40
0.7230502104568931
 40
0.756684811775806
 40
0.8212700523878912
 40
0.8823553363230321
 40
0.9412979262484915
 40
1.0
 40
1.0
 40
1.0
 40
1.0
 10
927.4366955033958
 20
725.2569658423275
 30
0.0
 10
927.4002793510576
 20
725.1551488415574
 30
0.0
 10
927.3296680101453
 20
724.9577244984994
 30
0.0
 10
927.2372621839148
 20
724.6671900070398
 30
0.0
 10
927.1565455049634
 20
724.3938966227245
 30
0.0
 10
927.0903376572163
 20
724.136891819485
 30
0.0
 10
927.0386257103473
 20
723.8968861215317
 30
0.0
 10
927.001706070188
 20
723.67327738573
 30
0.0
 10
926.9765617468246
 20
723.4664100616867
 30
0.0
 10
926.966588725374
 20
723.2741573839666
 30
0.0
 10
926.9702697765947
 20
723.0943360427942
 30
0.0
 10
926.9829816777582
 20
722.9236576288794
 30
0.0
 10
927.0047672528003
 20
722.7596193077707
 30
0.0
 10
927.0388191602278
 20
722.6028785943973
 30
0.0
 10
927.0813765093351
 20
722.4529649781886
 30
0.0
 10
927.136730572347
 20
722.3113837407476
 30
0.0
 10
927.200820021618
 20
722.1763002155809
 30
0.0
 10
927.2973101741196
 20
722.0081959108766
 30
0.0
 10
927.4375897117587
 20
721.8201663340791
 30
0.0
 10
927.6315199379202
 20
721.6302595154636
 30
0.0
 10
927.847141039356
 20
721.4780999638471
 30
0.0
 10
928.006311460622
 20
721.4107595303817
 30
0.0
 10
928.0857339649343
 20
721.3771581500199
 30
0.0
  0
SPLINE
  5
106
330
1F
100
AcDbEntity
  8
0
  6
Continuous
 62
     7
370
    25
100
AcDbSpline
210
0.0
220
0.0
230
1.0
 70
     8
 71
     3
 72
    19
 73
    15
 74
     0
 42
0.00000001
 43
0.00000001
 40
0.0
 40
0.0
 40
0.0
 40
0.0
 40
0.1115947033363243
 40
0.2220064768441291
 40
0.3356027755674931
 40
0.4546962785818874
 40
0.516589972252439
 40
0.5795598302912528
 40
0.6441194329542823
 40
0.7098263852133454
 40
0.7782436331071557
 40
0.849237947410383
 40
0.9230646775248568
 40
1.0
 40
1.0
 40
1.0
 40
1.0
 10
928.0857339649343
 20
721.3771581500199
 30
0.0
 10
928.1689633046495
 20
721.3518704722975
 30
0.0
 10
928.3345397337077
 20
721.3015631721223
 30
0.0
 10
928.5962926558022
 20
721.2766994660592
 30
0.0
 10
928.8635027153114
 20
721.2971398760433
 30
0.0
 10
929.0873404992838
 20
721.349896745983
 30
0.0
 10
929.2671056565163
 20
721.4116412161186
 30
0.0
 10
929.3999471340026
 20
721.4759342296107
 30
0.0
 10
929.5317445219554
 20
721.5484976037192
 30
0.0
 10
929.6590744390081
 20
721.636571257038
 30
0.0
 10
929.7835779027973
 20
721.7364420603374
 30
0.0
 10
929.9081395731426
 20
721.8462691940715
 30
0.0
 10
930.0259477485293
 20
721.9725838829501
 30
0.0
 10
930.1016099809824
 20
722.0621969649326
 30
0.0
 10
930.1402211444215
 20
722.1079273807891
 30
0.0
  0
SPLINE
  5
107
330
1F
100
AcDbEntity
  8
0
  6
Continuous
 62
     7
370
    25
100
AcDbSpline
210
0.0
220
0.0
230
1.0
 70
     8
 71
     3
 72
    15
 73
    11
 74
     0
 42
0.00000001
 43
0.00000001
 40
0.0
 40
0.0
 40
0.0
 40
0.0
 40
0.1100617503394075
 40
0.2239345513238716
 40
0.342146315749643
 40
0.4641095356763009
 40
0.5908007780822498
 40
0.7224049864496451
 40
0.8587540734432185
 40
1.0
 40
1.0
 40
1.0
 40
1.0
 10
930.1402211444215
 20
722.1079273807891
 30
0.0
 10
930.1875212051826
 20
722.1671467388751
 30
0.0
 10
930.2837591611619
 20
722.2876360127758
 30
0.0
 10
930.4151320447511
 20
722.4832988870459
 30
0.0
 10
930.5459483501309
 20
722.6889821605287
 30
0.0
 10
930.6682752956816
 20
722.910011869149
 30
0.0
 10
930.789749777351
 20
723.1419296197308
 30
0.0
 10
930.9023190231113
 20
723.38926060214
 30
0.0
 10
931.0118921274967
 20
723.6487940319151
 30
0.0
 10
931.0788884686876
 20
723.8277622085658
 30
0.0
 10
931.112977554678
 20
723.9188248166865
 30
0.0
  0
SPLINE
  5
108
330
1F
100
AcDbEntity
  8
0
  6
Continuous
 62
     7
370
    25
100
AcDbSpline
210
0.0
220
0.0
230
1.0
 70
     8
 71
     3
 72
    27
 73
    23
 74
     0
 42
0.00000001
 43
0.00000001
 40
0.0
 40
0.0
 40
0.0
 40
0.0
 40
0.0664249164203416
 40
0.1298558511253497
 40
0.1904621541081861
 40
0.2477759375498894
 40
0.3027692171059267
 40
0.3548058103809214
 40
0.403897237431561
 40
0.450986903820327
 40
0.4958393478872399
 40
0.5382382874949415
 40
0.5790342116205767
 40
0.6176518444999665
 40
0.6547181980596397
 40
0.6904828650226578
 40
0.7247378677397732
 40
0.7583878218005006
 40
0.8224922527600279
 40
0.8830853909531253
 40
0.9417553654238032
 40
1.0
 40
1.0
 40
1.0
 40
1.0
 10
931.112977554678
 20
723.9188248166865
 30
0.0
 10
931.1457023157388
 20
724.0104796013211
 30
0.0
 10
931.2096768290606
 20
724.189657998673
 30
0.0
 10
931.2921841187293
 20
724.456255539732
 30
0.0
 10
931.365472426504
 20
724.7116775307816
 30
0.0
 10
931.4230113191162
 20
724.9584735101561
 30
0.0
 10
931.469208194873
 20
725.1947716436326
 30
0.0
 10
931.5059522777884
 20
725.4206324923185
 30
0.0
 10
931.5262101551612
 20
725.6369512277971
 30
0.0
 10
931.5362145779179
 20
725.8433811915525
 30
0.0
 10
931.5350418428224
 20
726.0403141384477
 30
0.0
 10
931.5218668776914
 20
726.2275436052079
 30
0.0
 10
931.4999014722341
 20
726.4047249279618
 30
0.0
 10
931.4682501190274
 20
726.5725575796815
 30
0.0
 10
931.4250311057393
 20
726.7302040239852
 30
0.0
 10
931.3707093996737
 20
726.8775896052117
 30
0.0
 10
931.30587221593
 20
727.0151276884749
 30
0.0
 10
931.2094748816619
 20
727.1829933091218
 30
0.0
 10
931.069935959235
 20
727.3695456028197
 30
0.0
 10
930.8797141125843
 20
727.5603296236869
 30
0.0
 10
930.6660137551163
 20
727.7122355918863
 30
0.0
 10
930.5076009362956
 20
727.7784608551997
 30
0.0
 10
930.428682682883
 20
727.8114530218148
 30
0.0
  0
SPLINE
  5
109
330
1F
100
AcDbEntity
  8
0
  6
Continuous
 62
     7
370
    25
100
AcDbSpline
210
0.0
220
0.0
230
1.0
 70
     8
 71
     3
 72
    27
 73
    23
 74
     0
 42
0.00000001
 43
0.00000001
 40
0.0
 40
0.0
 40
0.0
 40
0.0
 40
0.0593111376527367
 40
0.1182270130368126
 40
0.179259077686206
 40
0.2433303715672143
 40
0.2766388587017952
 40
0.3102311145487048
 40
0.3444886281625037
 40
0.3796563670656677
 40
0.4160229901310598
 40
0.4536949798649416
 40
0.492599600008741
 40
0.5331483725309207
 40
0.5762907141366778
 40
0.6235844785208197
 40
0.6752001703369386
 40
0.7312688792156814
 40
0.7915645427942558
 40
0.8563446935556353
 40
0.925967810951886
 40
1.0
 40
1.0
 40
1.0
 40
1.0
 10
930.428682682883
 20
727.8114530218148
 30
0.0
 10
930.3455100088105
 20
727.8375805235282
 30
0.0
 10
930.1797189413816
 20
727.8896614076242
 30
0.0
 10
929.9157834760421
 20
727.9115617541556
 30
0.0
 10
929.6459076952414
 20
727.8901569130543
 30
0.0
 10
929.4193017618106
 20
727.8347966559625
 30
0.0
 10
929.2384868795132
 20
727.769817117835
 30
0.0
 10
929.1031106894602
 20
727.7088072669783
 30
0.0
 10
928.9712159744496
 20
727.6347700876329
 30
0.0
 10
928.8431110250276
 20
727.547124518611
 30
0.0
 10
928.715839823495
 20
727.4497790119996
 30
0.0
 10
928.5929749160676
 20
727.338549221267
 30
0.0
 10
928.4720922168954
 20
727.2164603035802
 30
0.0
 10
928.3543670516075
 20
727.0804806733267
 30
0.0
 10
928.2373353027516
 20
726.9280552519724
 30
0.0
 10
928.1224303681258
 20
726.7541867235897
 30
0.0
 10
928.0071730642873
 20
726.5582719316818
 30
0.0
 10
927.8926428326725
 20
726.3401795189641
 30
0.0
 10
927.7765567696199
 20
726.1012364858177
 30
0.0
 10
927.6639494640143
 20
725.8388744230731
 30
0.0
 10
927.5481656168346
 20
725.5560421445385
 30
0.0
 10
927.4746047847381
 20
725.3586771202079
 30
0.0
 10
927.4366955033958
 20
725.2569658423275
 30
0.0
  0
SPLINE
  5
10A
330
1F
100
AcDbEntity
  8
0
  6
Continuous
 62
     7
370
    25
100
AcDbSpline
210
0.0
220
0.0
230
1.0
 70
     8
 71
     3
 72
    23
 73
    19
 74
     0
 42
0.00000001
 43
0.00000001
 40
0.0
 40
0.0
 40
0.0
 40
0.0
 40
0.0709052284746375
 40
0.1373629395292145
 40
0.1986311416478004
 40
0.2555368042670356
 40
0.3078437674998971
 40
0.3552540339844765
 40
0.3985472292968443
 40
0.437783395479263
 40
0.5106607831322578
 40
0.5812771533854316
 40
0.6510011605905813
 40
0.7212928773300017
 40
0.7919092475831754
 40
0.8606609297381297
 40
0.9295446182616558
 40
1.0
 40
1.0
 40
1.0
 40
1.0
 10
903.8425944882658
 20
742.4916776881864
 30
0.0
 10
903.8882621891844
 20
742.4433390680883
 30
0.0
 10
903.9767330928775
 20
742.3496938589506
 30
0.0
 10
904.1091008993892
 20
742.2185406286909
 30
0.0
 10
904.2367773927833
 20
742.1015572064146
 30
0.0
 10
904.3559360702842
 20
741.9949158570395
 30
0.0
 10
904.4710729580912
 20
741.9034985174253
 30
0.0
 10
904.5810747539635
 20
741.826769336145
 30
0.0
 10
904.6828060506415
 20
741.7594157906949
 30
0.0
 10
904.8124370280859
 20
741.6924996517236
 30
0.0
 10
904.9718675787349
 20
741.6276411466962
 30
0.0
 10
905.1680776541234
 20
741.5857457312427
 30
0.0
 10
905.3655760346718
 20
741.5672618207016
 30
0.0
 10
905.5629934987775
 20
741.5857641246852
 30
0.0
 10
905.7562502875392
 20
741.6262950224278
 30
0.0
 10
905.9370747169945
 20
741.7017535616701
 30
0.0
 10
906.1091741230031
 20
741.7960159976301
 30
0.0
 10
906.2077929734925
 20
741.882329178936
 30
0.0
 10
906.2576585908299
 20
741.9259725599813
 30
0.0
  0
SPLINE
  5
10B
330
1F
100
AcDbEntity
  8
0
  6
Continuous
 62
     7
370
    25
100
AcDbSpline
210
0.0
220
0.0
230
1.0
 70
     8
 71
     3
 72
    23
 73
    19
 74
     0
 42
0.00000001
 43
0.00000001
 40
0.0
 40
0.0
 40
0.0
 40
0.0
 40
0.0590050096795834
 40
0.1158096411809892
 40
0.1700163879132562
 40
0.2226424776274809
 40
0.2747440417279117
 40
0.3266499919817025
 40
0.3789513009942194
 40
0.4324449253450572
 40
0.4885286566774298
 40
0.5475164235133718
 40
0.6100371614848232
 40
0.6773415689414832
 40
0.7490157676845777
 40
0.8273655516559182
 40
0.9105670643504059
 40
1.0
 40
1.0
 40
1.0
 40
1.0
 10
906.2576585908299
 20
741.9259725599813
 30
0.0
 10
906.2892933628448
 20
741.9568753719989
 30
0.0
 10
906.351383202602
 20
742.0175285875592
 30
0.0
 10
906.4314757409093
 20
742.116993508181
 30
0.0
 10
906.4975062628803
 20
742.220436188272
 30
0.0
 10
906.551795651892
 20
742.3267509577217
 30
0.0
 10
906.5896056743952
 20
742.4381268568007
 30
0.0
 10
906.6161614331086
 20
742.5524287003778
 30
0.0
 10
906.6266895909283
 20
742.6704050486056
 30
0.0
 10
906.6251990752038
 20
742.7918150125253
 30
0.0
 10
906.609577296423
 20
742.9174794452624
 30
0.0
 10
906.5747395929519
 20
743.0462358940372
 30
0.0
 10
906.5240593529047
 20
743.1784150462377
 30
0.0
 10
906.4588702587482
 20
743.3148159354124
 30
0.0
 10
906.3731919163334
 20
743.4534643082212
 30
0.0
 10
906.2732237633433
 20
743.5968258247167
 30
0.0
 10
906.154948983049
 20
743.7431490050369
 30
0.0
 10
906.0684795507833
 20
743.8393018130023
 30
0.0
 10
906.0236842318557
 20
743.8891135856223
 30
0.0
  0
LINE
  5
10C
330
1F
100
AcDbEntity
  8
0
  6
Continuous
 62
     7
370
    25
100
AcDbLine
 10
905.3954791037
 20
744.5621905087
 30
0.0
 11
903.5316970524
 21
742.8250110215
 31
0.0
  0
LINE
  5
10D
330
1F
100
AcDbEntity
  8
0
  6
Continuous
 62
     7
370
    25
100
AcDbLine
 10
906.0236842319
 20
743.8891135856
 30
0.0
 11
905.3954791037
 21
744.5621905087
 31
0.0
  0
LINE
  5
10E
330
1F
100
AcDbEntity
  8
0
  6
Continuous
 62
     7
370
    25
100
AcDbLine
 10
903.5316970524
 20
742.8250110215
 30
0.0
 11
903.8425944883
 21
742.4916776882
 31
0.0
  0
ENDSEC
  0
SECTION
  2
OBJECTS
  0
DICTIONARY
  5
C
330
0
100
AcDbDictionary
281
     1
  3
ACAD_DETAILVIEWSTYLE
350
116
  3
ACAD_GROUP
350
D
  3
ACAD_LAYOUT
350
1A
  3
ACAD_MATERIAL
350
43
  3
ACAD_MLEADERSTYLE
350
5B
  3
ACAD_MLINESTYLE
350
17
  3
ACAD_PLOTSETTINGS
350
19
  3
ACAD_PLOTSTYLENAME
350
E
  3
ACAD_SCALELIST
350
47
  3
ACAD_SECTIONVIEWSTYLE
350
117
  3
ACAD_TABLESTYLE
350
59
  3
ACAD_VISUALSTYLE
350
2A
  3
ACDB_RECOMPOSE_DATA
350
113
  3
AcDbVariableDictionary
350
10F
  0
SUN
  5
5D
330
29
100
AcDbSun
 90
        1
290
     0
 63
     7
421
 16777215
 40
1.0
291
     1
 91
  2455826
 92
 54000000
292
     0
 70
     2
 71
   256
280
     1
  0
DICTIONARY
  5
116
102
{ACAD_REACTORS
330
C
102
}
330
C
100
AcDbDictionary
281
     1
  0
DICTIONARY
  5
D
102
{ACAD_REACTORS
330
C
102
}
330
C
100
AcDbDictionary
281
     1
  0
DICTIONARY
  5
1A
102
{ACAD_REACTORS
330
C
102
}
330
C
100
AcDbDictionary
281
     1
  3
Layout1
350
1E
  3
Layout2
350
26
  3
Model
350
22
  0
DICTIONARY
  5
43
102
{ACAD_REACTORS
330
C
102
}
330
C
100
AcDbDictionary
281
     1
  3
ByBlock
350
45
  3
ByLayer
350
44
  3
Global
350
46
  0
DICTIONARY
  5
5B
102
{ACAD_REACTORS
330
C
102
}
330
C
100
AcDbDictionary
281
     1
  3
Standard
350
5C
  0
DICTIONARY
  5
17
102
{ACAD_REACTORS
330
C
102
}
330
C
100
AcDbDictionary
281
     1
  3
Standard
350
18
  0
DICTIONARY
  5
19
102
{ACAD_REACTORS
330
C
102
}
330
C
100
AcDbDictionary
281
     1
  0
ACDBDICTIONARYWDFLT
  5
E
102
{ACAD_REACTORS
330
C
102
}
330
C
100
AcDbDictionary
281
     1
  3
Normal
350
F
100
AcDbDictionaryWithDefault
340
F
  0
DICTIONARY
  5
47
102
{ACAD_REACTORS
330
C
102
}
330
C
100
AcDbDictionary
281
     1
  3
A0
350
48
  3
A1
350
49
  3
A2
350
4A
  3
A3
350
4B
  3
A4
350
4C
  3
A5
350
4D
  3
A6
350
4E
  3
A7
350
4F
  3
A8
350
50
  3
A9
350
51
  3
B0
350
52
  3
B1
350
53
  3
B2
350
54
  3
B3
350
55
  3
B4
350
56
  3
B5
350
57
  3
B6
350
58
  0
DICTIONARY
  5
117
102
{ACAD_REACTORS
330
C
102
}
330
C
100
AcDbDictionary
281
     1
  0
DICTIONARY
  5
59
102
{ACAD_REACTORS
330
C
102
}
330
C
100
AcDbDictionary
281
     1
  3
Standard
350
5A
  0
DICTIONARY
  5
2A
102
{ACAD_REACTORS
330
C
102
}
330
C
100
AcDbDictionary
281
     1
  3
2dWireframe
350
2F
  3
Basic
350
32
  3
Brighten
350
36
  3
ColorChange
350
3A
  3
Conceptual
350
34
  3
Dim
350
35
  3
EdgeColorOff
350
3D
  3
Facepattern
350
39
  3
Flat
350
2B
  3
FlatWithEdges
350
2C
  3
Gouraud
350
2D
  3
GouraudWithEdges
350
2E
  3
Hidden
350
31
  3
JitterOff
350
3B
  3
Linepattern
350
38
  3
OverhangOff
350
3C
  3
Realistic
350
33
  3
Shaded
350
42
  3
Shaded with edges
350
41
  3
Shades of Gray
350
3E
  3
Sketchy
350
3F
  3
Thicken
350
37
  3
Wireframe
350
30
  3
X-Ray
350
40
  0
XRECORD
  5
113
102
{ACAD_REACTORS
330
C
102
}
330
C
100
AcDbXrecord
280
     1
 90
        1
330
5A
  0
DICTIONARY
  5
10F
102
{ACAD_REACTORS
330
C
102
}
330
C
100
AcDbDictionary
281
     1
  3
CANNOSCALE
350
110
  3
CENTEREXE
350
118
  3
CENTERLTYPEFILE
350
119
  3
CMLEADERSTYLE
350
115
  3
CTABLESTYLE
350
114
  0
LAYOUT
  5
1E
102
{ACAD_REACTORS
330
1A
102
}
330
1A
100
AcDbPlotSettings
  1

  2
none_device
  4

  6

 40
0.0
 41
0.0
 42
0.0
 43
0.0
 44
0.0
 45
0.0
 46
0.0
 47
0.0
 48
0.0
 49
0.0
140
0.0
141
0.0
142
1.0
143
1.0
 70
   688
 72
     1
 73
     0
 74
     5
  7

 75
    16
 76
     0
 77
     2
 78
   300
147
1.0
148
0.0
149
0.0
100
AcDbLayout
  1
Layout1
 70
     1
 71
     1
 10
0.0
 20
0.0
 11
420.0
 21
297.0
 12
0.0
 22
0.0
 32
0.0
 14
1.0000000000E+20
 24
1.0000000000E+20
 34
1.0000000000E+20
 15
-1.0000000000E+20
 25
-1.0000000000E+20
 35
-1.0000000000E+20
146
0.0
 13
0.0
 23
0.0
 33
0.0
 16
1.0
 26
0.0
 36
0.0
 17
0.0
 27
1.0
 37
0.0
 76
     0
330
1B
  0
LAYOUT
  5
26
102
{ACAD_REACTORS
330
1A
102
}
330
1A
100
AcDbPlotSettings
  1

  2
none_device
  4

  6

 40
0.0
 41
0.0
 42
0.0
 43
0.0
 44
0.0
 45
0.0
 46
0.0
 47
0.0
 48
0.0
 49
0.0
140
0.0
141
0.0
142
1.0
143
1.0
 70
   688
 72
     1
 73
     0
 74
     5
  7

 75
    16
 76
     0
 77
     2
 78
   300
147
1.0
148
0.0
149
0.0
100
AcDbLayout
  1
Layout2
 70
     1
 71
     2
 10
0.0
 20
0.0
 11
0.0
 21
0.0
 12
0.0
 22
0.0
 32
0.0
 14
0.0
 24
0.0
 34
0.0
 15
0.0
 25
0.0
 35
0.0
146
0.0
 13
0.0
 23
0.0
 33
0.0
 16
1.0
 26
0.0
 36
0.0
 17
0.0
 27
1.0
 37
0.0
 76
     0
330
23
  0
LAYOUT
  5
22
102
{ACAD_REACTORS
330
1A
102
}
330
1A
100
AcDbPlotSettings
  1

  2
none_device
  4
Letter_(8.50_x_11.00_Inches)
  6

 40
6.35
 41
6.35
 42
6.35000508
 43
6.35000508
 44
215.9
 45
279.4
 46
0.0
 47
0.0
 48
0.0
 49
0.0
140
0.0
141
0.0
142
1.0
143
1.0
 70
  1712
 72
     1
 73
     0
 74
     0
  7

 75
     0
 76
     0
 77
     2
 78
   300
147
1.0
148
0.0
149
0.0
100
AcDbLayout
  1
Model
 70
     1
 71
     0
 10
0.0
 20
0.0
 11
420.0
 21
297.0
 12
0.0
 22
0.0
 32
0.0
 14
0.0
 24
0.0
 34
0.0
 15
420.0
 25
297.0
 35
0.0
146
0.0
 13
0.0
 23
0.0
 33
0.0
 16
1.0
 26
0.0
 36
0.0
 17
0.0
 27
1.0
 37
0.0
 76
     0
330
1F
331
29
  0
MATERIAL
  5
45
102
{ACAD_REACTORS
330
43
102
}
330
43
100
AcDbMaterial
  1
ByBlock
 72
     1
 94
      127
  0
MATERIAL
  5
44
102
{ACAD_REACTORS
330
43
102
}
330
43
100
AcDbMaterial
  1
ByLayer
 72
     1
 94
      127
  0
MATERIAL
  5
46
102
{ACAD_REACTORS
330
43
102
}
330
43
100
AcDbMaterial
  1
Global
 72
     1
 94
      127
  0
MLEADERSTYLE
  5
5C
102
{ACAD_REACTORS
330
5B
102
}
330
5B
100
AcDbMLeaderStyle
179
     2
170
     2
171
     1
172
     0
 90
        2
 40
0.0
 41
0.0
173
     1
 91
-1056964608
340
14
 92
       -2
290
     1
 42
2.0
291
     1
 43
8.0
  3
Standard
341
0
 44
4.0
300

342
11
174
     1
178
     6
175
     1
176
     0
 93
-1056964608
 45
4.0
292
     0
297
     0
 46
4.0
343
0
 94
-1056964608
 47
1.0
 49
1.0
140
1.0
293
     1
141
0.0
294
     1
177
     0
142
1.0
295
     0
296
     0
143
3.75
271
     0
272
     9
273
     9
298
     0
  0
MLINESTYLE
  5
18
102
{ACAD_REACTORS
330
17
102
}
330
17
100
AcDbMlineStyle
  2
Standard
 70
     0
  3

 62
   256
 51
90.0
 52
90.0
 71
     2
 49
0.5
 62
   256
  6
BYLAYER
 49
-0.5
 62
   256
  6
BYLAYER
  0
ACDBPLACEHOLDER
  5
F
102
{ACAD_REACTORS
330
E
102
}
330
E
  0
SCALE
  5
48
102
{ACAD_REACTORS
330
47
102
}
330
47
100
AcDbScale
 70
     0
300
1:1
140
1.0
141
1.0
290
     1
  0
SCALE
  5
49
102
{ACAD_REACTORS
330
47
102
}
330
47
100
AcDbScale
 70
     0
300
1:2
140
1.0
141
2.0
290
     0
  0
SCALE
  5
4A
102
{ACAD_REACTORS
330
47
102
}
330
47
100
AcDbScale
 70
     0
300
1:4
140
1.0
141
4.0
290
     0
  0
SCALE
  5
4B
102
{ACAD_REACTORS
330
47
102
}
330
47
100
AcDbScale
 70
     0
300
1:5
140
1.0
141
5.0
290
     0
  0
SCALE
  5
4C
102
{ACAD_REACTORS
330
47
102
}
330
47
100
AcDbScale
 70
     0
300
1:8
140
1.0
141
8.0
290
     0
  0
SCALE
  5
4D
102
{ACAD_REACTORS
330
47
102
}
330
47
100
AcDbScale
 70
     0
300
1:10
140
1.0
141
10.0
290
     0
  0
SCALE
  5
4E
102
{ACAD_REACTORS
330
47
102
}
330
47
100
AcDbScale
 70
     0
300
1:16
140
1.0
141
16.0
290
     0
  0
SCALE
  5
4F
102
{ACAD_REACTORS
330
47
102
}
330
47
100
AcDbScale
 70
     0
300
1:20
140
1.0
141
20.0
290
     0
  0
SCALE
  5
50
102
{ACAD_REACTORS
330
47
102
}
330
47
100
AcDbScale
 70
     0
300
1:30
140
1.0
141
30.0
290
     0
  0
SCALE
  5
51
102
{ACAD_REACTORS
330
47
102
}
330
47
100
AcDbScale
 70
     0
300
1:40
140
1.0
141
40.0
290
     0
  0
SCALE
  5
52
102
{ACAD_REACTORS
330
47
102
}
330
47
100
AcDbScale
 70
     0
300
1:50
140
1.0
141
50.0
290
     0
  0
SCALE
  5
53
102
{ACAD_REACTORS
330
47
102
}
330
47
100
AcDbScale
 70
     0
300
1:100
140
1.0
141
100.0
290
     0
  0
SCALE
  5
54
102
{ACAD_REACTORS
330
47
102
}
330
47
100
AcDbScale
 70
     0
300
2:1
140
2.0
141
1.0
290
     0
  0
SCALE
  5
55
102
{ACAD_REACTORS
330
47
102
}
330
47
100
AcDbScale
 70
     0
300
4:1
140
4.0
141
1.0
290
     0
  0
SCALE
  5
56
102
{ACAD_REACTORS
330
47
102
}
330
47
100
AcDbScale
 70
     0
300
8:1
140
8.0
141
1.0
290
     0
  0
SCALE
  5
57
102
{ACAD_REACTORS
330
47
102
}
330
47
100
AcDbScale
 70
     0
300
10:1
140
10.0
141
1.0
290
     0
  0
SCALE
  5
58
102
{ACAD_REACTORS
330
47
102
}
330
47
100
AcDbScale
 70
     0
300
100:1
140
100.0
141
1.0
290
     0
  0
TABLESTYLE
  5
5A
102
{ACAD_REACTORS
330
59
102
}
102
{ACAD_XDICTIONARY
360
111
102
}
330
59
100
AcDbTableStyle
  3
Standard
 70
     0
 71
     0
 40
0.06
 41
0.06
280
     0
281
     0
  7
Standard
140
4.5
170
     2
 62
     0
 63
   257
283
     0
 90
        4
 91
        0
  1

274
    -2
284
     1
 64
     0
275
    -2
285
     1
 65
     0
276
    -2
286
     1
 66
     0
277
    -2
287
     1
 67
     0
278
    -2
288
     1
 68
     0
279
    -2
289
     1
 69
     0
  7
Standard
140
6.0
170
     5
 62
     0
 63
   257
283
     0
 90
        4
 91
        0
  1

274
    -2
284
     1
 64
     0
275
    -2
285
     1
 65
     0
276
    -2
286
     1
 66
     0
277
    -2
287
     1
 67
     0
278
    -2
288
     1
 68
     0
279
    -2
289
     1
 69
     0
  7
Standard
140
4.5
170
     5
 62
     0
 63
   257
283
     0
 90
        4
 91
        0
  1

274
    -2
284
     1
 64
     0
275
    -2
285
     1
 65
     0
276
    -2
286
     1
 66
     0
277
    -2
287
     1
 67
     0
278
    -2
288
     1
 68
     0
279
    -2
289
     1
 69
     0
  0
VISUALSTYLE
  5
2F
102
{ACAD_REACTORS
330
2A
102
}
330
2A
100
AcDbVisualStyle
  2
2dWireframe
 70
     4
177
     3
291
     0
 70
    58
 90
        0
176
     1
 90
        2
176
     1
 90
        0
176
     1
 90
        0
176
     1
 40
0.6
176
     1
 40
30.0
176
     1
 62
     7
420
 16777215
176
     1
 90
        1
176
     1
 90
        4
176
     1
 62
     7
176
     1
 62
   257
176
     1
 90
        1
176
     1
 90
        1
176
     1
 40
1.0
176
     1
 90
        0
176
     1
 62
   257
176
     1
 40
1.0
176
     1
 90
        1
176
     1
 90
        6
176
     1
 90
        2
176
     1
 62
     7
176
     1
 90
        5
176
     1
 90
        0
176
     1
 90
        0
176
     1
290
     0
176
     1
 90
        1
176
     1
 40
0.0
176
     1
 90
        0
176
     1
290
     1
176
     1
290
     1
176
     1
290
     0
176
     1
290
     0
176
     1
290
     0
176
     1
290
     0
176
     1
290
     0
176
     1
290
     0
176
     1
290
     0
176
     1
 90
       50
176
     1
 40
0.0
176
     1
 40
1.0
176
     1
 90
        0
176
     1
 62
    18
420
        0
176
     1
 90
       50
176
     1
 90
        3
176
     1
 62
     5
420
      255
176
     1
290
     0
176
     1
 90
       50
176
     1
 90
       50
176
     1
 90
       50
176
     1
290
     0
176
     1
 90
       50
176
     1
 62
   256
176
     0
 40
1.0
176
     0
 90
        2
176
     1
  1
strokes_ogs.tif
176
     1
290
     0
176
     1
 40
1.0
176
     1
 40
1.0
176
     1
  0
VISUALSTYLE
  5
32
102
{ACAD_REACTORS
330
2A
102
}
330
2A
100
AcDbVisualStyle
  2
Basic
 70
     7
177
     3
291
     1
 70
    58
 90
        1
176
     1
 90
        0
176
     1
 90
        1
176
     1
 90
        0
176
     1
 40
0.6
176
     1
 40
30.0
176
     1
 62
     7
420
 16777215
176
     1
 90
        0
176
     1
 90
        4
176
     1
 62
     7
176
     1
 62
   257
176
     1
 90
        1
176
     1
 90
        1
176
     1
 40
1.0
176
     1
 90
        8
176
     1
 62
     7
176
     1
 40
1.0
176
     1
 90
        1
176
     1
 90
        6
176
     1
 90
        2
176
     1
 62
     7
176
     1
 90
        5
176
     1
 90
        0
176
     1
 90
        0
176
     1
290
     0
176
     1
 90
        1
176
     1
 40
0.0
176
     1
 90
        0
176
     1
290
     0
176
     1
290
     1
176
     1
290
     1
176
     1
290
     0
176
     1
290
     0
176
     1
290
     0
176
     1
290
     0
176
     1
290
     0
176
     1
290
     0
176
     1
 90
       50
176
     1
 40
0.0
176
     1
 40
1.0
176
     1
 90
        0
176
     1
 62
    18
420
        0
176
     1
 90
       50
176
     1
 90
        3
176
     1
 62
     5
420
      255
176
     1
290
     0
176
     1
 90
       50
176
     1
 90
       50
176
     1
 90
       50
176
     1
290
     0
176
     1
 90
       50
176
     1
 62
   256
176
     0
 40
1.0
176
     0
 90
        2
176
     1
  1
strokes_ogs.tif
176
     1
290
     0
176
     1
 40
1.0
176
     1
 40
1.0
176
     1
  0
VISUALSTYLE
  5
36
102
{ACAD_REACTORS
330
2A
102
}
330
2A
100
AcDbVisualStyle
  2
Brighten
 70
    12
177
     3
291
     1
 70
    58
 90
        2
176
     1
 90
        2
176
     1
 90
        0
176
     1
 90
        0
176
     1
 40
0.6
176
     1
 40
30.0
176
     1
 62
     7
420
 16777215
176
     1
 90
        1
176
     1
 90
        4
176
     1
 62
     7
176
     1
 62
   257
176
     1
 90
        1
176
     1
 90
        1
176
     1
 40
1.0
176
     1
 90
        8
176
     1
 62
     7
176
     1
 40
1.0
176
     1
 90
        1
176
     1
 90
        6
176
     1
 90
        2
176
     1
 62
     7
176
     1
 90
        5
176
     1
 90
        0
176
     1
 90
        0
176
     1
290
     0
176
     1
 90
        1
176
     1
 40
50.0
176
     1
 90
        0
176
     1
290
     0
176
     1
290
     1
176
     1
290
     1
176
     1
290
     0
176
     1
290
     0
176
     1
290
     0
176
     1
290
     0
176
     1
290
     0
176
     1
290
     0
176
     1
 90
       50
176
     1
 40
0.0
176
     1
 40
1.0
176
     1
 90
        0
176
     1
 62
    18
420
        0
176
     1
 90
       50
176
     1
 90
        3
176
     1
 62
     5
420
      255
176
     1
290
     0
176
     1
 90
       50
176
     1
 90
       50
176
     1
 90
       50
176
     1
290
     0
176
     1
 90
       50
176
     1
 62
   256
176
     0
 40
1.0
176
     0
 90
        2
176
     1
  1
strokes_ogs.tif
176
     1
290
     0
176
     1
 40
1.0
176
     1
 40
1.0
176
     1
  0
VISUALSTYLE
  5
3A
102
{ACAD_REACTORS
330
2A
102
}
330
2A
100
AcDbVisualStyle
  2
ColorChange
 70
    16
177
     3
291
     1
 70
    58
 90
        2
176
     1
 90
        2
176
     1
 90
        3
176
     1
 90
        0
176
     1
 40
0.6
176
     1
 40
30.0
176
     1
 62
     8
420
  8421504
176
     1
 90
        1
176
     1
 90
        4
176
     1
 62
     7
176
     1
 62
   257
176
     1
 90
        1
176
     1
 90
        1
176
     1
 40
1.0
176
     1
 90
        8
176
     1
 62
     8
420
  8421504
176
     1
 40
1.0
176
     1
 90
        1
176
     1
 90
        6
176
     1
 90
        2
176
     1
 62
     7
176
     1
 90
        5
176
     1
 90
        0
176
     1
 90
        0
176
     1
290
     0
176
     1
 90
        1
176
     1
 40
0.0
176
     1
 90
        0
176
     1
290
     0
176
     1
290
     1
176
     1
290
     1
176
     1
290
     0
176
     1
290
     0
176
     1
290
     0
176
     1
290
     0
176
     1
290
     0
176
     1
290
     0
176
     1
 90
       50
176
     1
 40
0.0
176
     1
 40
1.0
176
     1
 90
        0
176
     1
 62
    18
420
        0
176
     1
 90
       50
176
     1
 90
        3
176
     1
 62
     5
420
      255
176
     1
290
     0
176
     1
 90
       50
176
     1
 90
       50
176
     1
 90
       50
176
     1
290
     0
176
     1
 90
       50
176
     1
 62
   256
176
     0
 40
1.0
176
     0
 90
        2
176
     1
  1
strokes_ogs.tif
176
     1
290
     0
176
     1
 40
1.0
176
     1
 40
1.0
176
     1
  0
VISUALSTYLE
  5
34
102
{ACAD_REACTORS
330
2A
102
}
330
2A
100
AcDbVisualStyle
  2
Conceptual
 70
     9
177
     3
291
     0
 70
    58
 90
        3
176
     1
 90
        2
176
     1
 90
        0
176
     1
 90
        0
176
     1
 40
0.6
176
     1
 40
30.0
176
     1
 62
     7
420
 16777215
176
     1
 90
        2
176
     1
 90
        2
176
     1
 62
     7
176
     1
 62
   257
176
     1
 90
        1
176
     1
 90
        1
176
     1
 40
179.0
176
     1
 90
        8
176
     1
 62
     7
176
     1
 40
1.0
176
     1
 90
        1
176
     1
 90
        6
176
     1
 90
        2
176
     1
 62
     7
176
     1
 90
        3
176
     1
 90
        0
176
     1
 90
        0
176
     1
290
     0
176
     1
 90
        1
176
     1
 40
0.0
176
     1
 90
        0
176
     1
290
     0
176
     1
290
     1
176
     1
290
     1
176
     1
290
     0
176
     1
290
     0
176
     1
290
     0
176
     1
290
     0
176
     1
290
     0
176
     1
290
     0
176
     1
 90
       50
176
     1
 40
0.0
176
     1
 40
1.0
176
     1
 90
        0
176
     1
 62
    18
420
        0
176
     1
 90
       50
176
     1
 90
        3
176
     1
 62
     5
420
      255
176
     1
290
     0
176
     1
 90
       50
176
     1
 90
       50
176
     1
 90
       50
176
     1
290
     0
176
     1
 90
       50
176
     1
 62
   256
176
     0
 40
1.0
176
     0
 90
        2
176
     1
  1
strokes_ogs.tif
176
     1
290
     0
176
     1
 40
1.0
176
     1
 40
1.0
176
     1
  0
VISUALSTYLE
  5
35
102
{ACAD_REACTORS
330
2A
102
}
330
2A
100
AcDbVisualStyle
  2
Dim
 70
    11
177
     3
291
     1
 70
    58
 90
        2
176
     1
 90
        2
176
     1
 90
        0
176
     1
 90
        0
176
     1
 40
0.6
176
     1
 40
30.0
176
     1
 62
     7
420
 16777215
176
     1
 90
        1
176
     1
 90
        4
176
     1
 62
     7
176
     1
 62
   257
176
     1
 90
        1
176
     1
 90
        1
176
     1
 40
1.0
176
     1
 90
        8
176
     1
 62
     7
176
     1
 40
1.0
176
     1
 90
        1
176
     1
 90
        6
176
     1
 90
        2
176
     1
 62
     7
176
     1
 90
        5
176
     1
 90
        0
176
     1
 90
        0
176
     1
290
     0
176
     1
 90
        1
176
     1
 40
-50.0
176
     1
 90
        0
176
     1
290
     0
176
     1
290
     1
176
     1
290
     1
176
     1
290
     0
176
     1
290
     0
176
     1
290
     0
176
     1
290
     0
176
     1
290
     0
176
     1
290
     0
176
     1
 90
       50
176
     1
 40
0.0
176
     1
 40
1.0
176
     1
 90
        0
176
     1
 62
    18
420
        0
176
     1
 90
       50
176
     1
 90
        3
176
     1
 62
     5
420
      255
176
     1
290
     0
176
     1
 90
       50
176
     1
 90
       50
176
     1
 90
       50
176
     1
290
     0
176
     1
 90
       50
176
     1
 62
   256
176
     0
 40
1.0
176
     0
 90
        2
176
     1
  1
strokes_ogs.tif
176
     1
290
     0
176
     1
 40
1.0
176
     1
 40
1.0
176
     1
  0
VISUALSTYLE
  5
3D
102
{ACAD_REACTORS
330
2A
102
}
330
2A
100
AcDbVisualStyle
  2
EdgeColorOff
 70
    22
177
     3
291
     1
 70
    58
 90
        2
176
     0
 90
        2
176
     0
 90
        0
176
     0
 90
        0
176
     0
 40
0.6
176
     0
 40
30.0
176
     0
 62
     7
420
 16777215
176
     0
 90
        1
176
     0
 90
        4
176
     0
 62
     7
176
     0
 62
   257
176
     0
 90
        1
176
     0
 90
        1
176
     0
 40
1.0
176
     0
 90
        8
176
     2
 62
     7
176
     0
 40
1.0
176
     0
 90
        1
176
     0
 90
        6
176
     0
 90
        2
176
     0
 62
     7
176
     0
 90
        5
176
     0
 90
        0
176
     0
 90
        0
176
     0
290
     0
176
     0
 90
        1
176
     0
 40
0.0
176
     0
 90
        0
176
     0
290
     0
176
     0
290
     1
176
     0
290
     1
176
     0
290
     0
176
     0
290
     0
176
     0
290
     0
176
     0
290
     0
176
     0
290
     0
176
     0
290
     0
176
     0
 90
       50
176
     0
 40
0.0
176
     0
 40
1.0
176
     0
 90
        0
176
     0
 62
    18
420
        0
176
     0
 90
       50
176
     0
 90
        3
176
     0
 62
     5
420
      255
176
     0
290
     0
176
     0
 90
       50
176
     0
 90
       50
176
     0
 90
       50
176
     0
290
     0
176
     0
 90
       50
176
     0
 62
   256
176
     0
 40
1.0
176
     0
 90
        2
176
     0
  1
strokes_ogs.tif
176
     0
290
     0
176
     0
 40
1.0
176
     0
 40
1.0
176
     0
  0
VISUALSTYLE
  5
39
102
{ACAD_REACTORS
330
2A
102
}
330
2A
100
AcDbVisualStyle
  2
Facepattern
 70
    15
177
     3
291
     1
 70
    58
 90
        2
176
     1
 90
        2
176
     1
 90
        0
176
     1
 90
        0
176
     1
 40
0.6
176
     1
 40
30.0
176
     1
 62
     7
420
 16777215
176
     1
 90
        1
176
     1
 90
        4
176
     1
 62
     7
176
     1
 62
   257
176
     1
 90
        1
176
     1
 90
        1
176
     1
 40
1.0
176
     1
 90
        8
176
     1
 62
     7
176
     1
 40
1.0
176
     1
 90
        1
176
     1
 90
        6
176
     1
 90
        2
176
     1
 62
     7
176
     1
 90
        5
176
     1
 90
        0
176
     1
 90
        0
176
     1
290
     0
176
     1
 90
        1
176
     1
 40
0.0
176
     1
 90
        0
176
     1
290
     0
176
     1
290
     1
176
     1
290
     1
176
     1
290
     0
176
     1
290
     0
176
     1
290
     0
176
     1
290
     0
176
     1
290
     0
176
     1
290
     0
176
     1
 90
       50
176
     1
 40
0.0
176
     1
 40
1.0
176
     1
 90
        0
176
     1
 62
    18
420
        0
176
     1
 90
       50
176
     1
 90
        3
176
     1
 62
     5
420
      255
176
     1
290
     0
176
     1
 90
       50
176
     1
 90
       50
176
     1
 90
       50
176
     1
290
     0
176
     1
 90
       50
176
     1
 62
   256
176
     0
 40
1.0
176
     0
 90
        2
176
     1
  1
strokes_ogs.tif
176
     1
290
     0
176
     1
 40
1.0
176
     1
 40
1.0
176
     1
  0
VISUALSTYLE
  5
2B
102
{ACAD_REACTORS
330
2A
102
}
330
2A
100
AcDbVisualStyle
  2
Flat
 70
     0
177
     3
291
     1
 70
    58
 90
        2
176
     1
 90
        1
176
     1
 90
        1
176
     1
 90
        2
176
     1
 40
0.6
176
     1
 40
30.0
176
     1
 62
     7
420
 16777215
176
     1
 90
        0
176
     1
 90
        0
176
     1
 62
     7
176
     1
 62
   257
176
     1
 90
        1
176
     1
 90
        1
176
     1
 40
1.0
176
     1
 90
        8
176
     1
 62
     7
176
     1
 40
1.0
176
     1
 90
        1
176
     1
 90
        6
176
     1
 90
        2
176
     1
 62
     7
176
     1
 90
        5
176
     1
 90
        0
176
     1
 90
        0
176
     1
290
     0
176
     1
 90
       13
176
     1
 40
0.0
176
     1
 90
        0
176
     1
290
     0
176
     1
290
     1
176
     1
290
     1
176
     1
290
     0
176
     1
290
     0
176
     1
290
     0
176
     1
290
     0
176
     1
290
     0
176
     1
290
     0
176
     1
 90
       50
176
     1
 40
0.0
176
     1
 40
1.0
176
     1
 90
        0
176
     1
 62
    18
420
        0
176
     1
 90
       50
176
     1
 90
        3
176
     1
 62
     5
420
      255
176
     1
290
     0
176
     1
 90
       50
176
     1
 90
       50
176
     1
 90
       50
176
     1
290
     0
176
     1
 90
       50
176
     1
 62
   256
176
     0
 40
1.0
176
     0
 90
        2
176
     1
  1
strokes_ogs.tif
176
     1
290
     0
176
     1
 40
1.0
176
     1
 40
1.0
176
     1
  0
VISUALSTYLE
  5
2C
102
{ACAD_REACTORS
330
2A
102
}
330
2A
100
AcDbVisualStyle
  2
FlatWithEdges
 70
     1
177
     3
291
     1
 70
    58
 90
        2
176
     1
 90
        1
176
     1
 90
        1
176
     1
 90
        2
176
     1
 40
0.6
176
     1
 40
30.0
176
     1
 62
     7
420
 16777215
176
     1
 90
        1
176
     1
 90
        0
176
     1
 62
     7
176
     1
 62
   257
176
     1
 90
        1
176
     1
 90
        1
176
     1
 40
1.0
176
     1
 90
        0
176
     1
 62
   257
176
     1
 40
1.0
176
     1
 90
        1
176
     1
 90
        6
176
     1
 90
        2
176
     1
 62
     7
176
     1
 90
        5
176
     1
 90
        0
176
     1
 90
        0
176
     1
290
     0
176
     1
 90
       13
176
     1
 40
0.0
176
     1
 90
        0
176
     1
290
     0
176
     1
290
     1
176
     1
290
     1
176
     1
290
     0
176
     1
290
     0
176
     1
290
     0
176
     1
290
     0
176
     1
290
     0
176
     1
290
     0
176
     1
 90
       50
176
     1
 40
0.0
176
     1
 40
1.0
176
     1
 90
        0
176
     1
 62
    18
420
        0
176
     1
 90
       50
176
     1
 90
        3
176
     1
 62
     5
420
      255
176
     1
290
     0
176
     1
 90
       50
176
     1
 90
       50
176
     1
 90
       50
176
     1
290
     0
176
     1
 90
       50
176
     1
 62
   256
176
     0
 40
1.0
176
     0
 90
        2
176
     1
  1
strokes_ogs.tif
176
     1
290
     0
176
     1
 40
1.0
176
     1
 40
1.0
176
     1
  0
VISUALSTYLE
  5
2D
102
{ACAD_REACTORS
330
2A
102
}
330
2A
100
AcDbVisualStyle
  2
Gouraud
 70
     2
177
     3
291
     1
 70
    58
 90
        2
176
     1
 90
        2
176
     1
 90
        1
176
     1
 90
        2
176
     1
 40
0.6
176
     1
 40
30.0
176
     1
 62
     7
420
 16777215
176
     1
 90
        0
176
     1
 90
        0
176
     1
 62
     7
176
     1
 62
   257
176
     1
 90
        1
176
     1
 90
        1
176
     1
 40
1.0
176
     1
 90
        0
176
     1
 62
     7
176
     1
 40
1.0
176
     1
 90
        1
176
     1
 90
        6
176
     1
 90
        2
176
     1
 62
     7
176
     1
 90
        5
176
     1
 90
        0
176
     1
 90
        0
176
     1
290
     0
176
     1
 90
       13
176
     1
 40
0.0
176
     1
 90
        0
176
     1
290
     0
176
     1
290
     1
176
     1
290
     1
176
     1
290
     0
176
     1
290
     0
176
     1
290
     0
176
     1
290
     0
176
     1
290
     0
176
     1
290
     0
176
     1
 90
       50
176
     1
 40
0.0
176
     1
 40
1.0
176
     1
 90
        0
176
     1
 62
    18
420
        0
176
     1
 90
       50
176
     1
 90
        3
176
     1
 62
     5
420
      255
176
     1
290
     0
176
     1
 90
       50
176
     1
 90
       50
176
     1
 90
       50
176
     1
290
     0
176
     1
 90
       50
176
     1
 62
   256
176
     0
 40
1.0
176
     0
 90
        2
176
     1
  1
strokes_ogs.tif
176
     1
290
     0
176
     1
 40
1.0
176
     1
 40
1.0
176
     1
  0
VISUALSTYLE
  5
2E
102
{ACAD_REACTORS
330
2A
102
}
330
2A
100
AcDbVisualStyle
  2
GouraudWithEdges
 70
     3
177
     3
291
     1
 70
    58
 90
        2
176
     1
 90
        2
176
     1
 90
        1
176
     1
 90
        2
176
     1
 40
0.6
176
     1
 40
30.0
176
     1
 62
     7
420
 16777215
176
     1
 90
        1
176
     1
 90
        0
176
     1
 62
     7
176
     1
 62
   257
176
     1
 90
        1
176
     1
 90
        1
176
     1
 40
1.0
176
     1
 90
        0
176
     1
 62
   257
176
     1
 40
1.0
176
     1
 90
        1
176
     1
 90
        6
176
     1
 90
        2
176
     1
 62
     7
176
     1
 90
        5
176
     1
 90
        0
176
     1
 90
        0
176
     1
290
     0
176
     1
 90
       13
176
     1
 40
0.0
176
     1
 90
        0
176
     1
290
     0
176
     1
290
     1
176
     1
290
     1
176
     1
290
     0
176
     1
290
     0
176
     1
290
     0
176
     1
290
     0
176
     1
290
     0
176
     1
290
     0
176
     1
 90
       50
176
     1
 40
0.0
176
     1
 40
1.0
176
     1
 90
        0
176
     1
 62
    18
420
        0
176
     1
 90
       50
176
     1
 90
        3
176
     1
 62
     5
420
      255
176
     1
290
     0
176
     1
 90
       50
176
     1
 90
       50
176
     1
 90
       50
176
     1
290
     0
176
     1
 90
       50
176
     1
 62
   256
176
     0
 40
1.0
176
     0
 90
        2
176
     1
  1
strokes_ogs.tif
176
     1
290
     0
176
     1
 40
1.0
176
     1
 40
1.0
176
     1
  0
VISUALSTYLE
  5
31
102
{ACAD_REACTORS
330
2A
102
}
330
2A
100
AcDbVisualStyle
  2
Hidden
 70
     6
177
     3
291
     0
 70
    58
 90
        1
176
     1
 90
        2
176
     1
 90
        2
176
     1
 90
        0
176
     1
 40
0.6
176
     1
 40
30.0
176
     1
 62
     7
420
 16777215
176
     1
 90
        2
176
     1
 90
        2
176
     1
 62
     7
176
     1
 62
   257
176
     1
 90
        2
176
     1
 90
        1
176
     1
 40
40.0
176
     1
 90
        0
176
     1
 62
   257
176
     1
 40
1.0
176
     1
 90
        1
176
     1
 90
        6
176
     1
 90
        2
176
     1
 62
     7
176
     1
 90
        3
176
     1
 90
        0
176
     1
 90
        0
176
     1
290
     0
176
     1
 90
        1
176
     1
 40
0.0
176
     1
 90
        0
176
     1
290
     0
176
     1
290
     1
176
     1
290
     1
176
     1
290
     0
176
     1
290
     0
176
     1
290
     0
176
     1
290
     0
176
     1
290
     0
176
     1
290
     0
176
     1
 90
       50
176
     1
 40
0.0
176
     1
 40
1.0
176
     1
 90
        0
176
     1
 62
    18
420
        0
176
     1
 90
       50
176
     1
 90
        3
176
     1
 62
     5
420
      255
176
     1
290
     0
176
     1
 90
       50
176
     1
 90
       50
176
     1
 90
       50
176
     1
290
     0
176
     1
 90
       50
176
     1
 62
   256
176
     0
 40
1.0
176
     0
 90
        2
176
     1
  1
strokes_ogs.tif
176
     1
290
     0
176
     1
 40
1.0
176
     1
 40
1.0
176
     1
  0
VISUALSTYLE
  5
3B
102
{ACAD_REACTORS
330
2A
102
}
330
2A
100
AcDbVisualStyle
  2
JitterOff
 70
    20
177
     3
291
     1
 70
    58
 90
        2
176
     0
 90
        2
176
     0
 90
        0
176
     0
 90
        0
176
     0
 40
0.6
176
     0
 40
30.0
176
     0
 62
     7
420
 16777215
176
     0
 90
        1
176
     0
 90
        4
176
     0
 62
     7
176
     0
 62
   257
176
     0
 90
        1
176
     0
 90
        1
176
     0
 40
1.0
176
     0
 90
       10
176
     2
 62
     7
176
     0
 40
1.0
176
     0
 90
        1
176
     0
 90
        6
176
     0
 90
        2
176
     0
 62
     7
176
     0
 90
        5
176
     0
 90
        0
176
     0
 90
        0
176
     0
290
     0
176
     0
 90
        1
176
     0
 40
0.0
176
     0
 90
        0
176
     0
290
     0
176
     0
290
     1
176
     0
290
     1
176
     0
290
     0
176
     0
290
     0
176
     0
290
     0
176
     0
290
     0
176
     0
290
     0
176
     0
290
     0
176
     0
 90
       50
176
     0
 40
0.0
176
     0
 40
1.0
176
     0
 90
        0
176
     0
 62
    18
420
        0
176
     0
 90
       50
176
     0
 90
        3
176
     0
 62
     5
420
      255
176
     0
290
     0
176
     0
 90
       50
176
     0
 90
       50
176
     0
 90
       50
176
     0
290
     0
176
     0
 90
       50
176
     0
 62
   256
176
     0
 40
1.0
176
     0
 90
        2
176
     0
  1
strokes_ogs.tif
176
     0
290
     0
176
     0
 40
1.0
176
     0
 40
1.0
176
     0
  0
VISUALSTYLE
  5
38
102
{ACAD_REACTORS
330
2A
102
}
330
2A
100
AcDbVisualStyle
  2
Linepattern
 70
    14
177
     3
291
     1
 70
    58
 90
        2
176
     1
 90
        2
176
     1
 90
        0
176
     1
 90
        0
176
     1
 40
0.6
176
     1
 40
30.0
176
     1
 62
     7
420
 16777215
176
     1
 90
        1
176
     1
 90
        4
176
     1
 62
     7
176
     1
 62
   257
176
     1
 90
        7
176
     1
 90
        7
176
     1
 40
1.0
176
     1
 90
        8
176
     1
 62
     7
176
     1
 40
1.0
176
     1
 90
        1
176
     1
 90
        6
176
     1
 90
        2
176
     1
 62
     7
176
     1
 90
        5
176
     1
 90
        0
176
     1
 90
        0
176
     1
290
     0
176
     1
 90
        1
176
     1
 40
0.0
176
     1
 90
        0
176
     1
290
     0
176
     1
290
     1
176
     1
290
     1
176
     1
290
     0
176
     1
290
     0
176
     1
290
     0
176
     1
290
     0
176
     1
290
     0
176
     1
290
     0
176
     1
 90
       50
176
     1
 40
0.0
176
     1
 40
1.0
176
     1
 90
        0
176
     1
 62
    18
420
        0
176
     1
 90
       50
176
     1
 90
        3
176
     1
 62
     5
420
      255
176
     1
290
     0
176
     1
 90
       50
176
     1
 90
       50
176
     1
 90
       50
176
     1
290
     0
176
     1
 90
       50
176
     1
 62
   256
176
     0
 40
1.0
176
     0
 90
        2
176
     1
  1
strokes_ogs.tif
176
     1
290
     0
176
     1
 40
1.0
176
     1
 40
1.0
176
     1
  0
VISUALSTYLE
  5
3C
102
{ACAD_REACTORS
330
2A
102
}
330
2A
100
AcDbVisualStyle
  2
OverhangOff
 70
    21
177
     3
291
     1
 70
    58
 90
        2
176
     0
 90
        2
176
     0
 90
        0
176
     0
 90
        0
176
     0
 40
0.6
176
     0
 40
30.0
176
     0
 62
     7
420
 16777215
176
     0
 90
        1
176
     0
 90
        4
176
     0
 62
     7
176
     0
 62
   257
176
     0
 90
        1
176
     0
 90
        1
176
     0
 40
1.0
176
     0
 90
        9
176
     2
 62
     7
176
     0
 40
1.0
176
     0
 90
        1
176
     0
 90
        6
176
     0
 90
        2
176
     0
 62
     7
176
     0
 90
        5
176
     0
 90
        0
176
     0
 90
        0
176
     0
290
     0
176
     0
 90
        1
176
     0
 40
0.0
176
     0
 90
        0
176
     0
290
     0
176
     0
290
     1
176
     0
290
     1
176
     0
290
     0
176
     0
290
     0
176
     0
290
     0
176
     0
290
     0
176
     0
290
     0
176
     0
290
     0
176
     0
 90
       50
176
     0
 40
0.0
176
     0
 40
1.0
176
     0
 90
        0
176
     0
 62
    18
420
        0
176
     0
 90
       50
176
     0
 90
        3
176
     0
 62
     5
420
      255
176
     0
290
     0
176
     0
 90
       50
176
     0
 90
       50
176
     0
 90
       50
176
     0
290
     0
176
     0
 90
       50
176
     0
 62
   256
176
     0
 40
1.0
176
     0
 90
        2
176
     0
  1
strokes_ogs.tif
176
     0
290
     0
176
     0
 40
1.0
176
     0
 40
1.0
176
     0
  0
VISUALSTYLE
  5
33
102
{ACAD_REACTORS
330
2A
102
}
330
2A
100
AcDbVisualStyle
  2
Realistic
 70
     8
177
     3
291
     0
 70
    58
 90
        2
176
     1
 90
        3
176
     1
 90
        0
176
     1
 90
        2
176
     1
 40
0.6
176
     1
 40
30.0
176
     1
 62
     7
420
 16777215
176
     1
 90
        0
176
     1
 90
        0
176
     1
 62
     7
176
     1
 62
   257
176
     1
 90
        1
176
     1
 90
        1
176
     1
 40
1.0
176
     1
 90
        8
176
     1
 62
   257
176
     1
 40
1.0
176
     1
 90
        1
176
     1
 90
        6
176
     1
 90
        2
176
     1
 62
     7
176
     1
 90
        3
176
     1
 90
        0
176
     1
 90
        0
176
     1
290
     0
176
     1
 90
       13
176
     1
 40
0.0
176
     1
 90
        0
176
     1
290
     0
176
     1
290
     1
176
     1
290
     1
176
     1
290
     0
176
     1
290
     0
176
     1
290
     0
176
     1
290
     0
176
     1
290
     0
176
     1
290
     0
176
     1
 90
       50
176
     1
 40
0.0
176
     1
 40
1.0
176
     1
 90
        0
176
     1
 62
    18
420
        0
176
     1
 90
       50
176
     1
 90
        3
176
     1
 62
     5
420
      255
176
     1
290
     0
176
     1
 90
       50
176
     1
 90
       50
176
     1
 90
       50
176
     1
290
     0
176
     1
 90
       50
176
     1
 62
   256
176
     0
 40
1.0
176
     0
 90
        2
176
     1
  1
strokes_ogs.tif
176
     1
290
     0
176
     1
 40
1.0
176
     1
 40
1.0
176
     1
  0
VISUALSTYLE
  5
42
102
{ACAD_REACTORS
330
2A
102
}
330
2A
100
AcDbVisualStyle
  2
Shaded
 70
    27
177
     3
291
     0
 70
    58
 90
        2
176
     1
 90
        2
176
     1
 90
        1
176
     1
 90
        2
176
     1
 40
0.6
176
     1
 40
30.0
176
     1
 62
     7
420
 16777215
176
     1
 90
        0
176
     1
 90
        4
176
     1
 62
     7
176
     1
 62
   257
176
     1
 90
        1
176
     1
 90
        1
176
     1
 40
1.0
176
     1
 90
        8
176
     1
 62
   257
176
     1
 40
1.0
176
     1
 90
        1
176
     1
 90
        6
176
     1
 90
        2
176
     1
 62
     8
420
  7895160
176
     1
 90
        3
176
     1
 90
        0
176
     1
 90
        0
176
     1
290
     0
176
     1
 90
        5
176
     1
 40
0.0
176
     1
 90
        0
176
     1
290
     0
176
     1
290
     1
176
     1
290
     1
176
     1
290
     0
176
     1
290
     0
176
     1
290
     0
176
     1
290
     0
176
     1
290
     0
176
     1
290
     0
176
     1
 90
       50
176
     1
 40
0.0
176
     1
 40
1.0
176
     1
 90
        0
176
     1
 62
    18
420
        0
176
     1
 90
       50
176
     1
 90
        3
176
     1
 62
     5
420
      255
176
     1
290
     0
176
     1
 90
       50
176
     1
 90
       50
176
     1
 90
       50
176
     1
290
     0
176
     1
 90
       50
176
     1
 62
   256
176
     0
 40
1.0
176
     0
 90
        2
176
     1
  1
strokes_ogs.tif
176
     1
290
     0
176
     1
 40
1.0
176
     1
 40
1.0
176
     1
  0
VISUALSTYLE
  5
41
102
{ACAD_REACTORS
330
2A
102
}
330
2A
100
AcDbVisualStyle
  2
Shaded with edges
 70
    26
177
     3
291
     0
 70
    58
 90
        2
176
     1
 90
        2
176
     1
 90
        1
176
     1
 90
        2
176
     1
 40
0.6
176
     1
 40
30.0
176
     1
 62
     7
420
 16777215
176
     1
 90
        1
176
     1
 90
       10
176
     1
 62
     7
176
     1
 62
   257
176
     1
 90
        2
176
     1
 90
        1
176
     1
 40
1.0
176
     1
 90
        8
176
     1
 62
   257
176
     1
 40
1.0
176
     1
 90
        1
176
     1
 90
        6
176
     1
 90
        2
176
     1
 62
     7
176
     1
 90
        3
176
     1
 90
        0
176
     1
 90
        0
176
     1
290
     0
176
     1
 90
        5
176
     1
 40
0.0
176
     1
 90
        0
176
     1
290
     0
176
     1
290
     1
176
     1
290
     1
176
     1
290
     0
176
     1
290
     0
176
     1
290
     0
176
     1
290
     0
176
     1
290
     0
176
     1
290
     0
176
     1
 90
       50
176
     1
 40
0.0
176
     1
 40
1.0
176
     1
 90
        0
176
     1
 62
    18
420
        0
176
     1
 90
       50
176
     1
 90
        3
176
     1
 62
     5
420
      255
176
     1
290
     0
176
     1
 90
       50
176
     1
 90
       50
176
     1
 90
       50
176
     1
290
     0
176
     1
 90
       50
176
     1
 62
   256
176
     0
 40
1.0
176
     0
 90
        2
176
     1
  1
strokes_ogs.tif
176
     1
290
     0
176
     1
 40
1.0
176
     1
 40
1.0
176
     1
  0
VISUALSTYLE
  5
3E
102
{ACAD_REACTORS
330
2A
102
}
330
2A
100
AcDbVisualStyle
  2
Shades of Gray
 70
    23
177
     3
291
     0
 70
    58
 90
        2
176
     1
 90
        2
176
     1
 90
        3
176
     1
 90
        0
176
     1
 40
0.6
176
     1
 40
30.0
176
     1
 62
     7
420
 16777215
176
     1
 90
        2
176
     1
 90
        2
176
     1
 62
     7
176
     1
 62
     7
176
     1
 90
        1
176
     1
 90
        1
176
     1
 40
40.0
176
     1
 90
        8
176
     1
 62
     7
176
     1
 40
1.0
176
     1
 90
        1
176
     1
 90
        6
176
     1
 90
        2
176
     1
 62
     7
176
     1
 90
        3
176
     1
 90
        0
176
     1
 90
        0
176
     1
290
     0
176
     1
 90
        1
176
     1
 40
0.0
176
     1
 90
        0
176
     1
290
     0
176
     1
290
     1
176
     1
290
     1
176
     1
290
     0
176
     1
290
     0
176
     1
290
     0
176
     1
290
     0
176
     1
290
     0
176
     1
290
     0
176
     1
 90
       50
176
     1
 40
0.0
176
     1
 40
1.0
176
     1
 90
        0
176
     1
 62
    18
420
        0
176
     1
 90
       50
176
     1
 90
        3
176
     1
 62
     5
420
      255
176
     1
290
     0
176
     1
 90
       50
176
     1
 90
       50
176
     1
 90
       50
176
     1
290
     0
176
     1
 90
       50
176
     1
 62
   256
176
     0
 40
1.0
176
     0
 90
        2
176
     1
  1
strokes_ogs.tif
176
     1
290
     0
176
     1
 40
1.0
176
     1
 40
1.0
176
     1
  0
VISUALSTYLE
  5
3F
102
{ACAD_REACTORS
330
2A
102
}
330
2A
100
AcDbVisualStyle
  2
Sketchy
 70
    24
177
     3
291
     0
 70
    58
 90
        1
176
     1
 90
        2
176
     1
 90
        2
176
     1
 90
        0
176
     1
 40
0.6
176
     1
 40
30.0
176
     1
 62
     7
420
 16777215
176
     1
 90
        2
176
     1
 90
        2
176
     1
 62
     7
176
     1
 62
     7
176
     1
 90
        1
176
     1
 90
        1
176
     1
 40
40.0
176
     1
 90
       11
176
     1
 62
     7
176
     1
 40
1.0
176
     1
 90
        1
176
     1
 90
        6
176
     1
 90
        2
176
     1
 62
     7
176
     1
 90
        6
176
     1
 90
        0
176
     1
 90
        0
176
     1
290
     0
176
     1
 90
        1
176
     1
 40
0.0
176
     1
 90
        0
176
     1
290
     0
176
     1
290
     1
176
     1
290
     1
176
     1
290
     0
176
     1
290
     0
176
     1
290
     0
176
     1
290
     0
176
     1
290
     0
176
     1
290
     0
176
     1
 90
       50
176
     1
 40
0.0
176
     1
 40
1.0
176
     1
 90
        0
176
     1
 62
    18
420
        0
176
     1
 90
       50
176
     1
 90
        3
176
     1
 62
     5
420
      255
176
     1
290
     0
176
     1
 90
       50
176
     1
 90
       50
176
     1
 90
       50
176
     1
290
     0
176
     1
 90
       50
176
     1
 62
   256
176
     0
 40
1.0
176
     0
 90
        2
176
     1
  1
strokes_ogs.tif
176
     1
290
     0
176
     1
 40
1.0
176
     1
 40
1.0
176
     1
  0
VISUALSTYLE
  5
37
102
{ACAD_REACTORS
330
2A
102
}
330
2A
100
AcDbVisualStyle
  2
Thicken
 70
    13
177
     3
291
     1
 70
    58
 90
        2
176
     1
 90
        2
176
     1
 90
        0
176
     1
 90
        0
176
     1
 40
0.6
176
     1
 40
30.0
176
     1
 62
     7
420
 16777215
176
     1
 90
        1
176
     1
 90
        4
176
     1
 62
     7
176
     1
 62
   257
176
     1
 90
        1
176
     1
 90
        1
176
     1
 40
1.0
176
     1
 90
       12
176
     1
 62
     7
176
     1
 40
1.0
176
     1
 90
        1
176
     1
 90
        6
176
     1
 90
        2
176
     1
 62
     7
176
     1
 90
        5
176
     1
 90
        0
176
     1
 90
        0
176
     1
290
     0
176
     1
 90
        1
176
     1
 40
0.0
176
     1
 90
        0
176
     1
290
     0
176
     1
290
     1
176
     1
290
     1
176
     1
290
     0
176
     1
290
     0
176
     1
290
     0
176
     1
290
     0
176
     1
290
     0
176
     1
290
     0
176
     1
 90
       50
176
     1
 40
0.0
176
     1
 40
1.0
176
     1
 90
        0
176
     1
 62
    18
420
        0
176
     1
 90
       50
176
     1
 90
        3
176
     1
 62
     5
420
      255
176
     1
290
     0
176
     1
 90
       50
176
     1
 90
       50
176
     1
 90
       50
176
     1
290
     0
176
     1
 90
       50
176
     1
 62
   256
176
     0
 40
1.0
176
     0
 90
        2
176
     1
  1
strokes_ogs.tif
176
     1
290
     0
176
     1
 40
1.0
176
     1
 40
1.0
176
     1
  0
VISUALSTYLE
  5
30
102
{ACAD_REACTORS
330
2A
102
}
330
2A
100
AcDbVisualStyle
  2
Wireframe
 70
     5
177
     3
291
     0
 70
    58
 90
        0
176
     1
 90
        2
176
     1
 90
        0
176
     1
 90
        0
176
     1
 40
0.6
176
     1
 40
30.0
176
     1
 62
     7
420
 16777215
176
     1
 90
        1
176
     1
 90
        4
176
     1
 62
     7
176
     1
 62
   257
176
     1
 90
        1
176
     1
 90
        1
176
     1
 40
1.0
176
     1
 90
        0
176
     1
 62
   257
176
     1
 40
1.0
176
     1
 90
        1
176
     1
 90
        6
176
     1
 90
        2
176
     1
 62
     7
176
     1
 90
        3
176
     1
 90
        0
176
     1
 90
        0
176
     1
290
     0
176
     1
 90
        1
176
     1
 40
0.0
176
     1
 90
        0
176
     1
290
     0
176
     1
290
     1
176
     1
290
     1
176
     1
290
     0
176
     1
290
     0
176
     1
290
     0
176
     1
290
     0
176
     1
290
     0
176
     1
290
     0
176
     1
 90
       50
176
     1
 40
0.0
176
     1
 40
1.0
176
     1
 90
        0
176
     1
 62
    18
420
        0
176
     1
 90
       50
176
     1
 90
        3
176
     1
 62
     5
420
      255
176
     1
290
     0
176
     1
 90
       50
176
     1
 90
       50
176
     1
 90
       50
176
     1
290
     0
176
     1
 90
       50
176
     1
 62
   256
176
     0
 40
1.0
176
     0
 90
        2
176
     1
  1
strokes_ogs.tif
176
     1
290
     0
176
     1
 40
1.0
176
     1
 40
1.0
176
     1
  0
VISUALSTYLE
  5
40
102
{ACAD_REACTORS
330
2A
102
}
330
2A
100
AcDbVisualStyle
  2
X-Ray
 70
    25
177
     3
291
     0
 70
    58
 90
        2
176
     1
 90
        2
176
     1
 90
        1
176
     1
 90
        1
176
     1
 40
0.5
176
     1
 40
30.0
176
     1
 62
     7
420
 16777215
176
     1
 90
        1
176
     1
 90
        0
176
     1
 62
     7
176
     1
 62
   257
176
     1
 90
        1
176
     1
 90
        1
176
     1
 40
1.0
176
     1
 90
        8
176
     1
 62
     7
176
     1
 40
1.0
176
     1
 90
        1
176
     1
 90
        6
176
     1
 90
        2
176
     1
 62
     7
176
     1
 90
        3
176
     1
 90
        0
176
     1
 90
        0
176
     1
290
     0
176
     1
 90
       13
176
     1
 40
0.0
176
     1
 90
        0
176
     1
290
     0
176
     1
290
     1
176
     1
290
     1
176
     1
290
     0
176
     1
290
     0
176
     1
290
     0
176
     1
290
     0
176
     1
290
     0
176
     1
290
     0
176
     1
 90
       50
176
     1
 40
0.0
176
     1
 40
1.0
176
     1
 90
        0
176
     1
 62
    18
420
        0
176
     1
 90
       50
176
     1
 90
        3
176
     1
 62
     5
420
      255
176
     1
290
     0
176
     1
 90
       50
176
     1
 90
       50
176
     1
 90
       50
176
     1
290
     0
176
     1
 90
       50
176
     1
 62
   256
176
     0
 40
1.0
176
     0
 90
        2
176
     1
  1
strokes_ogs.tif
176
     1
290
     0
176
     1
 40
1.0
176
     1
 40
1.0
176
     1
  0
DICTIONARYVAR
  5
110
102
{ACAD_REACTORS
330
10F
102
}
330
10F
100
DictionaryVariables
280
     0
  1
1:1
  0
DICTIONARYVAR
  5
118
102
{ACAD_REACTORS
330
10F
102
}
330
10F
100
DictionaryVariables
280
     0
  1
3.500000
  0
DICTIONARYVAR
  5
119
102
{ACAD_REACTORS
330
10F
102
}
330
10F
100
DictionaryVariables
280
     0
  1
acadiso.lin
  0
DICTIONARYVAR
  5
115
102
{ACAD_REACTORS
330
10F
102
}
330
10F
100
DictionaryVariables
280
     0
  1
Standard
  0
DICTIONARYVAR
  5
114
102
{ACAD_REACTORS
330
10F
102
}
330
10F
100
DictionaryVariables
280
     0
  1
Standard
  0
DICTIONARY
  5
111
330
5A
100
AcDbDictionary
280
     1
281
     1
  3
ACAD_ROUNDTRIP_2008_TABLESTYLE_CELLSTYLEMAP
360
112
  0
CELLSTYLEMAP
  5
112
102
{ACAD_REACTORS
330
111
102
}
330
111
100
AcDbCellStyleMap
 90
        3
300
CELLSTYLE
  1
TABLEFORMAT_BEGIN
 90
        5
170
     1
 91
        0
 92
    32768
 62
   257
 93
        1
300
CONTENTFORMAT
  1
CONTENTFORMAT_BEGIN
 90
        0
 91
        0
 92
        4
 93
        0
300

 40
0.0
140
1.0
 94
        5
 62
     0
340
11
144
6.0
309
CONTENTFORMAT_END
171
     1
301
MARGIN
  1
CELLMARGIN_BEGIN
 40
1.5
 40
1.5
 40
1.5
 40
1.5
 40
1.5
 40
1.5
309
CELLMARGIN_END
 94
        6
 95
        1
302
GRIDFORMAT
  1
GRIDFORMAT_BEGIN
 90
        0
 91
        1
 62
     0
 92
       -2
340
14
 93
        0
 40
0.045
309
GRIDFORMAT_END
 95
        2
302
GRIDFORMAT
  1
GRIDFORMAT_BEGIN
 90
        0
 91
        1
 62
     0
 92
       -2
340
14
 93
        0
 40
0.045
309
GRIDFORMAT_END
 95
        4
302
GRIDFORMAT
  1
GRIDFORMAT_BEGIN
 90
        0
 91
        1
 62
     0
 92
       -2
340
14
 93
        0
 40
0.045
309
GRIDFORMAT_END
 95
        8
302
GRIDFORMAT
  1
GRIDFORMAT_BEGIN
 90
        0
 91
        1
 62
     0
 92
       -2
340
14
 93
        0
 40
0.045
309
GRIDFORMAT_END
 95
       16
302
GRIDFORMAT
  1
GRIDFORMAT_BEGIN
 90
        0
 91
        1
 62
     0
 92
       -2
340
14
 93
        0
 40
0.045
309
GRIDFORMAT_END
 95
       32
302
GRIDFORMAT
  1
GRIDFORMAT_BEGIN
 90
        0
 91
        1
 62
     0
 92
       -2
340
14
 93
        0
 40
0.045
309
GRIDFORMAT_END
309
TABLEFORMAT_END
  1
CELLSTYLE_BEGIN
 90
        1
 91
        1
300
_TITLE
309
CELLSTYLE_END
300
CELLSTYLE
  1
TABLEFORMAT_BEGIN
 90
        5
170
     1
 91
        0
 92
        0
 62
   257
 93
        1
300
CONTENTFORMAT
  1
CONTENTFORMAT_BEGIN
 90
        0
 91
        0
 92
        4
 93
        0
300

 40
0.0
140
1.0
 94
        5
 62
     0
340
11
144
4.5
309
CONTENTFORMAT_END
171
     1
301
MARGIN
  1
CELLMARGIN_BEGIN
 40
1.5
 40
1.5
 40
1.5
 40
1.5
 40
1.5
 40
1.5
309
CELLMARGIN_END
 94
        6
 95
        1
302
GRIDFORMAT
  1
GRIDFORMAT_BEGIN
 90
        0
 91
        1
 62
     0
 92
       -2
340
14
 93
        0
 40
0.045
309
GRIDFORMAT_END
 95
        2
302
GRIDFORMAT
  1
GRIDFORMAT_BEGIN
 90
        0
 91
        1
 62
     0
 92
       -2
340
14
 93
        0
 40
0.045
309
GRIDFORMAT_END
 95
        4
302
GRIDFORMAT
  1
GRIDFORMAT_BEGIN
 90
        0
 91
        1
 62
     0
 92
       -2
340
14
 93
        0
 40
0.045
309
GRIDFORMAT_END
 95
        8
302
GRIDFORMAT
  1
GRIDFORMAT_BEGIN
 90
        0
 91
        1
 62
     0
 92
       -2
340
14
 93
        0
 40
0.045
309
GRIDFORMAT_END
 95
       16
302
GRIDFORMAT
  1
GRIDFORMAT_BEGIN
 90
        0
 91
        1
 62
     0
 92
       -2
340
14
 93
        0
 40
0.045
309
GRIDFORMAT_END
 95
       32
302
GRIDFORMAT
  1
GRIDFORMAT_BEGIN
 90
        0
 91
        1
 62
     0
 92
       -2
340
14
 93
        0
 40
0.045
309
GRIDFORMAT_END
309
TABLEFORMAT_END
  1
CELLSTYLE_BEGIN
 90
        2
 91
        1
300
_HEADER
309
CELLSTYLE_END
300
CELLSTYLE
  1
TABLEFORMAT_BEGIN
 90
        5
170
     1
 91
        0
 92
        0
 62
   257
 93
        1
300
CONTENTFORMAT
  1
CONTENTFORMAT_BEGIN
 90
        0
 91
        0
 92
        4
 93
        0
300

 40
0.0
140
1.0
 94
        2
 62
     0
340
11
144
4.5
309
CONTENTFORMAT_END
171
     1
301
MARGIN
  1
CELLMARGIN_BEGIN
 40
1.5
 40
1.5
 40
1.5
 40
1.5
 40
1.5
 40
1.5
309
CELLMARGIN_END
 94
        6
 95
        1
302
GRIDFORMAT
  1
GRIDFORMAT_BEGIN
 90
        0
 91
        1
 62
     0
 92
       -2
340
14
 93
        0
 40
0.045
309
GRIDFORMAT_END
 95
        2
302
GRIDFORMAT
  1
GRIDFORMAT_BEGIN
 90
        0
 91
        1
 62
     0
 92
       -2
340
14
 93
        0
 40
0.045
309
GRIDFORMAT_END
 95
        4
302
GRIDFORMAT
  1
GRIDFORMAT_BEGIN
 90
        0
 91
        1
 62
     0
 92
       -2
340
14
 93
        0
 40
0.045
309
GRIDFORMAT_END
 95
        8
302
GRIDFORMAT
  1
GRIDFORMAT_BEGIN
 90
        0
 91
        1
 62
     0
 92
       -2
340
14
 93
        0
 40
0.045
309
GRIDFORMAT_END
 95
       16
302
GRIDFORMAT
  1
GRIDFORMAT_BEGIN
 90
        0
 91
        1
 62
     0
 92
       -2
340
14
 93
        0
 40
0.045
309
GRIDFORMAT_END
 95
       32
302
GRIDFORMAT
  1
GRIDFORMAT_BEGIN
 90
        0
 91
        1
 62
     0
 92
       -2
340
14
 93
        0
 40
0.045
309
GRIDFORMAT_END
309
TABLEFORMAT_END
  1
CELLSTYLE_BEGIN
 90
        3
 91
        2
300
_DATA
309
CELLSTYLE_END
  0
ENDSEC
  0
EOF
