  0
SECTION
  2
HEADER
  9
$ACADVER
  1
AC1027
  9
$ACADMAINTVER
 70
   105
  9
$DWGCODEPAGE
  3
ANSI_1252
  9
$LASTSAVEDBY
  1
Nick
  9
$REQUIREDVERSIONS
160
                 0
  9
$INSBASE
 10
0.0
 20
0.0
 30
0.0
  9
$EXTMIN
 10
0.0
 20
0.0
 30
0.0
  9
$EXTMAX
 10
420.0
 20
297.0
 30
0.0
  9
$LIMMIN
 10
0.0
 20
0.0
  9
$LIMMAX
 10
420.0
 20
297.0
  9
$ORTHOMODE
 70
     0
  9
$REGENMODE
 70
     1
  9
$FILLMODE
 70
     1
  9
$QTEXTMODE
 70
     0
  9
$MIRRTEXT
 70
     1
  9
$LTSCALE
 40
1.0
  9
$ATTMODE
 70
     1
  9
$TEXTSIZE
 40
4.2333333333
  9
$TRACEWID
 40
1.0
  9
$TEXTSTYLE
  7
Standard
  9
$CLAYER
  8
0
  9
$CELTYPE
  6
ByLayer
  9
$CECOLOR
 62
   256
  9
$CELTSCALE
 40
1.0
  9
$DISPSILH
 70
     0
  9
$DIMSCALE
 40
1.0
  9
$DIMASZ
 40
3.302
  9
$DIMEXO
 40
1.0
  9
$DIMDLI
 40
3.75
  9
$DIMRND
 40
0.0
  9
$DIMDLE
 40
0.0
  9
$DIMEXE
 40
1.0
  9
$DIMTP
 40
0.0
  9
$DIMTM
 40
0.0
  9
$DIMTXT
 40
4.2333333333
  9
$DIMCEN
 40
2.5
  9
$DIMTSZ
 40
0.0
  9
$DIMTOL
 70
     0
  9
$DIMLIM
 70
     0
  9
$DIMTIH
 70
     1
  9
$DIMTOH
 70
     1
  9
$DIMSE1
 70
     0
  9
$DIMSE2
 70
     0
  9
$DIMTAD
 70
     1
  9
$DIMZIN
 70
     1
  9
$DIMBLK
  1

  9
$DIMASO
 70
     1
  9
$DIMSHO
 70
     1
  9
$DIMPOST
  1

  9
$DIMAPOST
  1

  9
$DIMALT
 70
     0
  9
$DIMALTD
 70
     3
  9
$DIMALTF
 40
0.0393700787
  9
$DIMLFAC
 40
1.0
  9
$DIMTOFL
 70
     1
  9
$DIMTVP
 40
0.0
  9
$DIMTIX
 70
     0
  9
$DIMSOXD
 70
     0
  9
$DIMSAH
 70
     0
  9
$DIMBLK1
  1

  9
$DIMBLK2
  1

  9
$DIMSTYLE
  2
ISO-25
  9
$DIMCLRD
 70
     0
  9
$DIMCLRE
 70
     0
  9
$DIMCLRT
 70
     0
  9
$DIMTFAC
 40
1.0
  9
$DIMGAP
 40
1.524
  9
$DIMJUST
 70
     0
  9
$DIMSD1
 70
     0
  9
$DIMSD2
 70
     0
  9
$DIMTOLJ
 70
     0
  9
$DIMTZIN
 70
     1
  9
$DIMALTZ
 70
     0
  9
$DIMALTTZ
 70
     0
  9
$DIMUPT
 70
     0
  9
$DIMDEC
 70
     0
  9
$DIMTDEC
 70
     0
  9
$DIMALTU
 70
     2
  9
$DIMALTTD
 70
     3
  9
$DIMTXSTY
  7
Standard
  9
$DIMAUNIT
 70
     0
  9
$DIMADEC
 70
     2
  9
$DIMALTRND
 40
0.0
  9
$DIMAZIN
 70
     0
  9
$DIMDSEP
 70
    44
  9
$DIMATFIT
 70
     3
  9
$DIMFRAC
 70
     0
  9
$DIMLDRBLK
  1

  9
$DIMLUNIT
 70
     2
  9
$DIMLWD
 70
    -2
  9
$DIMLWE
 70
    -2
  9
$DIMTMOVE
 70
     0
  9
$DIMFXL
 40
1.0
  9
$DIMFXLON
 70
     0
  9
$DIMJOGANG
 40
0.7853981634
  9
$DIMTFILL
 70
     0
  9
$DIMTFILLCLR
 70
     0
  9
$DIMARCSYM
 70
     0
  9
$DIMLTYPE
  6

  9
$DIMLTEX1
  6

  9
$DIMLTEX2
  6

  9
$DIMTXTDIRECTION
 70
     0
  9
$LUNITS
 70
     2
  9
$LUPREC
 70
     0
  9
$SKETCHINC
 40
1.0
  9
$FILLETRAD
 40
0.0
  9
$AUNITS
 70
     0
  9
$AUPREC
 70
     2
  9
$MENU
  1
.
  9
$ELEVATION
 40
0.0
  9
$PELEVATION
 40
0.0
  9
$THICKNESS
 40
0.0
  9
$LIMCHECK
 70
     0
  9
$CHAMFERA
 40
0.0
  9
$CHAMFERB
 40
0.0
  9
$CHAMFERC
 40
0.0
  9
$CHAMFERD
 40
0.0
  9
$SKPOLY
 70
     0
  9
$TDCREATE
 40
2460934.444312905
  9
$TDUCREATE
 40
2460934.027646239
  9
$TDUPDATE
 40
2460934.444313102
  9
$TDUUPDATE
 40
2460934.027646435
  9
$TDINDWG
 40
0.0000000116
  9
$TDUSRTIMER
 40
0.0000000116
  9
$USRTIMER
 70
     1
  9
$ANGBASE
 50
0.0
  9
$ANGDIR
 70
     0
  9
$PDMODE
 70
     0
  9
$PDSIZE
 40
-1.0
  9
$PLINEWID
 40
0.0
  9
$SPLFRAME
 70
     0
  9
$SPLINETYPE
 70
     6
  9
$SPLINESEGS
 70
     8
  9
$HANDSEED
  5
121
  9
$SURFTAB1
 70
     6
  9
$SURFTAB2
 70
     6
  9
$SURFTYPE
 70
     6
  9
$SURFU
 70
     6
  9
$SURFV
 70
     6
  9
$UCSBASE
  2

  9
$UCSNAME
  2

  9
$UCSORG
 10
0.0
 20
0.0
 30
0.0
  9
$UCSXDIR
 10
1.0
 20
0.0
 30
0.0
  9
$UCSYDIR
 10
0.0
 20
1.0
 30
0.0
  9
$UCSORTHOREF
  2

  9
$UCSORTHOVIEW
 70
     0
  9
$UCSORGTOP
 10
0.0
 20
0.0
 30
0.0
  9
$UCSORGBOTTOM
 10
0.0
 20
0.0
 30
0.0
  9
$UCSORGLEFT
 10
0.0
 20
0.0
 30
0.0
  9
$UCSORGRIGHT
 10
0.0
 20
0.0
 30
0.0
  9
$UCSORGFRONT
 10
0.0
 20
0.0
 30
0.0
  9
$UCSORGBACK
 10
0.0
 20
0.0
 30
0.0
  9
$PUCSBASE
  2

  9
$PUCSNAME
  2

  9
$PUCSORG
 10
0.0
 20
0.0
 30
0.0
  9
$PUCSXDIR
 10
1.0
 20
0.0
 30
0.0
  9
$PUCSYDIR
 10
0.0
 20
1.0
 30
0.0
  9
$PUCSORTHOREF
  2

  9
$PUCSORTHOVIEW
 70
     0
  9
$PUCSORGTOP
 10
0.0
 20
0.0
 30
0.0
  9
$PUCSORGBOTTOM
 10
0.0
 20
0.0
 30
0.0
  9
$PUCSORGLEFT
 10
0.0
 20
0.0
 30
0.0
  9
$PUCSORGRIGHT
 10
0.0
 20
0.0
 30
0.0
  9
$PUCSORGFRONT
 10
0.0
 20
0.0
 30
0.0
  9
$PUCSORGBACK
 10
0.0
 20
0.0
 30
0.0
  9
$USERI1
 70
     0
  9
$USERI2
 70
     0
  9
$USERI3
 70
     0
  9
$USERI4
 70
     0
  9
$USERI5
 70
     0
  9
$USERR1
 40
0.0
  9
$USERR2
 40
0.0
  9
$USERR3
 40
0.0
  9
$USERR4
 40
0.0
  9
$USERR5
 40
0.0
  9
$WORLDVIEW
 70
     1
  9
$SHADEDGE
 70
     3
  9
$SHADEDIF
 70
    70
  9
$TILEMODE
 70
     1
  9
$MAXACTVP
 70
    64
  9
$PINSBASE
 10
0.0
 20
0.0
 30
0.0
  9
$PLIMCHECK
 70
     0
  9
$PEXTMIN
 10
1.0000000000E+20
 20
1.0000000000E+20
 30
1.0000000000E+20
  9
$PEXTMAX
 10
-1.0000000000E+20
 20
-1.0000000000E+20
 30
-1.0000000000E+20
  9
$PLIMMIN
 10
0.0
 20
0.0
  9
$PLIMMAX
 10
420.0
 20
297.0
  9
$UNITMODE
 70
     0
  9
$VISRETAIN
 70
     1
  9
$PLINEGEN
 70
     0
  9
$PSLTSCALE
 70
     1
  9
$TREEDEPTH
 70
  3020
  9
$CMLSTYLE
  2
Standard
  9
$CMLJUST
 70
     0
  9
$CMLSCALE
 40
20.0
  9
$PROXYGRAPHICS
 70
     1
  9
$MEASUREMENT
 70
     1
  9
$CELWEIGHT
370
    -1
  9
$ENDCAPS
280
     0
  9
$JOINSTYLE
280
     0
  9
$LWDISPLAY
290
     1
  9
$INSUNITS
 70
     4
  9
$HYPERLINKBASE
  1

  9
$STYLESHEET
  1

  9
$XEDIT
290
     1
  9
$CEPSNTYPE
380
     0
  9
$PSTYLEMODE
290
     1
  9
$FINGERPRINTGUID
  2
{7fe08f82-9271-4d54-ae21-85307d28979e}
  9
$VERSIONGUID
  2
{FAEB1C32-E019-11D5-929B-00C0DF256EC4}
  9
$EXTNAMES
290
     1
  9
$PSVPSCALE
 40
0.0
  9
$OLESTARTUP
290
     0
  9
$SORTENTS
280
   127
  9
$INDEXCTL
280
     0
  9
$HIDETEXT
280
     1
  9
$XCLIPFRAME
280
     2
  9
$HALOGAP
280
     0
  9
$OBSCOLOR
 70
   257
  9
$OBSLTYPE
280
     0
  9
$INTERSECTIONDISPLAY
280
     0
  9
$INTERSECTIONCOLOR
 70
   257
  9
$DIMASSOC
280
     2
  9
$PROJECTNAME
  1

  9
$CAMERADISPLAY
290
     0
  9
$LENSLENGTH
 40
50.0
  9
$CAMERAHEIGHT
 40
0.0
  9
$STEPSPERSEC
 40
2.0
  9
$STEPSIZE
 40
6.0
  9
$3DDWFPREC
 40
2.0
  9
$PSOLWIDTH
 40
5.0
  9
$PSOLHEIGHT
 40
80.0
  9
$LOFTANG1
 40
1.5707963268
  9
$LOFTANG2
 40
1.5707963268
  9
$LOFTMAG1
 40
0.0
  9
$LOFTMAG2
 40
0.0
  9
$LOFTPARAM
 70
     7
  9
$LOFTNORMALS
280
     1
  9
$LATITUDE
 40
37.795
  9
$LONGITUDE
 40
-122.394
  9
$NORTHDIRECTION
 40
0.0
  9
$TIMEZONE
 70
 -8000
  9
$LIGHTGLYPHDISPLAY
280
     1
  9
$TILEMODELIGHTSYNCH
280
     1
  9
$CMATERIAL
347
44
  9
$SOLIDHIST
280
     0
  9
$SHOWHIST
280
     1
  9
$DWFFRAME
280
     2
  9
$DGNFRAME
280
     2
  9
$REALWORLDSCALE
290
     1
  9
$INTERFERECOLOR
 62
   256
  9
$CSHADOW
280
     0
  9
$SHADOWPLANELOCATION
 40
0.0
  0
ENDSEC
  0
SECTION
  2
CLASSES
  0
CLASS
  1
ACDBDICTIONARYWDFLT
  2
AcDbDictionaryWithDefault
  3
ObjectDBX Classes
 90
        0
 91
        3
280
     0
281
     0
  0
CLASS
  1
VISUALSTYLE
  2
AcDbVisualStyle
  3
ObjectDBX Classes
 90
     4095
 91
        3
280
     0
281
     0
  0
CLASS
  1
MATERIAL
  2
AcDbMaterial
  3
ObjectDBX Classes
 90
     1153
 91
        3
280
     0
281
     0
  0
CLASS
  1
SCALE
  2
AcDbScale
  3
ObjectDBX Classes
 90
     1153
 91
        3
280
     0
281
     0
  0
CLASS
  1
TABLESTYLE
  2
AcDbTableStyle
  3
ObjectDBX Classes
 90
     4095
 91
        3
280
     0
281
     0
  0
CLASS
  1
MLEADERSTYLE
  2
AcDbMLeaderStyle
  3
ACDB_MLEADERSTYLE_CLASS
 90
     4095
 91
        3
280
     0
281
     0
  0
CLASS
  1
SUN
  2
AcDbSun
  3
SCENEOE
 90
     1153
 91
        3
280
     0
281
     0
  0
CLASS
  1
DICTIONARYVAR
  2
AcDbDictionaryVar
  3
ObjectDBX Classes
 90
        0
 91
        3
280
     0
281
     0
  0
CLASS
  1
CELLSTYLEMAP
  2
AcDbCellStyleMap
  3
ObjectDBX Classes
 90
     1152
 91
        3
280
     0
281
     0
  0
ENDSEC
  0
SECTION
  2
TABLES
  0
TABLE
  2
VPORT
  5
8
330
0
100
AcDbSymbolTable
 70
     1
  0
VPORT
  5
29
330
8
100
AcDbSymbolTableRecord
100
AcDbViewportTableRecord
  2
*Active
 70
     0
 10
0.0
 20
0.0
 11
1.0
 21
1.0
 12
210.0
 22
148.5
 13
0.0
 23
0.0
 14
10.0
 24
10.0
 15
10.0
 25
10.0
 16
0.0
 26
0.0
 36
1.0
 17
0.0
 27
0.0
 37
0.0
 40
297.0
 41
1.4141414141
 42
50.0
 43
0.0
 44
0.0
 50
0.0
 51
0.0
 71
     0
 72
  2000
 73
     1
 74
     3
 75
     0
 76
     0
 77
     0
 78
     0
281
     0
 65
     1
110
0.0
120
0.0
130
0.0
111
1.0
121
0.0
131
0.0
112
0.0
122
1.0
132
0.0
 79
     0
146
0.0
348
2F
 60
     3
 61
     5
292
     1
282
     1
141
0.0
142
0.0
 63
   250
361
5D
  0
ENDTAB
  0
TABLE
  2
LTYPE
  5
5
330
0
100
AcDbSymbolTable
 70
     6
  0
LTYPE
  5
14
330
5
100
AcDbSymbolTableRecord
100
AcDbLinetypeTableRecord
  2
ByBlock
 70
     0
  3

 72
    65
 73
     0
 40
0.0
  0
LTYPE
  5
15
330
5
100
AcDbSymbolTableRecord
100
AcDbLinetypeTableRecord
  2
ByLayer
 70
     0
  3

 72
    65
 73
     0
 40
0.0
  0
LTYPE
  5
16
330
5
100
AcDbSymbolTableRecord
100
AcDbLinetypeTableRecord
  2
Continuous
 70
     0
  3
Solid line
 72
    65
 73
     0
 40
0.0
  0
LTYPE
  5
5E
330
5
100
AcDbSymbolTableRecord
100
AcDbLinetypeTableRecord
  2
HIDDEN
 70
     0
  3
Hidden __ __ __ __ __ __ __ __ __ __ __ __ __ __
 72
    65
 73
     2
 40
1.905
 49
1.27
 74
     0
 49
-0.635
 74
     0
  0
LTYPE
  5
5F
330
5
100
AcDbSymbolTableRecord
100
AcDbLinetypeTableRecord
  2
PHANTOM
 70
     0
  3
Phantom ______  __  __  ______  __  __  ______
 72
    65
 73
     6
 40
12.7
 49
6.35
 74
     0
 49
-1.27
 74
     0
 49
1.27
 74
     0
 49
-1.27
 74
     0
 49
1.27
 74
     0
 49
-1.27
 74
     0
  0
LTYPE
  5
60
330
5
100
AcDbSymbolTableRecord
100
AcDbLinetypeTableRecord
  2
CENTER
 70
     0
  3
Center ____ _ ____ _ ____ _ ____ _ ____ _ ____
 72
    65
 73
     4
 40
10.16
 49
6.35
 74
     0
 49
-1.27
 74
     0
 49
1.27
 74
     0
 49
-1.27
 74
     0
  0
LTYPE
  5
61
330
5
100
AcDbSymbolTableRecord
100
AcDbLinetypeTableRecord
  2
CENTERX2
 70
     0
  3
Center (2x) ________  __  ________  __  _____
 72
    65
 73
     4
 40
20.32
 49
12.7
 74
     0
 49
-2.54
 74
     0
 49
2.54
 74
     0
 49
-2.54
 74
     0
  0
LTYPE
  5
62
330
5
100
AcDbSymbolTableRecord
100
AcDbLinetypeTableRecord
  2
DOT2
 70
     0
  3
Dot (.5x) ........................................
 72
    65
 73
     2
 40
0.635
 49
0.0
 74
     0
 49
-0.635
 74
     0
  0
ENDTAB
  0
TABLE
  2
LAYER
  5
2
330
0
100
AcDbSymbolTable
 70
    13
  0
LAYER
  5
10
330
2
100
AcDbSymbolTableRecord
100
AcDbLayerTableRecord
  2
0
 70
     0
 62
     7
  6
Continuous
370
    -3
390
F
347
46
348
0
  0
LAYER
  5
63
330
2
100
AcDbSymbolTableRecord
100
AcDbLayerTableRecord
  2
DRAWING-SHEET
 70
     0
 62
   179
  6
Continuous
370
    -3
390
F
347
46
348
0
  0
LAYER
  5
64
330
2
100
AcDbSymbolTableRecord
100
AcDbLayerTableRecord
  2
BORDER
 70
     0
 62
   179
  6
Continuous
370
    -3
390
F
347
46
348
0
  0
LAYER
  5
65
330
2
100
AcDbSymbolTableRecord
100
AcDbLayerTableRecord
  2
DIMENSIONS
 70
     0
 62
     7
  6
Continuous
370
    -3
390
F
347
46
348
0
  0
LAYER
  5
66
330
2
100
AcDbSymbolTableRecord
100
AcDbLayerTableRecord
  2
CENTRE_LINES
 70
     0
 62
     7
  6
Continuous
370
    -3
390
F
347
46
348
0
  0
LAYER
  5
67
330
2
100
AcDbSymbolTableRecord
100
AcDbLayerTableRecord
  2
FORMAT
 70
     0
 62
     7
  6
Continuous
370
    -3
390
F
347
46
348
0
  0
LAYER
  5
68
330
2
100
AcDbSymbolTableRecord
100
AcDbLayerTableRecord
  2
SLD-0
 70
     0
 62
   179
  6
Continuous
370
    -3
390
F
347
46
348
0
  0
LAYER
  5
69
330
2
100
AcDbSymbolTableRecord
100
AcDbLayerTableRecord
  2
OUTLINE
 70
     0
 62
     4
  6
Continuous
370
    -3
390
F
347
46
348
0
  0
LAYER
  5
6A
330
2
100
AcDbSymbolTableRecord
100
AcDbLayerTableRecord
  2
4
 70
     0
 62
     7
  6
Continuous
370
    70
390
F
347
46
348
0
  0
LAYER
  5
6B
330
2
100
AcDbSymbolTableRecord
100
AcDbLayerTableRecord
  2
TEXT25
 70
     0
 62
   179
  6
Continuous
370
    -3
390
F
347
46
348
0
  0
LAYER
  5
6C
330
2
100
AcDbSymbolTableRecord
100
AcDbLayerTableRecord
  2
TEXT35
 70
     0
 62
     7
  6
Continuous
370
    -3
390
F
347
46
348
0
  0
LAYER
  5
6D
330
2
100
AcDbSymbolTableRecord
100
AcDbLayerTableRecord
  2
TEXT5
 70
     0
 62
     7
  6
Continuous
370
    -3
390
F
347
46
348
0
  0
LAYER
  5
6E
330
2
100
AcDbSymbolTableRecord
100
AcDbLayerTableRecord
  2
5
 70
     0
 62
     7
  6
Continuous
370
    35
390
F
347
46
348
0
  0
ENDTAB
  0
TABLE
  2
STYLE
  5
3
330
0
100
AcDbSymbolTable
 70
     3
  0
STYLE
  5
11
330
3
100
AcDbSymbolTableRecord
100
AcDbTextStyleTableRecord
  2
Standard
 70
     0
 40
0.0
 41
1.0
 50
0.0
 71
     0
 42
4.2333333333
  3
txt
  4

  0
STYLE
  5
75
330
3
100
AcDbSymbolTableRecord
100
AcDbTextStyleTableRecord
  2
SLDTEXTSTYLE0
 70
     0
 40
0.0
 41
0.75
 50
0.0
 71
     0
 42
4.2333333333
  3
TXT
  4

  0
STYLE
  5
7B
330
3
100
AcDbSymbolTableRecord
100
AcDbTextStyleTableRecord
  2
SLDTEXTSTYLE1
 70
     0
 40
0.0
 41
0.6
 50
0.0
 71
     0
 42
4.2333333333
  3
TXT
  4

  0
ENDTAB
  0
TABLE
  2
VIEW
  5
6
330
0
100
AcDbSymbolTable
 70
     0
  0
ENDTAB
  0
TABLE
  2
UCS
  5
7
330
0
100
AcDbSymbolTable
 70
     0
  0
ENDTAB
  0
TABLE
  2
APPID
  5
9
330
0
100
AcDbSymbolTable
 70
     1
  0
APPID
  5
12
330
9
100
AcDbSymbolTableRecord
100
AcDbRegAppTableRecord
  2
ACAD
 70
     0
  0
ENDTAB
  0
TABLE
  2
DIMSTYLE
  5
A
330
0
100
AcDbSymbolTable
 70
     1
100
AcDbDimStyleTable
  0
DIMSTYLE
105
27
330
A
100
AcDbSymbolTableRecord
100
AcDbDimStyleTableRecord
  2
ISO-25
 70
     0
 41
2.5
 42
0.625
 43
3.75
 44
1.25
 73
     0
 74
     0
 77
     1
 78
     8
140
2.5
141
2.5
143
0.0393700787
147
0.625
171
     3
172
     1
178
     0
271
     2
272
     2
274
     3
278
    44
283
     0
284
     8
340
11
  0
ENDTAB
  0
TABLE
  2
BLOCK_RECORD
  5
1
330
0
100
AcDbSymbolTable
 70
     6
  0
BLOCK_RECORD
  5
1F
330
1
100
AcDbSymbolTableRecord
100
AcDbBlockTableRecord
  2
*Model_Space
340
22
 70
     0
280
     1
281
     0
  0
BLOCK_RECORD
  5
1B
330
1
100
AcDbSymbolTableRecord
100
AcDbBlockTableRecord
  2
*Paper_Space
340
1E
 70
     0
280
     1
281
     0
  0
BLOCK_RECORD
  5
23
330
1
100
AcDbSymbolTableRecord
100
AcDbBlockTableRecord
  2
*Paper_Space0
340
26
 70
     0
280
     1
281
     0
  0
BLOCK_RECORD
  5
6F
330
1
100
AcDbSymbolTableRecord
100
AcDbBlockTableRecord
  2
Block1
340
0
 70
     0
280
     1
281
     0
  0
BLOCK_RECORD
  5
72
330
1
100
AcDbSymbolTableRecord
100
AcDbBlockTableRecord
  2
SW_NOTE_0
340
0
102
{BLKREFS
331
77
102
}
 70
     0
280
     1
281
     0
  0
BLOCK_RECORD
  5
78
330
1
100
AcDbSymbolTableRecord
100
AcDbBlockTableRecord
  2
SW_NOTE_0_1
340
0
102
{BLKREFS
331
7D
102
}
 70
     0
280
     1
281
     0
  0
BLOCK_RECORD
  5
7E
330
1
100
AcDbSymbolTableRecord
100
AcDbBlockTableRecord
  2
SW_NOTE_0_2
340
0
102
{BLKREFS
331
82
102
}
 70
     0
280
     1
281
     0
  0
BLOCK_RECORD
  5
83
330
1
100
AcDbSymbolTableRecord
100
AcDbBlockTableRecord
  2
SW_NOTE_0_3
340
0
102
{BLKREFS
331
87
102
}
 70
     0
280
     1
281
     0
  0
ENDTAB
  0
ENDSEC
  0
SECTION
  2
BLOCKS
  0
BLOCK
  5
20
330
1F
100
AcDbEntity
  8
0
100
AcDbBlockBegin
  2
*Model_Space
 70
     0
 10
0.0
 20
0.0
 30
0.0
  3
*Model_Space
  1

  0
ENDBLK
  5
21
330
1F
100
AcDbEntity
  8
0
100
AcDbBlockEnd
  0
BLOCK
  5
1C
330
1B
100
AcDbEntity
 67
     1
  8
0
100
AcDbBlockBegin
  2
*Paper_Space
 70
     0
 10
0.0
 20
0.0
 30
0.0
  3
*Paper_Space
  1

  0
ENDBLK
  5
1D
330
1B
100
AcDbEntity
 67
     1
  8
0
100
AcDbBlockEnd
  0
BLOCK
  5
24
330
23
100
AcDbEntity
  8
0
100
AcDbBlockBegin
  2
*Paper_Space0
 70
     0
 10
0.0
 20
0.0
 30
0.0
  3
*Paper_Space0
  1

  0
ENDBLK
  5
25
330
23
100
AcDbEntity
  8
0
100
AcDbBlockEnd
  0
BLOCK
  5
70
330
6F
100
AcDbEntity
  8
0
100
AcDbBlockBegin
  2
Block1
 70
     0
 10
0.0
 20
0.0
 30
0.0
  3
Block1
  1

  0
INSERT
  5
77
330
6F
100
AcDbEntity
  8
0
  6
Continuous
 62
     7
370
     0
100
AcDbBlockReference
  2
SW_NOTE_0
 10
40.5248655077
 20
20.5912386523
 30
0.0
  0
INSERT
  5
7D
330
6F
100
AcDbEntity
  8
DRAWING-SHEET
 62
     7
100
AcDbBlockReference
  2
SW_NOTE_0_1
 10
3.556761253
 20
-0.3611706024
 30
0.0
  0
INSERT
  5
82
330
6F
100
AcDbEntity
  8
DRAWING-SHEET
 62
     7
100
AcDbBlockReference
  2
SW_NOTE_0_2
 10
7.9590819428
 20
3.0109637777
 30
0.0
  0
INSERT
  5
87
330
6F
100
AcDbEntity
  8
DRAWING-SHEET
 62
     7
100
AcDbBlockReference
  2
SW_NOTE_0_3
 10
0.0721004934
 20
6.5234823937
 30
0.0
  0
ENDBLK
  5
71
330
6F
100
AcDbEntity
  8
0
100
AcDbBlockEnd
  0
BLOCK
  5
73
330
72
100
AcDbEntity
  8
0
100
AcDbBlockBegin
  2
SW_NOTE_0
 70
     0
 10
0.0
 20
0.0
 30
0.0
  3
SW_NOTE_0
  1

  0
MTEXT
  5
76
330
72
100
AcDbEntity
  8
0
  6
Continuous
 62
     0
370
     0
100
AcDbMText
 10
0.0
 20
1.9336016097
 30
0.0
 40
1.5
 41
0.0
 46
0.0
 71
     1
 72
     1
  1
TITLE:
  7
SLDTEXTSTYLE0
 73
     1
 44
1.0
  0
ENDBLK
  5
74
330
72
100
AcDbEntity
  8
0
100
AcDbBlockEnd
  0
BLOCK
  5
79
330
78
100
AcDbEntity
  8
0
100
AcDbBlockBegin
  2
SW_NOTE_0_1
 70
     0
 10
0.0
 20
0.0
 30
0.0
  3
SW_NOTE_0_1
  1

  0
MTEXT
  5
7C
330
78
100
AcDbEntity
  8
DRAWING-SHEET
 62
     0
100
AcDbMText
 10
0.0
 20
2.7285267159
 30
0.0
 40
2.1166666667
 41
0.0
 46
0.0
 71
     1
 72
     1
  1
Email: roddyeng.com.au
  7
SLDTEXTSTYLE1
 73
     1
 44
1.0
  0
ENDBLK
  5
7A
330
78
100
AcDbEntity
  8
0
100
AcDbBlockEnd
  0
BLOCK
  5
7F
330
7E
100
AcDbEntity
  8
0
100
AcDbBlockBegin
  2
SW_NOTE_0_2
 70
     0
 10
0.0
 20
0.0
 30
0.0
  3
SW_NOTE_0_2
  1

  0
MTEXT
  5
81
330
7E
100
AcDbEntity
  8
DRAWING-SHEET
 62
     0
100
AcDbMText
 10
0.0
 20
2.7285267159
 30
0.0
 40
2.1166666667
 41
0.0
 46
0.0
 71
     1
 72
     1
  1
Ph: - 02 6947 4039
  7
SLDTEXTSTYLE1
 73
     1
 44
1.0
  0
ENDBLK
  5
80
330
7E
100
AcDbEntity
  8
0
100
AcDbBlockEnd
  0
BLOCK
  5
84
330
83
100
AcDbEntity
  8
0
100
AcDbBlockBegin
  2
SW_NOTE_0_3
 70
     0
 10
0.0
 20
0.0
 30
0.0
  3
SW_NOTE_0_3
  1

  0
MTEXT
  5
86
330
83
100
AcDbEntity
  8
DRAWING-SHEET
 62
     0
100
AcDbMText
 10
0.0
 20
2.7285267159
 30
0.0
 40
2.1166666667
 41
0.0
 46
0.0
 71
     1
 72
     1
  1
14 Waratah St TUMUT NSW 2720
  7
SLDTEXTSTYLE1
 73
     1
 44
1.0
  0
ENDBLK
  5
85
330
83
100
AcDbEntity
  8
0
100
AcDbBlockEnd
  0
ENDSEC
  0
SECTION
  2
ENTITIES
  0
LINE
  5
88
330
1F
100
AcDbEntity
  8
0
  6
Continuous
 62
     7
370
    25
100
AcDbLine
 10
894.1101980086
 20
673.6368198664
 30
0.0
 11
894.1101980086
 21
680.8163070459
 31
0.0
  0
LINE
  5
89
330
1F
100
AcDbEntity
  8
0
  6
Continuous
 62
     7
370
    25
100
AcDbLine
 10
894.8281467265
 20
673.6368198664
 30
0.0
 11
894.1101980086
 21
673.6368198664
 31
0.0
  0
LINE
  5
8A
330
1F
100
AcDbEntity
  8
0
  6
Continuous
 62
     7
370
    25
100
AcDbLine
 10
894.8281467265
 20
681.6368198664
 30
0.0
 11
894.8281467265
 21
673.6368198664
 31
0.0
  0
LINE
  5
8B
330
1F
100
AcDbEntity
  8
0
  6
Continuous
 62
     7
370
    25
100
AcDbLine
 10
893.3489800599
 20
681.6368198664
 30
0.0
 11
894.8281467265
 21
681.6368198664
 31
0.0
  0
LINE
  5
8C
330
1F
100
AcDbEntity
  8
0
  6
Continuous
 62
     7
370
    25
100
AcDbLine
 10
892.8794287778
 20
680.8163070459
 30
0.0
 11
893.3489800599
 21
681.6368198664
 31
0.0
  0
LINE
  5
8D
330
1F
100
AcDbEntity
  8
0
  6
Continuous
 62
     7
370
    25
100
AcDbLine
 10
894.1101980086
 20
680.8163070459
 30
0.0
 11
892.8794287778
 21
680.8163070459
 31
0.0
  0
SPLINE
  5
8E
330
1F
100
AcDbEntity
  8
0
  6
Continuous
 62
     7
370
    25
100
AcDbSpline
210
0.0
220
0.0
230
1.0
 70
     8
 71
     3
 72
    31
 73
    27
 74
     0
 42
0.00000001
 43
0.00000001
 40
0.0
 40
0.0
 40
0.0
 40
0.0
 40
0.0337881161627101
 40
0.0671939323738797
 40
0.0998624108568243
 40
0.1325666121262573
 40
0.1651511732547859
 40
0.1979131873557919
 40
0.2313190035669613
 40
0.2650832782673722
 40
0.2992553087581143
 40
0.334398566504978
 40
0.3699428235093067
 40
0.4062835607000597
 40
0.4440638196985084
 40
0.4829977068727741
 40
0.5233544466133037
 40
0.5655365896041497
 40
0.6096129240658182
 40
0.6563908113764166
 40
0.7058854949364556
 40
0.7583245002617311
 40
0.8138317829411498
 40
0.8727945590393887
 40
0.9347222295400733
 40
1.0
 40
1.0
 40
1.0
 40
1.0
 10
900.477185188083
 20
681.8419480714939
 30
0.0
 10
900.5408091389044
 20
681.8408330653781
 30
0.0
 10
900.6673371592373
 20
681.8386156690254
 30
0.0
 10
900.8544008740852
 20
681.8173038003749
 30
0.0
 10
901.0371430037185
 20
681.7819412332962
 30
0.0
 10
901.2147844636122
 20
681.7318361485359
 30
0.0
 10
901.3887844326814
 20
681.6696746018857
 30
0.0
 10
901.5577819358714
 20
681.5917611913504
 30
0.0
 10
901.7228266939104
 20
681.5010666374203
 30
0.0
 10
901.8812959225273
 20
681.3944977750051
 30
0.0
 10
902.0349293290326
 20
681.2756811436982
 30
0.0
 10
902.1799532443974
 20
681.1413664721479
 30
0.0
 10
902.316380869306
 20
680.9929099709623
 30
0.0
 10
902.4459244244745
 20
680.8318999963643
 30
0.0
 10
902.5649086466442
 20
680.6552483738876
 30
0.0
 10
902.6782193488966
 20
680.4660275514552
 30
0.0
 10
902.7796411452432
 20
680.2609284319266
 30
0.0
 10
902.8773204027943
 20
680.0433730768613
 30
0.0
 10
902.9616335153412
 20
679.8073418567318
 30
0.0
 10
903.0376706473921
 20
679.5541652612618
 30
0.0
 10
903.0991082898491
 20
679.2808528341685
 30
0.0
 10
903.1502837694792
 20
678.9888385592083
 30
0.0
 10
903.1899292459264
 20
678.677050026088
 30
0.0
 10
903.2188038563916
 20
678.3461555906324
 30
0.0
 10
903.2340566222003
 20
677.9959375548821
 30
0.0
 10
903.2369290821013
 20
677.7564910424771
 30
0.0
 10
903.2384031368009
 20
677.6336147381605
 30
0.0
  0
SPLINE
  5
8F
330
1F
100
AcDbEntity
  8
0
  6
Continuous
 62
     7
370
    25
100
AcDbSpline
210
0.0
220
0.0
230
1.0
 70
     8
 71
     3
 72
    31
 73
    27
 74
     0
 42
0.00000001
 43
0.00000001
 40
0.0
 40
0.0
 40
0.0
 40
0.0
 40
0.0685946222587426
 40
0.1332460424433
 40
0.1943125864682571
 40
0.2512792231169659
 40
0.3045134392563465
 40
0.3542349066533259
 40
0.4004805887739901
 40
0.4434107549384916
 40
0.4840148686163447
 40
0.5232523007732017
 40
0.5610423727283598
 40
0.5979002393643987
 40
0.6335184888561961
 40
0.6683143511696518
 40
0.7024956712863809
 40
0.7366853535134579
 40
0.7702931693607888
 40
0.8034372550192478
 40
0.8359129516660281
 40
0.8684602457892902
 40
0.9008465382431822
 40
0.9334665246307076
 40
0.9662575752981226
 40
1.0
 40
1.0
 40
1.0
 40
1.0
 10
897.8025057009036
 20
677.6336147381605
 30
0.0
 10
897.803255456692
 20
677.761837338696
 30
0.0
 10
897.8047118681179
 20
678.0109115884045
 30
0.0
 10
897.8209139731288
 20
678.3738479131285
 30
0.0
 10
897.8478290412733
 20
678.714328573689
 30
0.0
 10
897.8847144649309
 20
679.0323698674912
 30
0.0
 10
897.9296012768706
 20
679.3280539006745
 30
0.0
 10
897.9895223891021
 20
679.6005904884146
 30
0.0
 10
898.0576659379363
 20
679.8512410178159
 30
0.0
 10
898.1366429569318
 20
680.0808228429039
 30
0.0
 10
898.2257579032595
 20
680.2924290212403
 30
0.0
 10
898.3227504991956
 20
680.4899723384832
 30
0.0
 10
898.4314700293065
 20
680.673153898117
 30
0.0
 10
898.5457029731401
 20
680.8448974190768
 30
0.0
 10
898.670073422575
 20
681.0023915786022
 30
0.0
 10
898.8010420865002
 20
681.1478605215017
 30
0.0
 10
898.9437206608251
 20
681.2779422368476
 30
0.0
 10
899.09325896545
 20
681.3964480708705
 30
0.0
 10
899.2510108840597
 20
681.5003325775492
 30
0.0
 10
899.4124798352442
 20
681.5918359800995
 30
0.0
 10
899.5787772200578
 20
681.6700071052599
 30
0.0
 10
899.7503570666817
 20
681.7314709586531
 30
0.0
 10
899.9256771990008
 20
681.782238608419
 30
0.0
 10
900.1053504942952
 20
681.8169562030397
 30
0.0
 10
900.2896736118639
 20
681.8388005653012
 30
0.0
 10
900.4140883199741
 20
681.8408889487073
 30
0.0
 10
900.477185188083
 20
681.8419480714939
 30
0.0
  0
SPLINE
  5
90
330
1F
100
AcDbEntity
  8
0
  6
Continuous
 62
     7
370
    25
100
AcDbSpline
210
0.0
220
0.0
230
1.0
 70
     8
 71
     3
 72
    31
 73
    27
 74
     0
 42
0.00000001
 43
0.00000001
 40
0.0
 40
0.0
 40
0.0
 40
0.0
 40
0.0337871463469916
 40
0.0666216577242942
 40
0.0992848780959728
 40
0.1313611650426511
 40
0.1635851875953436
 40
0.196103926987069
 40
0.2289022543238179
 40
0.2621580559050076
 40
0.2959912222583162
 40
0.3302178457247995
 40
0.3650598258919541
 40
0.4009507373401081
 40
0.4376203820767381
 40
0.4757075294370928
 40
0.5153806916250498
 40
0.556413541493165
 40
0.5997648298727323
 40
0.6464241555840875
 40
0.6964314445175676
 40
0.7497815178015587
 40
0.8065733069755331
 40
0.8674355315654004
 40
0.9318867532508747
 40
0.9999999999999999
 40
0.9999999999999999
 40
0.9999999999999999
 40
0.9999999999999999
 10
900.477185188083
 20
673.4316916612376
 30
0.0
 10
900.4140900704024
 20
673.432757616572
 30
0.0
 10
900.2896788137955
 20
673.4348594724289
 30
0.0
 10
900.1053304127911
 20
673.4566051444019
 30
0.0
 10
899.9263991134998
 20
673.4915662946015
 30
0.0
 10
899.7520019614138
 20
673.5405185325241
 30
0.0
 10
899.5812442126512
 20
673.6004381583879
 30
0.0
 10
899.416452700295
 20
673.678503720909
 30
0.0
 10
899.2557951375735
 20
673.7684101642369
 30
0.0
 10
899.0997001523892
 20
673.870799698953
 30
0.0
 10
898.9511009271554
 20
673.9881064032464
 30
0.0
 10
898.8091612578665
 20
674.1178533488156
 30
0.0
 10
898.6774469285021
 20
674.263278288924
 30
0.0
 10
898.5548547099482
 20
674.422084970313
 30
0.0
 10
898.438342508358
 20
674.5928123813593
 30
0.0
 10
898.3311667979141
 20
674.7777915197489
 30
0.0
 10
898.2320334171869
 20
674.9762889151536
 30
0.0
 10
898.1414197242303
 20
675.1895869966968
 30
0.0
 10
898.0610799219105
 20
675.4207982603763
 30
0.0
 10
897.990113731937
 20
675.6725678112391
 30
0.0
 10
897.9340813720055
 20
675.9471178366426
 30
0.0
 10
897.8861203312446
 20
676.2422432471692
 30
0.0
 10
897.8474360271451
 20
676.5592122309082
 30
0.0
 10
897.8210261407031
 20
676.898196866764
 30
0.0
 10
897.8047031349071
 20
677.2589859157381
 30
0.0
 10
897.8032515453755
 20
677.5064596856047
 30
0.0
 10
897.8025057009036
 20
677.6336147381605
 30
0.0
  0
SPLINE
  5
91
330
1F
100
AcDbEntity
  8
0
  6
Continuous
 62
     7
370
    25
100
AcDbSpline
210
0.0
220
0.0
230
1.0
 70
     8
 71
     3
 72
    31
 73
    27
 74
     0
 42
0.00000001
 43
0.00000001
 40
0.0
 40
0.0
 40
0.0
 40
0.0
 40
0.0650632896172783
 40
0.1267731664665234
 40
0.1855157632260796
 40
0.2407646791677159
 40
0.2929797960235991
 40
0.3422503727797682
 40
0.3889192861856598
 40
0.4327756640583106
 40
0.4746284326311176
 40
0.5147746906379531
 40
0.5536058934984424
 40
0.5914264064311745
 40
0.628028119946068
 40
0.6638036341103203
 40
0.6989843361316636
 40
0.7335914893067056
 40
0.7676284691511397
 40
0.8012083477865924
 40
0.8342638397266234
 40
0.8669806947287766
 40
0.8997197415181607
 40
0.9327019124985383
 40
0.9661758834327498
 40
1.0
 40
1.0
 40
1.0
 40
1.0
 10
903.2384031368009
 20
677.6336147381605
 30
0.0
 10
903.2369138007006
 20
677.5112743771527
 30
0.0
 10
903.2340118900457
 20
677.272899172904
 30
0.0
 10
903.2189748460053
 20
676.9242569436016
 30
0.0
 10
903.1893551175967
 20
676.5951185589192
 30
0.0
 10
903.1523037157481
 20
676.2846946447279
 30
0.0
 10
903.1009872289517
 20
675.9942772302525
 30
0.0
 10
903.0378897060915
 20
675.7228613480402
 30
0.0
 10
902.9678318253561
 20
675.4692748985192
 30
0.0
 10
902.8813522959623
 20
675.235595329125
 30
0.0
 10
902.7866992437401
 20
675.0185628197197
 30
0.0
 10
902.6837159381963
 20
674.8158950521091
 30
0.0
 10
902.5733849071433
 20
674.6258006688413
 30
0.0
 10
902.4531820614221
 20
674.4498012472844
 30
0.0
 10
902.325059974116
 20
674.2866500311178
 30
0.0
 10
902.1862764568749
 20
674.1392268936286
 30
0.0
 10
902.0407436909276
 20
674.0039796434272
 30
0.0
 10
901.8866581690214
 20
673.8836330663707
 30
0.0
 10
901.7257174804906
 20
673.7782963700591
 30
0.0
 10
901.5612395903767
 20
673.6840932834583
 30
0.0
 10
901.3903061427258
 20
673.6081328376301
 30
0.0
 10
901.2167908222012
 20
673.5429098868238
 30
0.0
 10
901.0382116996527
 20
673.4930802825127
 30
0.0
 10
900.8547913780768
 20
673.4586257556084
 30
0.0
 10
900.6674628388113
 20
673.4344615305689
 30
0.0
 10
900.5408306900541
 20
673.4326181479968
 30
0.0
 10
900.477185188083
 20
673.4316916612376
 30
0.0
  0
LINE
  5
92
330
1F
100
AcDbEntity
  8
0
  6
Continuous
 62
     7
370
    25
100
AcDbLine
 10
916.8185313419
 20
673.6368198664
 30
0.0
 11
911.5460954445
 21
679.9188711484
 31
0.0
  0
LINE
  5
93
330
1F
100
AcDbEntity
  8
0
  6
Continuous
 62
     7
370
    25
100
AcDbLine
 10
916.9819928804
 20
673.6368198664
 30
0.0
 11
916.8185313419
 21
673.6368198664
 31
0.0
  0
LINE
  5
94
330
1F
100
AcDbEntity
  8
0
  6
Continuous
 62
     7
370
    25
100
AcDbLine
 10
916.9819928804
 20
681.6368198664
 30
0.0
 11
916.9819928804
 21
673.6368198664
 31
0.0
  0
LINE
  5
95
330
1F
100
AcDbEntity
  8
0
  6
Continuous
 62
     7
370
    25
100
AcDbLine
 10
916.2640441624
 20
681.6368198664
 30
0.0
 11
916.9819928804
 21
681.6368198664
 31
0.0
  0
LINE
  5
96
330
1F
100
AcDbEntity
  8
0
  6
Continuous
 62
     7
370
    25
100
AcDbLine
 10
916.2640441624
 20
675.3403455074
 30
0.0
 11
916.2640441624
 21
681.6368198664
 31
0.0
  0
LINE
  5
97
330
1F
100
AcDbEntity
  8
0
  6
Continuous
 62
     7
370
    25
100
AcDbLine
 10
910.9787877522
 20
681.6368198664
 30
0.0
 11
916.2640441624
 21
675.3403455074
 31
0.0
  0
LINE
  5
98
330
1F
100
AcDbEntity
  8
0
  6
Continuous
 62
     7
370
    25
100
AcDbLine
 10
910.8281467265
 20
681.6368198664
 30
0.0
 11
910.9787877522
 21
681.6368198664
 31
0.0
  0
LINE
  5
99
330
1F
100
AcDbEntity
  8
0
  6
Continuous
 62
     7
370
    25
100
AcDbLine
 10
910.8281467265
 20
673.6368198664
 30
0.0
 11
910.8281467265
 21
681.6368198664
 31
0.0
  0
LINE
  5
9A
330
1F
100
AcDbEntity
  8
0
  6
Continuous
 62
     7
370
    25
100
AcDbLine
 10
911.5460954445
 20
673.6368198664
 30
0.0
 11
910.8281467265
 21
673.6368198664
 31
0.0
  0
LINE
  5
9B
330
1F
100
AcDbEntity
  8
0
  6
Continuous
 62
     7
370
    25
100
AcDbLine
 10
911.5460954445
 20
679.9188711484
 30
0.0
 11
911.5460954445
 21
673.6368198664
 31
0.0
  0
SPLINE
  5
9C
330
1F
100
AcDbEntity
  8
0
  6
Continuous
 62
     7
370
    25
100
AcDbSpline
210
0.0
220
0.0
230
1.0
 70
     8
 71
     3
 72
    23
 73
    19
 74
     0
 42
0.00000001
 43
0.00000001
 40
0.0
 40
0.0
 40
0.0
 40
0.0
 40
0.0611602766365183
 40
0.1203345577262035
 40
0.1781802550631265
 40
0.2352351259863656
 40
0.2926829614441807
 40
0.3511862482150805
 40
0.4104566095096924
 40
0.4717198544629949
 40
0.5337612027725894
 40
0.5957390238870951
 40
0.6578875151248839
 40
0.7212951802914616
 40
0.7868225145418892
 40
0.8546861538286845
 40
0.9254779862699963
 40
1.0
 40
1.0
 40
1.0
 40
1.0
 10
923.7512236496215
 20
675.907653199699
 30
0.0
 10
923.748990858711
 20
675.8295574919917
 30
0.0
 10
923.7445977800415
 20
675.6759019991774
 30
0.0
 10
923.7121864159348
 20
675.4501759773476
 30
0.0
 10
923.6573084570983
 20
675.2344618136613
 30
0.0
 10
923.5817172654077
 20
675.0273642531944
 30
0.0
 10
923.4830605463258
 20
674.8292839458329
 30
0.0
 10
923.3629966278539
 20
674.6399964852923
 30
0.0
 10
923.2198387681447
 20
674.4614037296053
 30
0.0
 10
923.059695067683
 20
674.2915211625127
 30
0.0
 10
922.8785244494233
 20
674.1387719343074
 30
0.0
 10
922.6830598667432
 20
674.0027360333216
 30
0.0
 10
922.4708397069862
 20
673.8908593199149
 30
0.0
 10
922.2453494349486
 20
673.796879842194
 30
0.0
 10
922.0040595695447
 20
673.7250919599882
 30
0.0
 10
921.7480536098651
 20
673.6748689339325
 30
0.0
 10
921.477552348528
 20
673.6410288493644
 30
0.0
 10
921.2919300602731
 20
673.6382466667475
 30
0.0
 10
921.1967364701343
 20
673.6368198663657
 30
0.0
  0
SPLINE
  5
9D
330
1F
100
AcDbEntity
  8
0
  6
Continuous
 62
     7
370
    25
100
AcDbSpline
210
0.0
220
0.0
230
1.0
 70
     8
 71
     3
 72
    19
 73
    15
 74
     0
 42
0.00000001
 43
0.00000001
 40
0.0
 40
0.0
 40
0.0
 40
0.0
 40
0.1060574933033972
 40
0.2029142570846103
 40
0.2903001653958373
 40
0.3702225656250404
 40
0.4463837207709711
 40
0.5213968999648266
 40
0.5982910828464565
 40
0.6761424688569256
 40
0.7555286995560201
 40
0.834887172457659
 40
0.9166460487466404
 40
1.0
 40
1.0
 40
1.0
 40
1.0
 10
922.2111595470574
 20
677.9525249945708
 30
0.0
 10
922.3020405244168
 20
677.9176335684208
 30
0.0
 10
922.4759183469982
 20
677.8508776269467
 30
0.0
 10
922.7152006611284
 20
677.7328537092392
 30
0.0
 10
922.9213603068339
 20
677.6044831712018
 30
0.0
 10
923.0959823548001
 20
677.464296085159
 30
0.0
 10
923.2453255660381
 20
677.3131902319245
 30
0.0
 10
923.3757322896332
 20
677.1489499707853
 30
0.0
 10
923.487004002001
 20
676.9694328099228
 30
0.0
 10
923.5823478272938
 20
676.7765104433802
 30
0.0
 10
923.6567449839251
 20
676.5721528014216
 30
0.0
 10
923.7124613367703
 20
676.3582767417704
 30
0.0
 10
923.744386934795
 20
676.1356491870405
 30
0.0
 10
923.7489301148595
 20
675.9841397485525
 30
0.0
 10
923.7512236496215
 20
675.907653199699
 30
0.0
  0
SPLINE
  5
9E
330
1F
100
AcDbEntity
  8
0
  6
Continuous
 62
     7
370
    25
100
AcDbSpline
210
0.0
220
0.0
230
1.0
 70
     8
 71
     3
 72
    15
 73
    11
 74
     0
 42
0.00000001
 43
0.00000001
 40
0.0
 40
0.0
 40
0.0
 40
0.0
 40
0.1305691070873113
 40
0.2565806086940817
 40
0.3805516168036832
 40
0.5036229172007111
 40
0.6257393231697916
 40
0.7475485819596281
 40
0.871766118564872
 40
1.0
 40
1.0
 40
1.0
 40
1.0
 10
923.1358390342369
 20
679.6544480714939
 30
0.0
 10
923.1333402492253
 20
679.5660993728014
 30
0.0
 10
923.1284299010306
 20
679.3924858481819
 30
0.0
 10
923.0814750225558
 20
679.1385564555336
 30
0.0
 10
923.0079649232654
 20
678.8968393839283
 30
0.0
 10
922.905781496605
 20
678.6682167886896
 30
0.0
 10
922.7729769338665
 20
678.4578542443568
 30
0.0
 10
922.6155864912033
 20
678.2640547791109
 30
0.0
 10
922.4256966569383
 20
678.0950237916938
 30
0.0
 10
922.2834263941088
 20
678.0005257287208
 30
0.0
 10
922.2111595470574
 20
677.9525249945708
 30
0.0
  0
SPLINE
  5
9F
330
1F
100
AcDbEntity
  8
0
  6
Continuous
 62
     7
370
    25
100
AcDbSpline
210
0.0
220
0.0
230
1.0
 70
     8
 71
     3
 72
    23
 73
    19
 74
     0
 42
0.00000001
 43
0.00000001
 40
0.0
 40
0.0
 40
0.0
 40
0.0
 40
0.0625940971873315
 40
0.1213229386347493
 40
0.1766801421977652
 40
0.2283650957096748
 40
0.2768684458368067
 40
0.3218791276660453
 40
0.3640986251098912
 40
0.4033556962427007
 40
0.4779679481633707
 40
0.5505354613647757
 40
0.6235844567403224
 40
0.698174882264205
 40
0.7733536703408738
 40
0.8472811254977323
 40
0.9228183395566674
 40
1.0
 40
1.0
 40
1.0
 40
1.0
 10
920.5941723675702
 20
681.6368198663657
 30
0.0
 10
920.6705803177138
 20
681.6364181511617
 30
0.0
 10
920.8186779413398
 20
681.6356395271182
 30
0.0
 10
921.0340366655198
 20
681.6235637987824
 30
0.0
 10
921.2357482326981
 20
681.6070982676312
 30
0.0
 10
921.4238711409281
 20
681.5809723415872
 30
0.0
 10
921.598318460679
 20
681.5494482795407
 30
0.0
 10
921.7596159172226
 20
681.5112726999056
 30
0.0
 10
921.9072505966931
 20
681.4654975829708
 30
0.0
 10
922.0835082799072
 20
681.3927060830109
 30
0.0
 10
922.2844697904874
 20
681.2845388410686
 30
0.0
 10
922.5020661166657
 20
681.1247021207281
 30
0.0
 10
922.6881329494869
 20
680.9291993478814
 30
0.0
 10
922.8485588174661
 20
680.7086675640545
 30
0.0
 10
922.9761042337204
 20
680.4660715143378
 30
0.0
 10
923.0683769132993
 20
680.2071933685608
 30
0.0
 10
923.1267949141189
 20
679.9353722441731
 30
0.0
 10
923.1328027637553
 20
679.7487592661641
 30
0.0
 10
923.1358390342369
 20
679.6544480714939
 30
0.0
  0
LINE
  5
A0
330
1F
100
AcDbEntity
  8
0
  6
Continuous
 62
     7
370
    25
100
AcDbLine
 10
919.0332749317
 20
681.6368198664
 30
0.0
 11
920.5941723676
 21
681.6368198664
 31
0.0
  0
LINE
  5
A1
330
1F
100
AcDbEntity
  8
0
  6
Continuous
 62
     7
370
    25
100
AcDbLine
 10
919.0332749317
 20
673.6368198664
 30
0.0
 11
919.0332749317
 21
681.6368198664
 31
0.0
  0
LINE
  5
A2
330
1F
100
AcDbEntity
  8
0
  6
Continuous
 62
     7
370
    25
100
AcDbLine
 10
921.1967364701
 20
673.6368198664
 30
0.0
 11
919.0332749317
 21
673.6368198664
 31
0.0
  0
SPLINE
  5
A3
330
1F
100
AcDbEntity
  8
0
  6
Continuous
 62
     7
370
    25
100
AcDbSpline
210
0.0
220
0.0
230
1.0
 70
     8
 71
     3
 72
    23
 73
    19
 74
     0
 42
0.00000001
 43
0.00000001
 40
0.0
 40
0.0
 40
0.0
 40
0.0
 40
0.0611602766365183
 40
0.1203345577262035
 40
0.178180255063126
 40
0.235235125986365
 40
0.2926829614441809
 40
0.3511862482150805
 40
0.4104566095096925
 40
0.4717198544629949
 40
0.5337612027725881
 40
0.5957390238870937
 40
0.6578875151248832
 40
0.7212951802914609
 40
0.7868225145418885
 40
0.8546861538286837
 40
0.9254779862699963
 40
1.0
 40
1.0
 40
1.0
 40
1.0
 10
949.8025057009036
 20
675.907653199699
 30
0.0
 10
949.800272909993
 20
675.8295574919919
 30
0.0
 10
949.7958798313236
 20
675.6759019991774
 30
0.0
 10
949.7634684672169
 20
675.4501759773476
 30
0.0
 10
949.7085905083806
 20
675.2344618136614
 30
0.0
 10
949.6329993166897
 20
675.0273642531943
 30
0.0
 10
949.5343425976079
 20
674.8292839458329
 30
0.0
 10
949.4142786791359
 20
674.6399964852923
 30
0.0
 10
949.2711208194266
 20
674.4614037296053
 30
0.0
 10
949.1109771189651
 20
674.2915211625127
 30
0.0
 10
948.9298065007052
 20
674.1387719343074
 30
0.0
 10
948.7343419180252
 20
674.0027360333216
 30
0.0
 10
948.5221217582682
 20
673.8908593199149
 30
0.0
 10
948.2966314862307
 20
673.796879842194
 30
0.0
 10
948.0553416208268
 20
673.7250919599882
 30
0.0
 10
947.7993356611472
 20
673.6748689339327
 30
0.0
 10
947.5288343998101
 20
673.6410288493644
 30
0.0
 10
947.3432121115551
 20
673.6382466667475
 30
0.0
 10
947.2480185214164
 20
673.6368198663657
 30
0.0
  0
SPLINE
  5
A4
330
1F
100
AcDbEntity
  8
0
  6
Continuous
 62
     7
370
    25
100
AcDbSpline
210
0.0
220
0.0
230
1.0
 70
     8
 71
     3
 72
    19
 73
    15
 74
     0
 42
0.00000001
 43
0.00000001
 40
0.0
 40
0.0
 40
0.0
 40
0.0
 40
0.1060574933033959
 40
0.2029142570846113
 40
0.2903001653958362
 40
0.3702225656250411
 40
0.4463837207709718
 40
0.5213968999648274
 40
0.5982910828464572
 40
0.6761424688569263
 40
0.7555286995560206
 40
0.8348871724576589
 40
0.9166460487466402
 40
1.0
 40
1.0
 40
1.0
 40
1.0
 10
948.2624415983394
 20
677.9525249945708
 30
0.0
 10
948.3533225756989
 20
677.9176335684208
 30
0.0
 10
948.5272003982803
 20
677.8508776269467
 30
0.0
 10
948.7664827124105
 20
677.7328537092392
 30
0.0
 10
948.972642358116
 20
677.6044831712018
 30
0.0
 10
949.1472644060821
 20
677.464296085159
 30
0.0
 10
949.2966076173202
 20
677.3131902319245
 30
0.0
 10
949.4270143409153
 20
677.1489499707853
 30
0.0
 10
949.5382860532831
 20
676.9694328099228
 30
0.0
 10
949.6336298785759
 20
676.7765104433802
 30
0.0
 10
949.7080270352071
 20
676.5721528014215
 30
0.0
 10
949.7637433880524
 20
676.3582767417704
 30
0.0
 10
949.7956689860771
 20
676.1356491870405
 30
0.0
 10
949.8002121661415
 20
675.9841397485525
 30
0.0
 10
949.8025057009036
 20
675.907653199699
 30
0.0
  0
SPLINE
  5
A5
330
1F
100
AcDbEntity
  8
0
  6
Continuous
 62
     7
370
    25
100
AcDbSpline
210
0.0
220
0.0
230
1.0
 70
     8
 71
     3
 72
    15
 73
    11
 74
     0
 42
0.00000001
 43
0.00000001
 40
0.0
 40
0.0
 40
0.0
 40
0.0
 40
0.1305691070873112
 40
0.2565806086940821
 40
0.3805516168036825
 40
0.5036229172007103
 40
0.6257393231697909
 40
0.7475485819596296
 40
0.8717661185648721
 40
1.0
 40
1.0
 40
1.0
 40
1.0
 10
949.1871210855189
 20
679.6544480714939
 30
0.0
 10
949.1846223005074
 20
679.5660993728014
 30
0.0
 10
949.1797119523128
 20
679.392485848182
 30
0.0
 10
949.1327570738379
 20
679.1385564555336
 30
0.0
 10
949.0592469745475
 20
678.8968393839283
 30
0.0
 10
948.957063547887
 20
678.6682167886897
 30
0.0
 10
948.8242589851485
 20
678.4578542443567
 30
0.0
 10
948.6668685424854
 20
678.2640547791109
 30
0.0
 10
948.4769787082204
 20
678.0950237916938
 30
0.0
 10
948.3347084453908
 20
678.0005257287208
 30
0.0
 10
948.2624415983394
 20
677.9525249945708
 30
0.0
  0
SPLINE
  5
A6
330
1F
100
AcDbEntity
  8
0
  6
Continuous
 62
     7
370
    25
100
AcDbSpline
210
0.0
220
0.0
230
1.0
 70
     8
 71
     3
 72
    23
 73
    19
 74
     0
 42
0.00000001
 43
0.00000001
 40
0.0
 40
0.0
 40
0.0
 40
0.0
 40
0.0625940971873324
 40
0.1213229386347501
 40
0.1766801421977669
 40
0.2283650957096765
 40
0.2768684458368065
 40
0.3218791276660469
 40
0.3640986251098909
 40
0.4033556962427022
 40
0.4779679481633712
 40
0.5505354613647763
 40
0.6235844567403221
 40
0.6981748822642048
 40
0.7733536703408743
 40
0.847281125497732
 40
0.9228183395566674
 40
1.0
 40
1.0
 40
1.0
 40
1.0
 10
946.6454544188523
 20
681.6368198663657
 30
0.0
 10
946.7218623689959
 20
681.6364181511616
 30
0.0
 10
946.869959992622
 20
681.6356395271182
 30
0.0
 10
947.0853187168019
 20
681.6235637987824
 30
0.0
 10
947.2870302839804
 20
681.6070982676312
 30
0.0
 10
947.4751531922101
 20
681.5809723415872
 30
0.0
 10
947.6496005119611
 20
681.5494482795407
 30
0.0
 10
947.8108979685047
 20
681.5112726999057
 30
0.0
 10
947.9585326479752
 20
681.4654975829708
 30
0.0
 10
948.1347903311892
 20
681.3927060830109
 30
0.0
 10
948.3357518417695
 20
681.2845388410686
 30
0.0
 10
948.5533481679477
 20
681.1247021207281
 30
0.0
 10
948.739415000769
 20
680.9291993478814
 30
0.0
 10
948.8998408687482
 20
680.7086675640545
 30
0.0
 10
949.0273862850025
 20
680.4660715143378
 30
0.0
 10
949.1196589645813
 20
680.2071933685608
 30
0.0
 10
949.178076965401
 20
679.9353722441731
 30
0.0
 10
949.1840848150374
 20
679.7487592661641
 30
0.0
 10
949.1871210855189
 20
679.6544480714939
 30
0.0
  0
LINE
  5
A7
330
1F
100
AcDbEntity
  8
0
  6
Continuous
 62
     7
370
    25
100
AcDbLine
 10
945.084556983
 20
681.6368198664
 30
0.0
 11
946.6454544189
 21
681.6368198664
 31
0.0
  0
LINE
  5
A8
330
1F
100
AcDbEntity
  8
0
  6
Continuous
 62
     7
370
    25
100
AcDbLine
 10
945.084556983
 20
673.6368198664
 30
0.0
 11
945.084556983
 21
681.6368198664
 31
0.0
  0
LINE
  5
A9
330
1F
100
AcDbEntity
  8
0
  6
Continuous
 62
     7
370
    25
100
AcDbLine
 10
947.2480185214
 20
673.6368198664
 30
0.0
 11
945.084556983
 21
673.6368198664
 31
0.0
  0
CIRCLE
  5
AA
330
1F
100
AcDbEntity
  8
0
  6
Continuous
 62
     7
370
    25
100
AcDbCircle
 10
917.428454363
 20
867.8612862213
 30
0.0
 40
9.000000000000073
  0
CIRCLE
  5
AB
330
1F
100
AcDbEntity
  8
0
  6
Continuous
 62
     7
370
    25
100
AcDbCircle
 10
869.2620014499
 20
819.6948333083
 30
0.0
 40
9.0
  0
CIRCLE
  5
AC
330
1F
100
AcDbEntity
  8
0
  6
Continuous
 62
     7
370
    25
100
AcDbCircle
 10
869.2620014499
 20
751.5771823473
 30
0.0
 40
8.999999999999993
  0
CIRCLE
  5
AD
330
1F
100
AcDbEntity
  8
0
  6
Continuous
 62
     7
370
    25
100
AcDbCircle
 10
917.428454363
 20
703.4107294343
 30
0.0
 40
9.0
  0
CIRCLE
  5
AE
330
1F
100
AcDbEntity
  8
0
  6
Continuous
 62
     7
370
    25
100
AcDbCircle
 10
985.5461053239
 20
703.4107294343
 30
0.0
 40
8.999999999999993
  0
CIRCLE
  5
AF
330
1F
100
AcDbEntity
  8
0
  6
Continuous
 62
     7
370
    25
100
AcDbCircle
 10
1033.7125582369
 20
751.5771823473
 30
0.0
 40
9.0
  0
CIRCLE
  5
B0
330
1F
100
AcDbEntity
  8
0
  6
Continuous
 62
     7
370
    25
100
AcDbCircle
 10
1033.7125582369
 20
819.6948333083
 30
0.0
 40
9.000000000000234
  0
CIRCLE
  5
B1
330
1F
100
AcDbEntity
  8
0
  6
Continuous
 62
     7
370
    25
100
AcDbCircle
 10
985.5461053239
 20
867.8612862213
 30
0.0
 40
9.0
  0
ARC
  5
B2
330
1F
100
AcDbEntity
  8
0
  6
Continuous
 62
     7
370
    25
100
AcDbCircle
 10
871.4872798434
 20
706.53954773
 30
0.0
 40
5.0
100
AcDbArc
 50
0.0
 51
44.6746095644
  0
ARC
  5
B3
330
1F
100
AcDbEntity
  8
0
  6
Continuous
 62
     7
370
    25
100
AcDbCircle
 10
951.4872798434
 20
785.6360078278
 30
0.0
 40
107.5
100
AcDbArc
 50
315.3253904356
 51
224.6746095644
  0
ARC
  5
B4
330
1F
100
AcDbEntity
  8
0
  6
Continuous
 62
     7
370
    25
100
AcDbCircle
 10
1031.4872798434
 20
706.53954773
 30
0.0
 40
5.00000000000008
100
AcDbArc
 50
135.3253904356
 51
180.0
  0
LINE
  5
B5
330
1F
100
AcDbEntity
  8
0
  6
Continuous
 62
     7
370
    25
100
AcDbLine
 10
1026.4872798434
 20
663.0360078278
 30
0.0
 11
1026.4872798434
 21
706.53954773
 31
0.0
  0
ARC
  5
B6
330
1F
100
AcDbEntity
  8
0
  6
Continuous
 62
     7
370
    25
100
AcDbCircle
 10
1021.4872798434
 20
663.0360078278
 30
0.0
 40
5.0
100
AcDbArc
 50
270.0
 51
0.0
  0
LINE
  5
B7
330
1F
100
AcDbEntity
  8
0
  6
Continuous
 62
     7
370
    25
100
AcDbLine
 10
881.4872798434
 20
658.0360078278
 30
0.0
 11
1021.4872798434
 21
658.0360078278
 31
0.0
  0
ARC
  5
B8
330
1F
100
AcDbEntity
  8
0
  6
Continuous
 62
     7
370
    25
100
AcDbCircle
 10
881.4872798434
 20
663.0360078278
 30
0.0
 40
5.0
100
AcDbArc
 50
180.0
 51
270.0
  0
LINE
  5
B9
330
1F
100
AcDbEntity
  8
0
  6
Continuous
 62
     7
370
    25
100
AcDbLine
 10
876.4872798434
 20
706.53954773
 30
0.0
 11
876.4872798434
 21
663.0360078278
 31
0.0
  0
LINE
  5
BA
330
1F
100
AcDbEntity
  8
0
  6
Continuous
 62
     7
370
    25
100
AcDbLine
 10
970.1101980086
 20
674.4573326869
 30
0.0
 11
970.1101980086
 21
673.6368198664
 31
0.0
  0
LINE
  5
BB
330
1F
100
AcDbEntity
  8
0
  6
Continuous
 62
     7
370
    25
100
AcDbLine
 10
966.3153262137
 20
674.4573326869
 30
0.0
 11
970.1101980086
 21
674.4573326869
 31
0.0
  0
LINE
  5
BC
330
1F
100
AcDbEntity
  8
0
  6
Continuous
 62
     7
370
    25
100
AcDbLine
 10
966.3153262137
 20
677.5342557638
 30
0.0
 11
966.3153262137
 21
674.4573326869
 31
0.0
  0
LINE
  5
BD
330
1F
100
AcDbEntity
  8
0
  6
Continuous
 62
     7
370
    25
100
AcDbLine
 10
970.1101980086
 20
677.5342557638
 30
0.0
 11
966.3153262137
 21
677.5342557638
 31
0.0
  0
LINE
  5
BE
330
1F
100
AcDbEntity
  8
0
  6
Continuous
 62
     7
370
    25
100
AcDbLine
 10
970.1101980086
 20
678.3547685843
 30
0.0
 11
970.1101980086
 21
677.5342557638
 31
0.0
  0
LINE
  5
BF
330
1F
100
AcDbEntity
  8
0
  6
Continuous
 62
     7
370
    25
100
AcDbLine
 10
966.3153262137
 20
678.3547685843
 30
0.0
 11
970.1101980086
 21
678.3547685843
 31
0.0
  0
LINE
  5
C0
330
1F
100
AcDbEntity
  8
0
  6
Continuous
 62
     7
370
    25
100
AcDbLine
 10
966.3153262137
 20
680.8163070459
 30
0.0
 11
966.3153262137
 21
678.3547685843
 31
0.0
  0
LINE
  5
C1
330
1F
100
AcDbEntity
  8
0
  6
Continuous
 62
     7
370
    25
100
AcDbLine
 10
970.1101980086
 20
680.8163070459
 30
0.0
 11
966.3153262137
 21
680.8163070459
 31
0.0
  0
LINE
  5
C2
330
1F
100
AcDbEntity
  8
0
  6
Continuous
 62
     7
370
    25
100
AcDbLine
 10
970.1101980086
 20
681.6368198664
 30
0.0
 11
970.1101980086
 21
680.8163070459
 31
0.0
  0
LINE
  5
C3
330
1F
100
AcDbEntity
  8
0
  6
Continuous
 62
     7
370
    25
100
AcDbLine
 10
965.5973774958
 20
681.6368198664
 30
0.0
 11
970.1101980086
 21
681.6368198664
 31
0.0
  0
LINE
  5
C4
330
1F
100
AcDbEntity
  8
0
  6
Continuous
 62
     7
370
    25
100
AcDbLine
 10
965.5973774958
 20
673.6368198664
 30
0.0
 11
965.5973774958
 21
681.6368198664
 31
0.0
  0
LINE
  5
C5
330
1F
100
AcDbEntity
  8
0
  6
Continuous
 62
     7
370
    25
100
AcDbLine
 10
970.1101980086
 20
673.6368198664
 30
0.0
 11
965.5973774958
 21
673.6368198664
 31
0.0
  0
LINE
  5
C6
330
1F
100
AcDbEntity
  8
0
  6
Continuous
 62
     7
370
    25
100
AcDbLine
 10
961.084556983
 20
674.4573326869
 30
0.0
 11
961.084556983
 21
673.6368198664
 31
0.0
  0
LINE
  5
C7
330
1F
100
AcDbEntity
  8
0
  6
Continuous
 62
     7
370
    25
100
AcDbLine
 10
957.2896851881
 20
674.4573326869
 30
0.0
 11
961.084556983
 21
674.4573326869
 31
0.0
  0
LINE
  5
C8
330
1F
100
AcDbEntity
  8
0
  6
Continuous
 62
     7
370
    25
100
AcDbLine
 10
957.2896851881
 20
677.5342557638
 30
0.0
 11
957.2896851881
 21
674.4573326869
 31
0.0
  0
LINE
  5
C9
330
1F
100
AcDbEntity
  8
0
  6
Continuous
 62
     7
370
    25
100
AcDbLine
 10
961.084556983
 20
677.5342557638
 30
0.0
 11
957.2896851881
 21
677.5342557638
 31
0.0
  0
LINE
  5
CA
330
1F
100
AcDbEntity
  8
0
  6
Continuous
 62
     7
370
    25
100
AcDbLine
 10
961.084556983
 20
678.3547685843
 30
0.0
 11
961.084556983
 21
677.5342557638
 31
0.0
  0
LINE
  5
CB
330
1F
100
AcDbEntity
  8
0
  6
Continuous
 62
     7
370
    25
100
AcDbLine
 10
957.2896851881
 20
678.3547685843
 30
0.0
 11
961.084556983
 21
678.3547685843
 31
0.0
  0
LINE
  5
CC
330
1F
100
AcDbEntity
  8
0
  6
Continuous
 62
     7
370
    25
100
AcDbLine
 10
957.2896851881
 20
680.8163070459
 30
0.0
 11
957.2896851881
 21
678.3547685843
 31
0.0
  0
LINE
  5
CD
330
1F
100
AcDbEntity
  8
0
  6
Continuous
 62
     7
370
    25
100
AcDbLine
 10
961.084556983
 20
680.8163070459
 30
0.0
 11
957.2896851881
 21
680.8163070459
 31
0.0
  0
LINE
  5
CE
330
1F
100
AcDbEntity
  8
0
  6
Continuous
 62
     7
370
    25
100
AcDbLine
 10
961.084556983
 20
681.6368198664
 30
0.0
 11
961.084556983
 21
680.8163070459
 31
0.0
  0
LINE
  5
CF
330
1F
100
AcDbEntity
  8
0
  6
Continuous
 62
     7
370
    25
100
AcDbLine
 10
956.5717364701
 20
681.6368198664
 30
0.0
 11
961.084556983
 21
681.6368198664
 31
0.0
  0
LINE
  5
D0
330
1F
100
AcDbEntity
  8
0
  6
Continuous
 62
     7
370
    25
100
AcDbLine
 10
956.5717364701
 20
673.6368198664
 30
0.0
 11
956.5717364701
 21
681.6368198664
 31
0.0
  0
LINE
  5
D1
330
1F
100
AcDbEntity
  8
0
  6
Continuous
 62
     7
370
    25
100
AcDbLine
 10
961.084556983
 20
673.6368198664
 30
0.0
 11
956.5717364701
 21
673.6368198664
 31
0.0
  0
LINE
  5
D2
330
1F
100
AcDbEntity
  8
0
  6
Continuous
 62
     7
370
    25
100
AcDbLine
 10
955.2384031368
 20
674.4573326869
 30
0.0
 11
955.2384031368
 21
673.6368198664
 31
0.0
  0
LINE
  5
D3
330
1F
100
AcDbEntity
  8
0
  6
Continuous
 62
     7
370
    25
100
AcDbLine
 10
952.1614800599
 20
674.4573326869
 30
0.0
 11
955.2384031368
 21
674.4573326869
 31
0.0
  0
LINE
  5
D4
330
1F
100
AcDbEntity
  8
0
  6
Continuous
 62
     7
370
    25
100
AcDbLine
 10
952.1614800599
 20
681.6368198664
 30
0.0
 11
952.1614800599
 21
674.4573326869
 31
0.0
  0
LINE
  5
D5
330
1F
100
AcDbEntity
  8
0
  6
Continuous
 62
     7
370
    25
100
AcDbLine
 10
951.4435313419
 20
681.6368198664
 30
0.0
 11
952.1614800599
 21
681.6368198664
 31
0.0
  0
LINE
  5
D6
330
1F
100
AcDbEntity
  8
0
  6
Continuous
 62
     7
370
    25
100
AcDbLine
 10
951.4435313419
 20
673.6368198664
 30
0.0
 11
951.4435313419
 21
681.6368198664
 31
0.0
  0
LINE
  5
D7
330
1F
100
AcDbEntity
  8
0
  6
Continuous
 62
     7
370
    25
100
AcDbLine
 10
955.2384031368
 20
673.6368198664
 30
0.0
 11
951.4435313419
 21
673.6368198664
 31
0.0
  0
LINE
  5
D8
330
1F
100
AcDbEntity
  8
0
  6
Continuous
 62
     7
370
    25
100
AcDbLine
 10
936.8425698035
 20
673.6368198664
 30
0.0
 11
936.0589159573
 21
673.6368198664
 31
0.0
  0
LINE
  5
D9
330
1F
100
AcDbEntity
  8
0
  6
Continuous
 62
     7
370
    25
100
AcDbLine
 10
938.0589159573
 20
676.2009224305
 30
0.0
 11
936.8425698035
 21
673.6368198664
 31
0.0
  0
LINE
  5
DA
330
1F
100
AcDbEntity
  8
0
  6
Continuous
 62
     7
370
    25
100
AcDbLine
 10
941.6855185214
 20
676.2009224305
 30
0.0
 11
938.0589159573
 21
676.2009224305
 31
0.0
  0
LINE
  5
DB
330
1F
100
AcDbEntity
  8
0
  6
Continuous
 62
     7
370
    25
100
AcDbLine
 10
942.8682108291
 20
673.6368198664
 30
0.0
 11
941.6855185214
 21
676.2009224305
 31
0.0
  0
LINE
  5
DC
330
1F
100
AcDbEntity
  8
0
  6
Continuous
 62
     7
370
    25
100
AcDbLine
 10
943.6486595471
 20
673.6368198664
 30
0.0
 11
942.8682108291
 21
673.6368198664
 31
0.0
  0
LINE
  5
DD
330
1F
100
AcDbEntity
  8
0
  6
Continuous
 62
     7
370
    25
100
AcDbLine
 10
939.9563518547
 20
681.6368198664
 30
0.0
 11
943.6486595471
 21
673.6368198664
 31
0.0
  0
LINE
  5
DE
330
1F
100
AcDbEntity
  8
0
  6
Continuous
 62
     7
370
    25
100
AcDbLine
 10
939.8537877522
 20
681.6368198664
 30
0.0
 11
939.9563518547
 21
681.6368198664
 31
0.0
  0
LINE
  5
DF
330
1F
100
AcDbEntity
  8
0
  6
Continuous
 62
     7
370
    25
100
AcDbLine
 10
936.0589159573
 20
673.6368198664
 30
0.0
 11
939.8537877522
 21
681.6368198664
 31
0.0
  0
LINE
  5
E0
330
1F
100
AcDbEntity
  8
0
  6
Continuous
 62
     7
370
    25
100
AcDbLine
 10
933.6999415983
 20
673.6368198664
 30
0.0
 11
932.9819928804
 21
673.6368198664
 31
0.0
  0
LINE
  5
E1
330
1F
100
AcDbEntity
  8
0
  6
Continuous
 62
     7
370
    25
100
AcDbLine
 10
933.6999415983
 20
680.8163070459
 30
0.0
 11
933.6999415983
 21
673.6368198664
 31
0.0
  0
LINE
  5
E2
330
1F
100
AcDbEntity
  8
0
  6
Continuous
 62
     7
370
    25
100
AcDbLine
 10
935.4435313419
 20
680.8163070459
 30
0.0
 11
933.6999415983
 21
680.8163070459
 31
0.0
  0
LINE
  5
E3
330
1F
100
AcDbEntity
  8
0
  6
Continuous
 62
     7
370
    25
100
AcDbLine
 10
935.4435313419
 20
681.6368198664
 30
0.0
 11
935.4435313419
 21
680.8163070459
 31
0.0
  0
LINE
  5
E4
330
1F
100
AcDbEntity
  8
0
  6
Continuous
 62
     7
370
    25
100
AcDbLine
 10
931.2384031368
 20
681.6368198664
 30
0.0
 11
935.4435313419
 21
681.6368198664
 31
0.0
  0
LINE
  5
E5
330
1F
100
AcDbEntity
  8
0
  6
Continuous
 62
     7
370
    25
100
AcDbLine
 10
931.2384031368
 20
680.8163070459
 30
0.0
 11
931.2384031368
 21
681.6368198664
 31
0.0
  0
LINE
  5
E6
330
1F
100
AcDbEntity
  8
0
  6
Continuous
 62
     7
370
    25
100
AcDbLine
 10
932.9819928804
 20
680.8163070459
 30
0.0
 11
931.2384031368
 21
680.8163070459
 31
0.0
  0
LINE
  5
E7
330
1F
100
AcDbEntity
  8
0
  6
Continuous
 62
     7
370
    25
100
AcDbLine
 10
932.9819928804
 20
673.6368198664
 30
0.0
 11
932.9819928804
 21
680.8163070459
 31
0.0
  0
LINE
  5
E8
330
1F
100
AcDbEntity
  8
0
  6
Continuous
 62
     7
370
    25
100
AcDbLine
 10
930.8281467265
 20
677.1239993535
 30
0.0
 11
930.8281467265
 21
676.303486533
 31
0.0
  0
LINE
  5
E9
330
1F
100
AcDbEntity
  8
0
  6
Continuous
 62
     7
370
    25
100
AcDbLine
 10
927.7512236496
 20
677.1239993535
 30
0.0
 11
930.8281467265
 21
677.1239993535
 31
0.0
  0
LINE
  5
EA
330
1F
100
AcDbEntity
  8
0
  6
Continuous
 62
     7
370
    25
100
AcDbLine
 10
927.7512236496
 20
676.303486533
 30
0.0
 11
927.7512236496
 21
677.1239993535
 31
0.0
  0
LINE
  5
EB
330
1F
100
AcDbEntity
  8
0
  6
Continuous
 62
     7
370
    25
100
AcDbLine
 10
930.8281467265
 20
676.303486533
 30
0.0
 11
927.7512236496
 21
676.303486533
 31
0.0
  0
SPLINE
  5
EC
330
1F
100
AcDbEntity
  8
0
  6
Continuous
 62
     7
370
    25
100
AcDbSpline
210
0.0
220
0.0
230
1.0
 70
     8
 71
     3
 72
    31
 73
    27
 74
     0
 42
0.00000001
 43
0.00000001
 40
0.0
 40
0.0
 40
0.0
 40
0.0
 40
0.03378811616271
 40
0.0671939323738809
 40
0.0998624108568254
 40
0.1325666121262584
 40
0.1651511732547858
 40
0.197913187355793
 40
0.2313190035669623
 40
0.2650832782673732
 40
0.2992553087581152
 40
0.3343985665049789
 40
0.3699428235093069
 40
0.4062835607000605
 40
0.4440638196985093
 40
0.4829977068727749
 40
0.5233544466133044
 40
0.5655365896041498
 40
0.6096129240658184
 40
0.6563908113764167
 40
0.705885494936456
 40
0.7583245002617315
 40
0.81383178294115
 40
0.872794559039389
 40
0.9347222295400733
 40
1.0
 40
1.0
 40
1.0
 40
1.0
 10
906.6310313419291
 20
681.8419480714939
 30
0.0
 10
906.6946552927506
 20
681.8408330653781
 30
0.0
 10
906.8211833130835
 20
681.8386156690254
 30
0.0
 10
907.0082470279314
 20
681.8173038003749
 30
0.0
 10
907.1909891575647
 20
681.7819412332962
 30
0.0
 10
907.3686306174584
 20
681.731836148536
 30
0.0
 10
907.5426305865275
 20
681.6696746018857
 30
0.0
 10
907.7116280897176
 20
681.5917611913504
 30
0.0
 10
907.8766728477566
 20
681.5010666374203
 30
0.0
 10
908.0351420763735
 20
681.3944977750051
 30
0.0
 10
908.1887754828788
 20
681.2756811436983
 30
0.0
 10
908.3337993982436
 20
681.1413664721478
 30
0.0
 10
908.470227023152
 20
680.9929099709623
 30
0.0
 10
908.5997705783207
 20
680.8318999963643
 30
0.0
 10
908.7187548004904
 20
680.6552483738876
 30
0.0
 10
908.8320655027428
 20
680.4660275514551
 30
0.0
 10
908.9334872990894
 20
680.2609284319266
 30
0.0
 10
909.0311665566405
 20
680.0433730768613
 30
0.0
 10
909.1154796691874
 20
679.8073418567318
 30
0.0
 10
909.1915168012383
 20
679.5541652612619
 30
0.0
 10
909.2529544436953
 20
679.2808528341684
 30
0.0
 10
909.3041299233254
 20
678.9888385592083
 30
0.0
 10
909.3437753997725
 20
678.677050026088
 30
0.0
 10
909.3726500102377
 20
678.3461555906324
 30
0.0
 10
909.3879027760465
 20
677.9959375548821
 30
0.0
 10
909.3907752359474
 20
677.7564910424771
 30
0.0
 10
909.3922492906471
 20
677.6336147381605
 30
0.0
  0
SPLINE
  5
ED
330
1F
100
AcDbEntity
  8
0
  6
Continuous
 62
     7
370
    25
100
AcDbSpline
210
0.0
220
0.0
230
1.0
 70
     8
 71
     3
 72
    31
 73
    27
 74
     0
 42
0.00000001
 43
0.00000001
 40
0.0
 40
0.0
 40
0.0
 40
0.0
 40
0.0685946222587427
 40
0.1332460424433002
 40
0.1943125864682573
 40
0.2512792231169663
 40
0.3045134392563468
 40
0.3542349066533263
 40
0.4004805887739902
 40
0.4434107549384921
 40
0.4840148686163453
 40
0.5232523007732024
 40
0.5610423727283604
 40
0.5979002393643995
 40
0.6335184888561969
 40
0.6683143511696527
 40
0.7024956712863819
 40
0.7366853535134588
 40
0.7702931693607898
 40
0.8034372550192489
 40
0.8359129516660292
 40
0.8684602457892913
 40
0.9008465382431833
 40
0.9334665246307088
 40
0.9662575752981226
 40
1.0
 40
1.0
 40
1.0
 40
1.0
 10
903.9563518547496
 20
677.6336147381605
 30
0.0
 10
903.9571016105382
 20
677.761837338696
 30
0.0
 10
903.9585580219641
 20
678.0109115884045
 30
0.0
 10
903.974760126975
 20
678.3738479131287
 30
0.0
 10
904.0016751951193
 20
678.7143285736889
 30
0.0
 10
904.0385606187771
 20
679.0323698674912
 30
0.0
 10
904.0834474307168
 20
679.3280539006745
 30
0.0
 10
904.1433685429483
 20
679.6005904884146
 30
0.0
 10
904.2115120917825
 20
679.8512410178159
 30
0.0
 10
904.2904891107779
 20
680.0808228429039
 30
0.0
 10
904.3796040571056
 20
680.2924290212403
 30
0.0
 10
904.4765966530418
 20
680.4899723384832
 30
0.0
 10
904.5853161831527
 20
680.673153898117
 30
0.0
 10
904.6995491269862
 20
680.8448974190768
 30
0.0
 10
904.8239195764212
 20
681.0023915786022
 30
0.0
 10
904.9548882403463
 20
681.1478605215017
 30
0.0
 10
905.0975668146713
 20
681.2779422368475
 30
0.0
 10
905.2471051192962
 20
681.3964480708705
 30
0.0
 10
905.4048570379058
 20
681.5003325775492
 30
0.0
 10
905.5663259890903
 20
681.5918359800995
 30
0.0
 10
905.7326233739038
 20
681.6700071052599
 30
0.0
 10
905.9042032205276
 20
681.7314709586531
 30
0.0
 10
906.079523352847
 20
681.782238608419
 30
0.0
 10
906.2591966481414
 20
681.8169562030397
 30
0.0
 10
906.4435197657101
 20
681.8388005653012
 30
0.0
 10
906.5679344738202
 20
681.8408889487073
 30
0.0
 10
906.6310313419291
 20
681.8419480714939
 30
0.0
  0
SPLINE
  5
EE
330
1F
100
AcDbEntity
  8
0
  6
Continuous
 62
     7
370
    25
100
AcDbSpline
210
0.0
220
0.0
230
1.0
 70
     8
 71
     3
 72
    31
 73
    27
 74
     0
 42
0.00000001
 43
0.00000001
 40
0.0
 40
0.0
 40
0.0
 40
0.0
 40
0.0337871463469916
 40
0.066621657724293
 40
0.0992848780959716
 40
0.1313611650426512
 40
0.1635851875953425
 40
0.196103926987068
 40
0.2289022543238179
 40
0.2621580559050076
 40
0.2959912222583153
 40
0.3302178457247995
 40
0.3650598258919534
 40
0.4009507373401082
 40
0.4376203820767382
 40
0.4757075294370923
 40
0.5153806916250494
 40
0.5564135414931647
 40
0.5997648298727318
 40
0.6464241555840872
 40
0.6964314445175674
 40
0.7497815178015583
 40
0.8065733069755329
 40
0.8674355315654002
 40
0.9318867532508747
 40
1.0
 40
1.0
 40
1.0
 40
1.0
 10
906.6310313419291
 20
673.4316916612376
 30
0.0
 10
906.5679362242486
 20
673.432757616572
 30
0.0
 10
906.4435249676417
 20
673.4348594724289
 30
0.0
 10
906.2591765666373
 20
673.4566051444018
 30
0.0
 10
906.080245267346
 20
673.4915662946016
 30
0.0
 10
905.90584811526
 20
673.5405185325241
 30
0.0
 10
905.7350903664973
 20
673.6004381583879
 30
0.0
 10
905.5702988541412
 20
673.678503720909
 30
0.0
 10
905.4096412914197
 20
673.7684101642368
 30
0.0
 10
905.2535463062354
 20
673.8707996989531
 30
0.0
 10
905.1049470810016
 20
673.9881064032464
 30
0.0
 10
904.9630074117127
 20
674.1178533488156
 30
0.0
 10
904.8312930823483
 20
674.263278288924
 30
0.0
 10
904.7087008637944
 20
674.422084970313
 30
0.0
 10
904.5921886622042
 20
674.5928123813593
 30
0.0
 10
904.48501295176
 20
674.7777915197488
 30
0.0
 10
904.3858795710331
 20
674.9762889151536
 30
0.0
 10
904.2952658780765
 20
675.1895869966968
 30
0.0
 10
904.2149260757567
 20
675.4207982603763
 30
0.0
 10
904.1439598857831
 20
675.6725678112391
 30
0.0
 10
904.0879275258516
 20
675.9471178366426
 30
0.0
 10
904.0399664850906
 20
676.2422432471692
 30
0.0
 10
904.0012821809913
 20
676.5592122309082
 30
0.0
 10
903.9748722945493
 20
676.898196866764
 30
0.0
 10
903.9585492887533
 20
677.2589859157381
 30
0.0
 10
903.9570976992217
 20
677.5064596856047
 30
0.0
 10
903.9563518547496
 20
677.6336147381605
 30
0.0
  0
SPLINE
  5
EF
330
1F
100
AcDbEntity
  8
0
  6
Continuous
 62
     7
370
    25
100
AcDbSpline
210
0.0
220
0.0
230
1.0
 70
     8
 71
     3
 72
    31
 73
    27
 74
     0
 42
0.00000001
 43
0.00000001
 40
0.0
 40
0.0
 40
0.0
 40
0.0
 40
0.0650632896172782
 40
0.1267731664665232
 40
0.1855157632260794
 40
0.2407646791677158
 40
0.2929797960235989
 40
0.3422503727797678
 40
0.3889192861856594
 40
0.4327756640583106
 40
0.4746284326311175
 40
0.5147746906379519
 40
0.5536058934984418
 40
0.591426406431174
 40
0.6280281199460673
 40
0.6638036341103204
 40
0.6989843361316636
 40
0.7335914893067046
 40
0.7676284691511387
 40
0.8012083477865914
 40
0.8342638397266224
 40
0.8669806947287755
 40
0.8997197415181608
 40
0.9327019124985372
 40
0.9661758834327498
 40
0.9999999999999999
 40
0.9999999999999999
 40
0.9999999999999999
 40
0.9999999999999999
 10
909.3922492906471
 20
677.6336147381605
 30
0.0
 10
909.3907599545468
 20
677.5112743771527
 30
0.0
 10
909.3878580438919
 20
677.272899172904
 30
0.0
 10
909.3728209998513
 20
676.9242569436017
 30
0.0
 10
909.3432012714428
 20
676.5951185589192
 30
0.0
 10
909.3061498695943
 20
676.2846946447279
 30
0.0
 10
909.2548333827978
 20
675.9942772302525
 30
0.0
 10
909.1917358599377
 20
675.7228613480402
 30
0.0
 10
909.1216779792023
 20
675.4692748985193
 30
0.0
 10
909.0351984498085
 20
675.235595329125
 30
0.0
 10
908.9405453975862
 20
675.0185628197198
 30
0.0
 10
908.8375620920425
 20
674.815895052109
 30
0.0
 10
908.7272310609895
 20
674.6258006688413
 30
0.0
 10
908.6070282152683
 20
674.4498012472844
 30
0.0
 10
908.4789061279622
 20
674.2866500311178
 30
0.0
 10
908.3401226107211
 20
674.1392268936286
 30
0.0
 10
908.1945898447736
 20
674.0039796434271
 30
0.0
 10
908.0405043228675
 20
673.8836330663707
 30
0.0
 10
907.8795636343368
 20
673.778296370059
 30
0.0
 10
907.7150857442228
 20
673.6840932834583
 30
0.0
 10
907.544152296572
 20
673.6081328376301
 30
0.0
 10
907.3706369760473
 20
673.5429098868238
 30
0.0
 10
907.1920578534989
 20
673.4930802825127
 30
0.0
 10
907.008637531923
 20
673.4586257556084
 30
0.0
 10
906.8213089926574
 20
673.4344615305688
 30
0.0
 10
906.6946768439003
 20
673.4326181479968
 30
0.0
 10
906.6310313419291
 20
673.4316916612376
 30
0.0
  0
CIRCLE
  5
F0
330
1F
100
AcDbEntity
  8
0
  6
Continuous
 62
     7
370
    25
100
AcDbCircle
 10
951.4872798434
 20
785.6360078278
 30
0.0
 40
57.70000000000005
  0
SPLINE
  5
F1
330
1F
100
AcDbEntity
  8
0
  6
Continuous
 62
     7
370
    25
100
AcDbSpline
210
0.0
220
0.0
230
1.0
 70
     8
 71
     3
 72
    23
 73
    19
 74
     0
 42
0.00000001
 43
0.00000001
 40
0.0
 40
0.0
 40
0.0
 40
0.0
 40
0.0723010339955062
 40
0.1397003317393876
 40
0.2022885114847743
 40
0.2605995332222024
 40
0.3131903291553324
 40
0.3617389329854283
 40
0.4057064756322232
 40
0.4455399848948722
 40
0.5188319558616105
 40
0.589778239583577
 40
0.6588674786561478
 40
0.7284304780610663
 40
0.7972827036081004
 40
0.8648153774014439
 40
0.9313637528792685
 40
1.0
 40
1.0
 40
1.0
 40
1.0
 10
946.2848774957753
 20
678.2522044817503
 30
0.0
 10
946.3553890280415
 20
678.2531185914794
 30
0.0
 10
946.4916316777613
 20
678.2548848377604
 30
0.0
 10
946.6889342984672
 20
678.2599443053307
 30
0.0
 10
946.8720771972012
 20
678.2741112617122
 30
0.0
 10
947.0407442442274
 20
678.2882741464086
 30
0.0
 10
947.1946698304369
 20
678.3113017753544
 30
0.0
 10
947.3335129424419
 20
678.3387123420113
 30
0.0
 10
947.4594525925869
 20
678.3677018393746
 30
0.0
 10
947.6046858395274
 20
678.4170035237182
 30
0.0
 10
947.7694240074316
 20
678.4898667812815
 30
0.0
 10
947.9450425312132
 20
678.6029452638415
 30
0.0
 10
948.0998641759877
 20
678.737629499725
 30
0.0
 10
948.2306006050602
 20
678.8930374123081
 30
0.0
 10
948.3375982519829
 20
679.0641601228408
 30
0.0
 10
948.4119153151926
 20
679.2482672781202
 30
0.0
 10
948.4623091076098
 20
679.4407704370586
 30
0.0
 10
948.4668611792835
 20
679.5729264434353
 30
0.0
 10
948.4691723675702
 20
679.6400249945709
 30
0.0
  0
LINE
  5
F2
330
1F
100
AcDbEntity
  8
0
  6
Continuous
 62
     7
370
    25
100
AcDbLine
 10
945.8025057009
 20
678.2522044818
 30
0.0
 11
946.2848774958
 21
678.2522044818
 31
0.0
  0
LINE
  5
F3
330
1F
100
AcDbEntity
  8
0
  6
Continuous
 62
     7
370
    25
100
AcDbLine
 10
945.8025057009
 20
680.8163070459
 30
0.0
 11
945.8025057009
 21
678.2522044818
 31
0.0
  0
LINE
  5
F4
330
1F
100
AcDbEntity
  8
0
  6
Continuous
 62
     7
370
    25
100
AcDbLine
 10
946.7768646753
 20
680.8163070459
 30
0.0
 11
945.8025057009
 21
680.8163070459
 31
0.0
  0
SPLINE
  5
F5
330
1F
100
AcDbEntity
  8
0
  6
Continuous
 62
     7
370
    25
100
AcDbSpline
210
0.0
220
0.0
230
1.0
 70
     8
 71
     3
 72
    23
 73
    19
 74
     0
 42
0.00000001
 43
0.00000001
 40
0.0
 40
0.0
 40
0.0
 40
0.0
 40
0.0570031325129266
 40
0.1118178691207248
 40
0.1644023722182129
 40
0.2158698048987953
 40
0.2668411100818683
 40
0.3174789632053565
 40
0.36990213627276
 40
0.4234004494436386
 40
0.47971839829945
 40
0.5392414966442954
 40
0.6024306889434244
 40
0.6710295461473358
 40
0.7444847975608465
 40
0.8234539713786836
 40
0.9087403127306665
 40
1.0
 40
1.0
 40
1.0
 40
1.0
 10
948.4691723675702
 20
679.6400249945709
 30
0.0
 10
948.4679696700073
 20
679.6844267580304
 30
0.0
 10
948.4656104474038
 20
679.7715256656934
 30
0.0
 10
948.4462886128782
 20
679.8984956180509
 30
0.0
 10
948.4134484427398
 20
680.0179099095074
 30
0.0
 10
948.371267201048
 20
680.1314050188199
 30
0.0
 10
948.3123216268393
 20
680.2354321050378
 30
0.0
 10
948.2429194250061
 20
680.3335879809116
 30
0.0
 10
948.1590664186295
 20
680.4225299660475
 30
0.0
 10
948.0636211325589
 20
680.5056602479109
 30
0.0
 10
947.953887137454
 20
680.5793620257351
 30
0.0
 10
947.8299298990098
 20
680.6439123415604
 30
0.0
 10
947.6900723514286
 20
680.6958912596859
 30
0.0
 10
947.5366715400426
 20
680.7414138939204
 30
0.0
 10
947.3673661971885
 20
680.7733871369335
 30
0.0
 10
947.1841100751117
 20
680.8000234515782
 30
0.0
 10
946.9854021459072
 20
680.8135840047315
 30
0.0
 10
946.8479276258485
 20
680.8153791198737
 30
0.0
 10
946.7768646752626
 20
680.8163070458528
 30
0.0
  0
LINE
  5
F6
330
1F
100
AcDbEntity
  8
0
  6
Continuous
 62
     7
370
    25
100
AcDbLine
 10
919.7512236496
 20
680.8163070459
 30
0.0
 11
919.7512236496
 21
678.2522044818
 31
0.0
  0
LINE
  5
F7
330
1F
100
AcDbEntity
  8
0
  6
Continuous
 62
     7
370
    25
100
AcDbLine
 10
919.7512236496
 20
678.2522044818
 30
0.0
 11
920.2335954445
 21
678.2522044818
 31
0.0
  0
SPLINE
  5
F8
330
1F
100
AcDbEntity
  8
0
  6
Continuous
 62
     7
370
    25
100
AcDbSpline
210
0.0
220
0.0
230
1.0
 70
     8
 71
     3
 72
    23
 73
    19
 74
     0
 42
0.00000001
 43
0.00000001
 40
0.0
 40
0.0
 40
0.0
 40
0.0
 40
0.0723010339955051
 40
0.1397003317393853
 40
0.2022885114847721
 40
0.2605995332222003
 40
0.3131903291553326
 40
0.3617389329854274
 40
0.4057064756322223
 40
0.4455399848948725
 40
0.5188319558616087
 40
0.5897782395835773
 40
0.6588674786561481
 40
0.728430478061066
 40
0.7972827036081002
 40
0.8648153774014441
 40
0.9313637528792688
 40
1.0
 40
1.0
 40
1.0
 40
1.0
 10
920.2335954444933
 20
678.2522044817503
 30
0.0
 10
920.3041069767595
 20
678.2531185914794
 30
0.0
 10
920.4403496264794
 20
678.2548848377604
 30
0.0
 10
920.6376522471851
 20
678.2599443053307
 30
0.0
 10
920.8207951459192
 20
678.2741112617123
 30
0.0
 10
920.9894621929454
 20
678.2882741464085
 30
0.0
 10
921.1433877791549
 20
678.3113017753545
 30
0.0
 10
921.2822308911597
 20
678.3387123420113
 30
0.0
 10
921.4081705413049
 20
678.3677018393746
 30
0.0
 10
921.5534037882453
 20
678.4170035237182
 30
0.0
 10
921.7181419561496
 20
678.4898667812815
 30
0.0
 10
921.8937604799311
 20
678.6029452638414
 30
0.0
 10
922.0485821247056
 20
678.7376294997251
 30
0.0
 10
922.1793185537782
 20
678.893037412308
 30
0.0
 10
922.2863162007008
 20
679.0641601228409
 30
0.0
 10
922.3606332639105
 20
679.2482672781202
 30
0.0
 10
922.4110270563278
 20
679.4407704370586
 30
0.0
 10
922.4155791280015
 20
679.5729264434353
 30
0.0
 10
922.4178903162882
 20
679.6400249945709
 30
0.0
  0
SPLINE
  5
F9
330
1F
100
AcDbEntity
  8
0
  6
Continuous
 62
     7
370
    25
100
AcDbSpline
210
0.0
220
0.0
230
1.0
 70
     8
 71
     3
 72
    23
 73
    19
 74
     0
 42
0.00000001
 43
0.00000001
 40
0.0
 40
0.0
 40
0.0
 40
0.0
 40
0.0570031325129265
 40
0.1118178691207245
 40
0.1644023722182133
 40
0.2158698048987947
 40
0.2668411100818684
 40
0.3174789632053574
 40
0.3699021362727589
 40
0.4234004494436375
 40
0.4797183982994501
 40
0.5392414966442969
 40
0.6024306889434231
 40
0.6710295461473359
 40
0.7444847975608481
 40
0.8234539713786851
 40
0.9087403127306665
 40
1.0
 40
1.0
 40
1.0
 40
1.0
 10
922.4178903162882
 20
679.6400249945709
 30
0.0
 10
922.4166876187252
 20
679.6844267580303
 30
0.0
 10
922.4143283961218
 20
679.7715256656934
 30
0.0
 10
922.3950065615962
 20
679.8984956180509
 30
0.0
 10
922.3621663914578
 20
680.0179099095074
 30
0.0
 10
922.319985149766
 20
680.1314050188199
 30
0.0
 10
922.2610395755572
 20
680.2354321050378
 30
0.0
 10
922.1916373737241
 20
680.3335879809116
 30
0.0
 10
922.1077843673476
 20
680.4225299660475
 30
0.0
 10
922.0123390812768
 20
680.5056602479109
 30
0.0
 10
921.9026050861719
 20
680.5793620257351
 30
0.0
 10
921.7786478477278
 20
680.6439123415604
 30
0.0
 10
921.6387903001466
 20
680.6958912596859
 30
0.0
 10
921.4853894887605
 20
680.7414138939203
 30
0.0
 10
921.3160841459065
 20
680.7733871369335
 30
0.0
 10
921.1328280238297
 20
680.8000234515782
 30
0.0
 10
920.9341200946252
 20
680.8135840047315
 30
0.0
 10
920.7966455745665
 20
680.8153791198737
 30
0.0
 10
920.7255826239804
 20
680.8163070458528
 30
0.0
  0
LINE
  5
FA
330
1F
100
AcDbEntity
  8
0
  6
Continuous
 62
     7
370
    25
100
AcDbLine
 10
920.725582624
 20
680.8163070459
 30
0.0
 11
919.7512236496
 21
680.8163070459
 31
0.0
  0
LINE
  5
FB
330
1F
100
AcDbEntity
  8
0
  6
Continuous
 62
     7
370
    25
100
AcDbLine
 10
945.8025057009
 20
677.4316916612
 30
0.0
 11
945.8025057009
 21
674.4573326869
 31
0.0
  0
LINE
  5
FC
330
1F
100
AcDbEntity
  8
0
  6
Continuous
 62
     7
370
    25
100
AcDbLine
 10
945.8025057009
 20
674.4573326869
 30
0.0
 11
946.8249415983
 21
674.4573326869
 31
0.0
  0
SPLINE
  5
FD
330
1F
100
AcDbEntity
  8
0
  6
Continuous
 62
     7
370
    25
100
AcDbSpline
210
0.0
220
0.0
230
1.0
 70
     8
 71
     3
 72
    23
 73
    19
 74
     0
 42
0.00000001
 43
0.00000001
 40
0.0
 40
0.0
 40
0.0
 40
0.0
 40
0.0725024889330346
 40
0.1397389892678939
 40
0.2017951348259222
 40
0.2598219344148622
 40
0.3122059893845978
 40
0.3607734341243395
 40
0.4045403426007491
 40
0.4436980985527638
 40
0.5168407942439704
 40
0.5878743359442832
 40
0.6579654175616315
 40
0.7289693886473123
 40
0.7993077199548835
 40
0.8666357778344734
 40
0.9331163290572757
 40
1.0
 40
1.0
 40
1.0
 40
1.0
 10
946.8249415983394
 20
674.4573326868785
 30
0.0
 10
946.898127714712
 20
674.4582098237853
 30
0.0
 10
947.0391843057457
 20
674.4599003895386
 30
0.0
 10
947.2428442603078
 20
674.4654193713919
 30
0.0
 10
947.4316056404247
 20
674.4779731444182
 30
0.0
 10
947.6046070935205
 20
674.4977350865069
 30
0.0
 10
947.7637166995336
 20
674.5191715417576
 30
0.0
 10
947.907025735028
 20
674.5479973267213
 30
0.0
 10
948.0356958915115
 20
674.581023522208
 30
0.0
 10
948.1848943092014
 20
674.6320730587453
 30
0.0
 10
948.3529023281293
 20
674.7113792779847
 30
0.0
 10
948.5339557141535
 20
674.830954652655
 30
0.0
 10
948.6949299270542
 20
674.9734079275644
 30
0.0
 10
948.8316276623837
 20
675.1382785885326
 30
0.0
 10
948.9436573504887
 20
675.3175501929402
 30
0.0
 10
949.0251555335368
 20
675.5075967071177
 30
0.0
 10
949.0754203488948
 20
675.7052779126454
 30
0.0
 10
949.0815053072718
 20
675.8400589698865
 30
0.0
 10
949.0845569829548
 20
675.907653199699
 30
0.0
  0
SPLINE
  5
FE
330
1F
100
AcDbEntity
  8
0
  6
Continuous
 62
     7
370
    25
100
AcDbSpline
210
0.0
220
0.0
230
1.0
 70
     8
 71
     3
 72
    19
 73
    15
 74
     0
 42
0.00000001
 43
0.00000001
 40
0.0
 40
0.0
 40
0.0
 40
0.0
 40
0.0602873979279692
 40
0.1196023547075216
 40
0.1775033710185429
 40
0.2351426637323318
 40
0.2921325932269367
 40
0.3508712086415654
 40
0.4100978625665956
 40
0.4707315215304493
 40
0.5948287040804159
 40
0.7225788240942899
 40
0.8566913895440185
 40
1.0
 40
1.0
 40
1.0
 40
1.0
 10
949.0845569829548
 20
675.907653199699
 30
0.0
 10
949.0839258873264
 20
675.9499236923049
 30
0.0
 10
949.0826738756989
 20
676.0337828506708
 30
0.0
 10
949.063792470159
 20
676.1570190088146
 30
0.0
 10
949.0363321963448
 20
676.2763924335216
 30
0.0
 10
949.0008317760418
 20
676.3922272689152
 30
0.0
 10
948.9491301369766
 20
676.502429271996
 30
0.0
 10
948.8887723197946
 20
676.6091779795084
 30
0.0
 10
948.8180034017497
 20
676.7126145039058
 30
0.0
 10
948.7077310226238
 20
676.8433853689329
 30
0.0
 10
948.5473379151495
 20
676.9940528269977
 30
0.0
 10
948.319436714137
 20
677.141567117893
 30
0.0
 10
948.0603000330646
 20
677.260533534093
 30
0.0
 10
947.8723514778735
 20
677.3110466228666
 30
0.0
 10
947.7752621111599
 20
677.3371403791863
 30
0.0
  0
SPLINE
  5
FF
330
1F
100
AcDbEntity
  8
0
  6
Continuous
 62
     7
370
    25
100
AcDbSpline
210
0.0
220
0.0
230
1.0
 70
     8
 71
     3
 72
    15
 73
    11
 74
     0
 42
0.00000001
 43
0.00000001
 40
0.0
 40
0.0
 40
0.0
 40
0.0
 40
0.0793064855229996
 40
0.1719528189279322
 40
0.2770565073915914
 40
0.3947305758644756
 40
0.5261773212767594
 40
0.6713447665976129
 40
0.8292852571892532
 40
1.0
 40
1.0
 40
1.0
 40
1.0
 10
947.7752621111599
 20
677.3371403791863
 30
0.0
 10
947.7363384634975
 20
677.3450377139415
 30
0.0
 10
947.6519439667
 20
677.3621607646508
 30
0.0
 10
947.5143266400056
 20
677.3802355152551
 30
0.0
 10
947.3572160825147
 20
677.3963385092942
 30
0.0
 10
947.1802495059978
 20
677.4082497268113
 30
0.0
 10
946.9832030120238
 20
677.4205618263496
 30
0.0
 10
946.7656557693139
 20
677.4253499889147
 30
0.0
 10
946.5284961929499
 20
677.4310625834141
 30
0.0
 10
946.3639421988934
 20
677.4314766045381
 30
0.0
 10
946.278467239365
 20
677.4316916612376
 30
0.0
  0
LINE
  5
100
330
1F
100
AcDbEntity
  8
0
  6
Continuous
 62
     7
370
    25
100
AcDbLine
 10
946.2784672394
 20
677.4316916612
 30
0.0
 11
945.8025057009
 21
677.4316916612
 31
0.0
  0
LINE
  5
101
330
1F
100
AcDbEntity
  8
0
  6
Continuous
 62
     7
370
    25
100
AcDbLine
 10
919.7512236496
 20
677.4316916612
 30
0.0
 11
919.7512236496
 21
674.4573326869
 31
0.0
  0
LINE
  5
102
330
1F
100
AcDbEntity
  8
0
  6
Continuous
 62
     7
370
    25
100
AcDbLine
 10
919.7512236496
 20
674.4573326869
 30
0.0
 11
920.7736595471
 21
674.4573326869
 31
0.0
  0
SPLINE
  5
103
330
1F
100
AcDbEntity
  8
0
  6
Continuous
 62
     7
370
    25
100
AcDbSpline
210
0.0
220
0.0
230
1.0
 70
     8
 71
     3
 72
    23
 73
    19
 74
     0
 42
0.00000001
 43
0.00000001
 40
0.0
 40
0.0
 40
0.0
 40
0.0
 40
0.0725024889330346
 40
0.1397389892678949
 40
0.2017951348259232
 40
0.2598219344148621
 40
0.3122059893845976
 40
0.3607734341243382
 40
0.4045403426007489
 40
0.4436980985527635
 40
0.5168407942439702
 40
0.587874335944282
 40
0.6579654175616318
 40
0.7289693886473126
 40
0.7993077199548838
 40
0.8666357778344737
 40
0.9331163290572759
 40
1.0
 40
1.0
 40
1.0
 40
1.0
 10
920.7736595470574
 20
674.4573326868784
 30
0.0
 10
920.84684566343
 20
674.4582098237853
 30
0.0
 10
920.9879022544636
 20
674.4599003895386
 30
0.0
 10
921.1915622090257
 20
674.4654193713919
 30
0.0
 10
921.3803235891426
 20
674.4779731444183
 30
0.0
 10
921.5533250422384
 20
674.4977350865069
 30
0.0
 10
921.7124346482515
 20
674.5191715417576
 30
0.0
 10
921.855743683746
 20
674.5479973267213
 30
0.0
 10
921.9844138402293
 20
674.581023522208
 30
0.0
 10
922.1336122579194
 20
674.6320730587453
 30
0.0
 10
922.3016202768473
 20
674.7113792779847
 30
0.0
 10
922.4826736628715
 20
674.830954652655
 30
0.0
 10
922.6436478757721
 20
674.9734079275644
 30
0.0
 10
922.7803456111016
 20
675.1382785885326
 30
0.0
 10
922.8923752992066
 20
675.3175501929402
 30
0.0
 10
922.9738734822548
 20
675.5075967071176
 30
0.0
 10
923.0241382976128
 20
675.7052779126456
 30
0.0
 10
923.0302232559898
 20
675.8400589698865
 30
0.0
 10
923.0332749316727
 20
675.907653199699
 30
0.0
  0
SPLINE
  5
104
330
1F
100
AcDbEntity
  8
0
  6
Continuous
 62
     7
370
    25
100
AcDbSpline
210
0.0
220
0.0
230
1.0
 70
     8
 71
     3
 72
    15
 73
    11
 74
     0
 42
0.00000001
 43
0.00000001
 40
0.0
 40
0.0
 40
0.0
 40
0.0
 40
0.0793064855229972
 40
0.1719528189279295
 40
0.2770565073915884
 40
0.3947305758644747
 40
0.5261773212767582
 40
0.6713447665976112
 40
0.8292852571892513
 40
1.0
 40
1.0
 40
1.0
 40
1.0
 10
921.7239800598779
 20
677.3371403791863
 30
0.0
 10
921.6850564122155
 20
677.3450377139415
 30
0.0
 10
921.6006619154178
 20
677.3621607646508
 30
0.0
 10
921.4630445887234
 20
677.380235515255
 30
0.0
 10
921.3059340312325
 20
677.3963385092942
 30
0.0
 10
921.1289674547158
 20
677.4082497268113
 30
0.0
 10
920.9319209607418
 20
677.4205618263496
 30
0.0
 10
920.7143737180317
 20
677.4253499889148
 30
0.0
 10
920.4772141416678
 20
677.431062583414
 30
0.0
 10
920.3126601476114
 20
677.4314766045381
 30
0.0
 10
920.227185188083
 20
677.4316916612376
 30
0.0
  0
LINE
  5
105
330
1F
100
AcDbEntity
  8
0
  6
Continuous
 62
     7
370
    25
100
AcDbLine
 10
920.2271851881
 20
677.4316916612
 30
0.0
 11
919.7512236496
 21
677.4316916612
 31
0.0
  0
SPLINE
  5
106
330
1F
100
AcDbEntity
  8
0
  6
Continuous
 62
     7
370
    25
100
AcDbSpline
210
0.0
220
0.0
230
1.0
 70
     8
 71
     3
 72
    19
 73
    15
 74
     0
 42
0.00000001
 43
0.00000001
 40
0.0
 40
0.0
 40
0.0
 40
0.0
 40
0.0602873979279692
 40
0.1196023547075216
 40
0.1775033710185429
 40
0.2351426637323308
 40
0.2921325932269357
 40
0.3508712086415661
 40
0.4100978625665962
 40
0.4707315215304479
 40
0.5948287040804158
 40
0.7225788240942896
 40
0.8566913895440168
 40
1.0
 40
1.0
 40
1.0
 40
1.0
 10
923.0332749316727
 20
675.907653199699
 30
0.0
 10
923.0326438360444
 20
675.9499236923049
 30
0.0
 10
923.0313918244168
 20
676.0337828506708
 30
0.0
 10
923.012510418877
 20
676.1570190088146
 30
0.0
 10
922.9850501450627
 20
676.2763924335214
 30
0.0
 10
922.9495497247598
 20
676.3922272689152
 30
0.0
 10
922.8978480856945
 20
676.502429271996
 30
0.0
 10
922.8374902685126
 20
676.6091779795084
 30
0.0
 10
922.7667213504677
 20
676.7126145039058
 30
0.0
 10
922.6564489713415
 20
676.8433853689329
 30
0.0
 10
922.4960558638674
 20
676.9940528269979
 30
0.0
 10
922.2681546628551
 20
677.141567117893
 30
0.0
 10
922.0090179817824
 20
677.260533534093
 30
0.0
 10
921.8210694265915
 20
677.3110466228666
 30
0.0
 10
921.7239800598779
 20
677.3371403791863
 30
0.0
  0
LINE
  5
107
330
1F
100
AcDbEntity
  8
0
  6
Continuous
 62
     7
370
    25
100
AcDbLine
 10
939.897056983
 20
680.0775249946
 30
0.0
 11
938.4483390342
 21
677.021435251
 31
0.0
  0
LINE
  5
108
330
1F
100
AcDbEntity
  8
0
  6
Continuous
 62
     7
370
    25
100
AcDbLine
 10
938.4483390342
 20
677.021435251
 30
0.0
 11
941.3073133932
 21
677.021435251
 31
0.0
  0
LINE
  5
109
330
1F
100
AcDbEntity
  8
0
  6
Continuous
 62
     7
370
    25
100
AcDbLine
 10
941.3073133932
 20
677.021435251
 30
0.0
 11
939.897056983
 21
680.0775249946
 31
0.0
  0
SPLINE
  5
10A
330
1F
100
AcDbEntity
  8
0
  6
Continuous
 62
     7
370
    25
100
AcDbSpline
210
0.0
220
0.0
230
1.0
 70
     8
 71
     3
 72
    19
 73
    15
 74
     0
 42
0.00000001
 43
0.00000001
 40
0.0
 40
0.0
 40
0.0
 40
0.0
 40
0.1128134007444587
 40
0.2253938839207277
 40
0.3395948145626995
 40
0.4596754102248637
 40
0.5217351900879329
 40
0.5839258387389145
 40
0.6481741447653694
 40
0.7138810381130627
 40
0.7810044549073876
 40
0.8514509275565517
 40
0.9240506926641738
 40
1.0
 40
1.0
 40
1.0
 40
1.0
 10
906.6550698034677
 20
674.2522044817503
 30
0.0
 10
906.7436587672522
 20
674.2558565521766
 30
0.0
 10
906.9206537916745
 20
674.2631531528671
 30
0.0
 10
907.1792453234328
 20
674.3335502668654
 30
0.0
 10
907.4302859407638
 20
674.439766357068
 30
0.0
 10
907.6270218042583
 20
674.5653606551691
 30
0.0
 10
907.7766961894044
 20
674.6849682653435
 30
0.0
 10
907.8839350239323
 20
674.7869446043445
 30
0.0
 10
907.9823625632083
 20
674.901129443902
 30
0.0
 10
908.0757158771618
 20
675.0243278345647
 30
0.0
 10
908.1613366215614
 20
675.1588935126761
 30
0.0
 10
908.2391952220075
 20
675.3041793989985
 30
0.0
 10
908.3102428735394
 20
675.4605889485122
 30
0.0
 10
908.3507206928542
 20
675.569776923634
 30
0.0
 10
908.3714159573137
 20
675.6256019176477
 30
0.0
  0
SPLINE
  5
10B
330
1F
100
AcDbEntity
  8
0
  6
Continuous
 62
     7
370
    25
100
AcDbSpline
210
0.0
220
0.0
230
1.0
 70
     8
 71
     3
 72
    27
 73
    23
 74
     0
 42
0.00000001
 43
0.00000001
 40
0.0
 40
0.0
 40
0.0
 40
0.0
 40
0.0656811979906367
 40
0.1284864641740656
 40
0.188175130328008
 40
0.2451061306699845
 40
0.2994484245294763
 40
0.3508229360093826
 40
0.3999416805337763
 40
0.4466717436323699
 40
0.4912545333734974
 40
0.5333763442704377
 40
0.573852754968223
 40
0.6125263117194524
 40
0.6495971364453287
 40
0.6855320415538496
 40
0.7201057860682003
 40
0.7538376629736502
 40
0.8189254160467138
 40
0.8804934616501642
 40
0.9403113338460578
 40
1.0
 40
1.0
 40
1.0
 40
1.0
 10
908.6743005726984
 20
677.6368198663657
 30
0.0
 10
908.6730429973089
 20
677.7329743178356
 30
0.0
 10
908.6705829110105
 20
677.9210729801911
 30
0.0
 10
908.6611795105507
 20
678.1965431074188
 30
0.0
 10
908.636897054569
 20
678.4581837037827
 30
0.0
 10
908.6099276400216
 20
678.7071219270154
 30
0.0
 10
908.5701625632396
 20
678.9419797617684
 30
0.0
 10
908.5272875760847
 20
679.16472331664
 30
0.0
 10
908.4696848051356
 20
679.3725930876558
 30
0.0
 10
908.4081538909094
 20
679.5688435601394
 30
0.0
 10
908.3377301296947
 20
679.7512450561411
 30
0.0
 10
908.2602084513917
 20
679.9206479963971
 30
0.0
 10
908.1774158599196
 20
680.0778702244127
 30
0.0
 10
908.0874907388699
 20
680.2224803765876
 30
0.0
 10
907.9915006061492
 20
680.3551261889559
 30
0.0
 10
907.8869119222691
 20
680.473148119372
 30
0.0
 10
907.7778733558442
 20
680.5802040464772
 30
0.0
 10
907.6251483596759
 20
680.7024042044695
 30
0.0
 10
907.4252071258464
 20
680.8270023655738
 30
0.0
 10
907.176417074778
 20
680.9416669595404
 30
0.0
 10
906.9175127450611
 20
681.007514485531
 30
0.0
 10
906.7424877071365
 20
681.0167983416181
 30
0.0
 10
906.6550698034677
 20
681.021435250981
 30
0.0
  0
SPLINE
  5
10C
330
1F
100
AcDbEntity
  8
0
  6
Continuous
 62
     7
370
    25
100
AcDbSpline
210
0.0
220
0.0
230
1.0
 70
     8
 71
     3
 72
    27
 73
    23
 74
     0
 42
0.00000001
 43
0.00000001
 40
0.0
 40
0.0
 40
0.0
 40
0.0
 40
0.0603866193110626
 40
0.1208832485859964
 40
0.1827546186251395
 40
0.2478110297583506
 40
0.2812991000432497
 40
0.3150876241506568
 40
0.3497023955502753
 40
0.3848565811185573
 40
0.4209661972261021
 40
0.4585111882611392
 40
0.4971747221273131
 40
0.5376020478662709
 40
0.580503018420013
 40
0.6274675400267059
 40
0.6783882095592453
 40
0.733983220592561
 40
0.7937467045508348
 40
0.8577136721607319
 40
0.9266978643613873
 40
1.0
 40
1.0
 40
1.0
 40
1.0
 10
906.6550698034677
 20
681.0214352509811
 30
0.0
 10
906.5665884501263
 20
681.0167919443588
 30
0.0
 10
906.3894645516004
 20
681.0074968721211
 30
0.0
 10
906.1278692265107
 20
680.9419122924833
 30
0.0
 10
905.8771164227568
 20
680.8275969417687
 30
0.0
 10
905.6777039092052
 20
680.7019915189918
 30
0.0
 10
905.5248723971878
 20
680.5823610928393
 30
0.0
 10
905.4172548123267
 20
680.47862062642
 30
0.0
 10
905.316349275829
 20
680.3651434735854
 30
0.0
 10
905.2233945326573
 20
680.2407962396418
 30
0.0
 10
905.1363333139321
 20
680.1071611143409
 30
0.0
 10
905.056376713759
 20
679.9631867949688
 30
0.0
 10
904.984337103071
 20
679.8081436767395
 30
0.0
 10
904.9178581632306
 20
679.6421632529243
 30
0.0
 10
904.8594060763136
 20
679.4602639513574
 30
0.0
 10
904.8111913032164
 20
679.2596491088581
 30
0.0
 10
904.7666494675138
 20
679.0391647847684
 30
0.0
 10
904.7351174243125
 20
678.7975201951795
 30
0.0
 10
904.7070859825715
 20
678.5363038446212
 30
0.0
 10
904.6890714729662
 20
678.25452711724
 30
0.0
 10
904.6750571701795
 20
677.9526656763203
 30
0.0
 10
904.6745578230646
 20
677.7442104568856
 30
0.0
 10
904.6743005726984
 20
677.6368198663657
 30
0.0
  0
SPLINE
  5
10D
330
1F
100
AcDbEntity
  8
0
  6
Continuous
 62
     7
370
    25
100
AcDbSpline
210
0.0
220
0.0
230
1.0
 70
     8
 71
     3
 72
    15
 73
    11
 74
     0
 42
0.00000001
 43
0.00000001
 40
0.0
 40
0.0
 40
0.0
 40
0.0
 40
0.1105883385953364
 40
0.2245417540535913
 40
0.3425034940501052
 40
0.4643240984173589
 40
0.5907560327017656
 40
0.7222274753555102
 40
0.8588428362087218
 40
1.0
 40
1.0
 40
1.0
 40
1.0
 10
908.3714159573137
 20
675.6256019176477
 30
0.0
 10
908.3955342836996
 20
675.696984179285
 30
0.0
 10
908.4445048296022
 20
675.8419207832702
 30
0.0
 10
908.5076174565069
 20
676.0667519880255
 30
0.0
 10
908.5573212261153
 20
676.3026440198837
 30
0.0
 10
908.6020374906855
 20
676.5481871438116
 30
0.0
 10
908.632558761308
 20
676.8051921746938
 30
0.0
 10
908.6571251916696
 20
677.0728639093584
 30
0.0
 10
908.6715953332451
 20
677.3514041658966
 30
0.0
 10
908.6733890499795
 20
677.5406498600571
 30
0.0
 10
908.6743005726984
 20
677.6368198663657
 30
0.0
  0
SPLINE
  5
10E
330
1F
100
AcDbEntity
  8
0
  6
Continuous
 62
     7
370
    25
100
AcDbSpline
210
0.0
220
0.0
230
1.0
 70
     8
 71
     3
 72
    27
 73
    23
 74
     0
 42
0.00000001
 43
0.00000001
 40
0.0
 40
0.0
 40
0.0
 40
0.0
 40
0.0729510658758663
 40
0.1415836941865471
 40
0.2059264601708678
 40
0.2653013571846064
 40
0.3205972327139289
 40
0.3718165030988104
 40
0.418789769709452
 40
0.4616987286157648
 40
0.5021335821035656
 40
0.5408043152926488
 40
0.5781805253279672
 40
0.6142968652075143
 40
0.649678243264788
 40
0.6842994600896384
 40
0.718358952772361
 40
0.7520808646475975
 40
0.817652438602386
 40
0.8797220764054368
 40
0.9399655597309876
 40
1.0
 40
1.0
 40
1.0
 40
1.0
 10
904.6743005726984
 20
677.6368198663657
 30
0.0
 10
904.674573594567
 20
677.5299656976712
 30
0.0
 10
904.6751034764034
 20
677.3225827381303
 30
0.0
 10
904.6889462205799
 20
677.0212267130424
 30
0.0
 10
904.7078038937216
 20
676.7401516757461
 30
0.0
 10
904.7321268587161
 20
676.4790007352542
 30
0.0
 10
904.7682478839185
 20
676.2386578495175
 30
0.0
 10
904.8087205417875
 20
676.0174700025116
 30
0.0
 10
904.85797331806
 20
675.8166077462514
 30
0.0
 10
904.9162476446131
 20
675.6346927503554
 30
0.0
 10
904.9826227232268
 20
675.4686377366517
 30
0.0
 10
905.0550932687584
 20
675.3141206735035
 30
0.0
 10
905.1329463496838
 20
675.1693162473647
 30
0.0
 10
905.2200758366621
 20
675.0355251425095
 30
0.0
 10
905.314967409757
 20
674.9123110532
 30
0.0
 10
905.4154777163569
 20
674.7974931507491
 30
0.0
 10
905.5253579089103
 20
674.6951000505535
 30
0.0
 10
905.6773664632949
 20
674.572295810486
 30
0.0
 10
905.878044119128
 20
674.4453949333898
 30
0.0
 10
906.130890873942
 20
674.3348895852033
 30
0.0
 10
906.3907044761854
 20
674.2654439705009
 30
0.0
 10
906.5670501906699
 20
674.2566125283176
 30
0.0
 10
906.6550698034677
 20
674.2522044817503
 30
0.0
  0
SPLINE
  5
10F
330
1F
100
AcDbEntity
  8
0
  6
Continuous
 62
     7
370
    25
100
AcDbSpline
210
0.0
220
0.0
230
1.0
 70
     8
 71
     3
 72
    19
 73
    15
 74
     0
 42
0.00000001
 43
0.00000001
 40
0.0
 40
0.0
 40
0.0
 40
0.0
 40
0.1128134007444586
 40
0.2253938839207275
 40
0.3395948145626992
 40
0.4596754102248658
 40
0.5217351900879327
 40
0.5839258387389142
 40
0.6481741447653692
 40
0.7138810381130626
 40
0.7810044549073872
 40
0.8514509275565529
 40
0.9240506926641749
 40
0.9999999999999999
 40
0.9999999999999999
 40
0.9999999999999999
 40
0.9999999999999999
 10
900.5012236496215
 20
674.2522044817503
 30
0.0
 10
900.589812613406
 20
674.2558565521766
 30
0.0
 10
900.7668076378283
 20
674.2631531528671
 30
0.0
 10
901.0253991695866
 20
674.3335502668654
 30
0.0
 10
901.2764397869176
 20
674.439766357068
 30
0.0
 10
901.4731756504121
 20
674.5653606551691
 30
0.0
 10
901.6228500355583
 20
674.6849682653435
 30
0.0
 10
901.7300888700861
 20
674.7869446043445
 30
0.0
 10
901.8285164093621
 20
674.901129443902
 30
0.0
 10
901.9218697233156
 20
675.0243278345647
 30
0.0
 10
902.0074904677152
 20
675.1588935126761
 30
0.0
 10
902.0853490681615
 20
675.3041793989985
 30
0.0
 10
902.1563967196932
 20
675.460588948512
 30
0.0
 10
902.1968745390081
 20
675.569776923634
 30
0.0
 10
902.2175698034677
 20
675.6256019176477
 30
0.0
  0
SPLINE
  5
110
330
1F
100
AcDbEntity
  8
0
  6
Continuous
 62
     7
370
    25
100
AcDbSpline
210
0.0
220
0.0
230
1.0
 70
     8
 71
     3
 72
    27
 73
    23
 74
     0
 42
0.00000001
 43
0.00000001
 40
0.0
 40
0.0
 40
0.0
 40
0.0
 40
0.0603866193110626
 40
0.1208832485859964
 40
0.1827546186251395
 40
0.2478110297583506
 40
0.2812991000432497
 40
0.3150876241506568
 40
0.3497023955502763
 40
0.3848565811185574
 40
0.4209661972261022
 40
0.4585111882611392
 40
0.4971747221273132
 40
0.5376020478662704
 40
0.580503018420013
 40
0.6274675400267059
 40
0.6783882095592453
 40
0.733983220592561
 40
0.7937467045508348
 40
0.8577136721607319
 40
0.9266978643613873
 40
1.0
 40
1.0
 40
1.0
 40
1.0
 10
900.5012236496215
 20
681.0214352509811
 30
0.0
 10
900.4127422962802
 20
681.0167919443588
 30
0.0
 10
900.2356183977543
 20
681.0074968721211
 30
0.0
 10
899.9740230726645
 20
680.9419122924833
 30
0.0
 10
899.7232702689107
 20
680.8275969417687
 30
0.0
 10
899.523857755359
 20
680.7019915189918
 30
0.0
 10
899.3710262433416
 20
680.5823610928393
 30
0.0
 10
899.2634086584806
 20
680.47862062642
 30
0.0
 10
899.1625031219829
 20
680.3651434735855
 30
0.0
 10
899.0695483788112
 20
680.2407962396418
 30
0.0
 10
898.982487160086
 20
680.1071611143409
 30
0.0
 10
898.902530559913
 20
679.9631867949689
 30
0.0
 10
898.8304909492249
 20
679.8081436767394
 30
0.0
 10
898.7640120093845
 20
679.6421632529243
 30
0.0
 10
898.7055599224674
 20
679.4602639513575
 30
0.0
 10
898.6573451493703
 20
679.2596491088581
 30
0.0
 10
898.6128033136677
 20
679.0391647847684
 30
0.0
 10
898.5812712704663
 20
678.7975201951795
 30
0.0
 10
898.5532398287253
 20
678.5363038446212
 30
0.0
 10
898.5352253191201
 20
678.25452711724
 30
0.0
 10
898.5212110163333
 20
677.9526656763203
 30
0.0
 10
898.5207116692185
 20
677.7442104568856
 30
0.0
 10
898.5204544188522
 20
677.6368198663657
 30
0.0
  0
SPLINE
  5
111
330
1F
100
AcDbEntity
  8
0
  6
Continuous
 62
     7
370
    25
100
AcDbSpline
210
0.0
220
0.0
230
1.0
 70
     8
 71
     3
 72
    27
 73
    23
 74
     0
 42
0.00000001
 43
0.00000001
 40
0.0
 40
0.0
 40
0.0
 40
0.0
 40
0.0729510658758663
 40
0.1415836941865471
 40
0.2059264601708679
 40
0.2653013571846065
 40
0.3205972327139291
 40
0.3718165030988106
 40
0.4187897697094522
 40
0.461698728615765
 40
0.5021335821035658
 40
0.540804315292649
 40
0.578180525327968
 40
0.6142968652075143
 40
0.649678243264788
 40
0.6842994600896384
 40
0.7183589527723611
 40
0.7520808646475976
 40
0.8176524386023875
 40
0.8797220764054381
 40
0.9399655597309875
 40
1.0
 40
1.0
 40
1.0
 40
1.0
 10
898.5204544188522
 20
677.6368198663657
 30
0.0
 10
898.5207274407209
 20
677.5299656976712
 30
0.0
 10
898.5212573225573
 20
677.3225827381303
 30
0.0
 10
898.5351000667338
 20
677.0212267130424
 30
0.0
 10
898.5539577398754
 20
676.740151675746
 30
0.0
 10
898.57828070487
 20
676.4790007352542
 30
0.0
 10
898.6144017300724
 20
676.2386578495176
 30
0.0
 10
898.6548743879414
 20
676.0174700025116
 30
0.0
 10
898.7041271642139
 20
675.8166077462514
 30
0.0
 10
898.7624014907669
 20
675.6346927503554
 30
0.0
 10
898.8287765693806
 20
675.4686377366517
 30
0.0
 10
898.9012471149122
 20
675.3141206735035
 30
0.0
 10
898.9791001958378
 20
675.1693162473646
 30
0.0
 10
899.0662296828159
 20
675.0355251425095
 30
0.0
 10
899.1611212559108
 20
674.9123110532
 30
0.0
 10
899.2616315625108
 20
674.7974931507491
 30
0.0
 10
899.3715117550643
 20
674.6951000505535
 30
0.0
 10
899.5235203094487
 20
674.572295810486
 30
0.0
 10
899.7241979652819
 20
674.4453949333898
 30
0.0
 10
899.9770447200958
 20
674.3348895852033
 30
0.0
 10
900.2368583223393
 20
674.2654439705008
 30
0.0
 10
900.4132040368237
 20
674.2566125283176
 30
0.0
 10
900.5012236496215
 20
674.2522044817503
 30
0.0
  0
SPLINE
  5
112
330
1F
100
AcDbEntity
  8
0
  6
Continuous
 62
     7
370
    25
100
AcDbSpline
210
0.0
220
0.0
230
1.0
 70
     8
 71
     3
 72
    27
 73
    23
 74
     0
 42
0.00000001
 43
0.00000001
 40
0.0
 40
0.0
 40
0.0
 40
0.0
 40
0.0656811979906367
 40
0.1284864641740656
 40
0.1881751303280078
 40
0.2451061306699842
 40
0.2994484245294763
 40
0.3508229360093825
 40
0.3999416805337759
 40
0.4466717436323699
 40
0.4912545333734973
 40
0.5333763442704369
 40
0.5738527549682236
 40
0.6125263117194523
 40
0.6495971364453286
 40
0.6855320415538506
 40
0.7201057860682002
 40
0.7538376629736502
 40
0.8189254160467137
 40
0.8804934616501625
 40
0.9403113338460563
 40
1.0
 40
1.0
 40
1.0
 40
1.0
 10
902.5204544188522
 20
677.6368198663657
 30
0.0
 10
902.5191968434627
 20
677.7329743178356
 30
0.0
 10
902.5167367571643
 20
677.9210729801911
 30
0.0
 10
902.5073333567046
 20
678.1965431074188
 30
0.0
 10
902.4830509007229
 20
678.4581837037827
 30
0.0
 10
902.4560814861754
 20
678.7071219270154
 30
0.0
 10
902.4163164093934
 20
678.9419797617684
 30
0.0
 10
902.3734414222386
 20
679.16472331664
 30
0.0
 10
902.3158386512895
 20
679.3725930876557
 30
0.0
 10
902.2543077370632
 20
679.5688435601394
 30
0.0
 10
902.1838839758485
 20
679.7512450561411
 30
0.0
 10
902.1063622975455
 20
679.9206479963971
 30
0.0
 10
902.0235697060734
 20
680.0778702244125
 30
0.0
 10
901.9336445850237
 20
680.2224803765876
 30
0.0
 10
901.837654452303
 20
680.3551261889558
 30
0.0
 10
901.733065768423
 20
680.473148119372
 30
0.0
 10
901.624027201998
 20
680.5802040464772
 30
0.0
 10
901.4713022058298
 20
680.7024042044695
 30
0.0
 10
901.2713609720004
 20
680.8270023655738
 30
0.0
 10
901.0225709209318
 20
680.9416669595403
 30
0.0
 10
900.7636665912149
 20
681.007514485531
 30
0.0
 10
900.5886415532904
 20
681.0167983416181
 30
0.0
 10
900.5012236496215
 20
681.0214352509811
 30
0.0
  0
SPLINE
  5
113
330
1F
100
AcDbEntity
  8
0
  6
Continuous
 62
     7
370
    25
100
AcDbSpline
210
0.0
220
0.0
230
1.0
 70
     8
 71
     3
 72
    15
 73
    11
 74
     0
 42
0.00000001
 43
0.00000001
 40
0.0
 40
0.0
 40
0.0
 40
0.0
 40
0.1105883385953375
 40
0.2245417540535906
 40
0.3425034940501052
 40
0.4643240984173591
 40
0.5907560327017658
 40
0.7222274753555105
 40
0.8588428362087219
 40
1.0
 40
1.0
 40
1.0
 40
1.0
 10
902.2175698034677
 20
675.6256019176477
 30
0.0
 10
902.2416881298534
 20
675.696984179285
 30
0.0
 10
902.2906586757562
 20
675.8419207832702
 30
0.0
 10
902.3537713026607
 20
676.0667519880255
 30
0.0
 10
902.4034750722692
 20
676.3026440198837
 30
0.0
 10
902.4481913368393
 20
676.5481871438116
 30
0.0
 10
902.4787126074618
 20
676.8051921746938
 30
0.0
 10
902.5032790378234
 20
677.0728639093584
 30
0.0
 10
902.517749179399
 20
677.3514041658966
 30
0.0
 10
902.5195428961334
 20
677.5406498600571
 30
0.0
 10
902.5204544188522
 20
677.6368198663657
 30
0.0
  0
CIRCLE
  5
114
330
1F
100
AcDbEntity
  8
0
  6
Continuous
 62
     7
370
    25
100
AcDbCircle
 10
951.4872798434
 20
785.6360078278
 30
0.0
 40
57.50000000000011
  0
CIRCLE
  5
115
330
1F
100
AcDbEntity
  8
0
  6
Continuous
 62
     7
370
    25
100
AcDbCircle
 10
951.4872798434
 20
785.6360078278
 30
0.0
 40
45.0
  0
ENDSEC
  0
SECTION
  2
OBJECTS
  0
DICTIONARY
  5
C
330
0
100
AcDbDictionary
281
     1
  3
ACAD_DETAILVIEWSTYLE
350
11D
  3
ACAD_GROUP
350
D
  3
ACAD_LAYOUT
350
1A
  3
ACAD_MATERIAL
350
43
  3
ACAD_MLEADERSTYLE
350
5B
  3
ACAD_MLINESTYLE
350
17
  3
ACAD_PLOTSETTINGS
350
19
  3
ACAD_PLOTSTYLENAME
350
E
  3
ACAD_SCALELIST
350
47
  3
ACAD_SECTIONVIEWSTYLE
350
11E
  3
ACAD_TABLESTYLE
350
59
  3
ACAD_VISUALSTYLE
350
2A
  3
ACDB_RECOMPOSE_DATA
350
11A
  3
AcDbVariableDictionary
350
116
  0
SUN
  5
5D
330
29
100
AcDbSun
 90
        1
290
     0
 63
     7
421
 16777215
 40
1.0
291
     1
 91
  2455826
 92
 54000000
292
     0
 70
     2
 71
   256
280
     1
  0
DICTIONARY
  5
11D
102
{ACAD_REACTORS
330
C
102
}
330
C
100
AcDbDictionary
281
     1
  0
DICTIONARY
  5
D
102
{ACAD_REACTORS
330
C
102
}
330
C
100
AcDbDictionary
281
     1
  0
DICTIONARY
  5
1A
102
{ACAD_REACTORS
330
C
102
}
330
C
100
AcDbDictionary
281
     1
  3
Layout1
350
1E
  3
Layout2
350
26
  3
Model
350
22
  0
DICTIONARY
  5
43
102
{ACAD_REACTORS
330
C
102
}
330
C
100
AcDbDictionary
281
     1
  3
ByBlock
350
45
  3
ByLayer
350
44
  3
Global
350
46
  0
DICTIONARY
  5
5B
102
{ACAD_REACTORS
330
C
102
}
330
C
100
AcDbDictionary
281
     1
  3
Standard
350
5C
  0
DICTIONARY
  5
17
102
{ACAD_REACTORS
330
C
102
}
330
C
100
AcDbDictionary
281
     1
  3
Standard
350
18
  0
DICTIONARY
  5
19
102
{ACAD_REACTORS
330
C
102
}
330
C
100
AcDbDictionary
281
     1
  0
ACDBDICTIONARYWDFLT
  5
E
102
{ACAD_REACTORS
330
C
102
}
330
C
100
AcDbDictionary
281
     1
  3
Normal
350
F
100
AcDbDictionaryWithDefault
340
F
  0
DICTIONARY
  5
47
102
{ACAD_REACTORS
330
C
102
}
330
C
100
AcDbDictionary
281
     1
  3
A0
350
48
  3
A1
350
49
  3
A2
350
4A
  3
A3
350
4B
  3
A4
350
4C
  3
A5
350
4D
  3
A6
350
4E
  3
A7
350
4F
  3
A8
350
50
  3
A9
350
51
  3
B0
350
52
  3
B1
350
53
  3
B2
350
54
  3
B3
350
55
  3
B4
350
56
  3
B5
350
57
  3
B6
350
58
  0
DICTIONARY
  5
11E
102
{ACAD_REACTORS
330
C
102
}
330
C
100
AcDbDictionary
281
     1
  0
DICTIONARY
  5
59
102
{ACAD_REACTORS
330
C
102
}
330
C
100
AcDbDictionary
281
     1
  3
Standard
350
5A
  0
DICTIONARY
  5
2A
102
{ACAD_REACTORS
330
C
102
}
330
C
100
AcDbDictionary
281
     1
  3
2dWireframe
350
2F
  3
Basic
350
32
  3
Brighten
350
36
  3
ColorChange
350
3A
  3
Conceptual
350
34
  3
Dim
350
35
  3
EdgeColorOff
350
3D
  3
Facepattern
350
39
  3
Flat
350
2B
  3
FlatWithEdges
350
2C
  3
Gouraud
350
2D
  3
GouraudWithEdges
350
2E
  3
Hidden
350
31
  3
JitterOff
350
3B
  3
Linepattern
350
38
  3
OverhangOff
350
3C
  3
Realistic
350
33
  3
Shaded
350
42
  3
Shaded with edges
350
41
  3
Shades of Gray
350
3E
  3
Sketchy
350
3F
  3
Thicken
350
37
  3
Wireframe
350
30
  3
X-Ray
350
40
  0
XRECORD
  5
11A
102
{ACAD_REACTORS
330
C
102
}
330
C
100
AcDbXrecord
280
     1
 90
        1
330
5A
  0
DICTIONARY
  5
116
102
{ACAD_REACTORS
330
C
102
}
330
C
100
AcDbDictionary
281
     1
  3
CANNOSCALE
350
117
  3
CENTEREXE
350
11F
  3
CENTERLTYPEFILE
350
120
  3
CMLEADERSTYLE
350
11C
  3
CTABLESTYLE
350
11B
  0
LAYOUT
  5
1E
102
{ACAD_REACTORS
330
1A
102
}
330
1A
100
AcDbPlotSettings
  1

  2
none_device
  4

  6

 40
0.0
 41
0.0
 42
0.0
 43
0.0
 44
0.0
 45
0.0
 46
0.0
 47
0.0
 48
0.0
 49
0.0
140
0.0
141
0.0
142
1.0
143
1.0
 70
   688
 72
     1
 73
     0
 74
     5
  7

 75
    16
 76
     0
 77
     2
 78
   300
147
1.0
148
0.0
149
0.0
100
AcDbLayout
  1
Layout1
 70
     1
 71
     1
 10
0.0
 20
0.0
 11
420.0
 21
297.0
 12
0.0
 22
0.0
 32
0.0
 14
1.0000000000E+20
 24
1.0000000000E+20
 34
1.0000000000E+20
 15
-1.0000000000E+20
 25
-1.0000000000E+20
 35
-1.0000000000E+20
146
0.0
 13
0.0
 23
0.0
 33
0.0
 16
1.0
 26
0.0
 36
0.0
 17
0.0
 27
1.0
 37
0.0
 76
     0
330
1B
  0
LAYOUT
  5
26
102
{ACAD_REACTORS
330
1A
102
}
330
1A
100
AcDbPlotSettings
  1

  2
none_device
  4

  6

 40
0.0
 41
0.0
 42
0.0
 43
0.0
 44
0.0
 45
0.0
 46
0.0
 47
0.0
 48
0.0
 49
0.0
140
0.0
141
0.0
142
1.0
143
1.0
 70
   688
 72
     1
 73
     0
 74
     5
  7

 75
    16
 76
     0
 77
     2
 78
   300
147
1.0
148
0.0
149
0.0
100
AcDbLayout
  1
Layout2
 70
     1
 71
     2
 10
0.0
 20
0.0
 11
0.0
 21
0.0
 12
0.0
 22
0.0
 32
0.0
 14
0.0
 24
0.0
 34
0.0
 15
0.0
 25
0.0
 35
0.0
146
0.0
 13
0.0
 23
0.0
 33
0.0
 16
1.0
 26
0.0
 36
0.0
 17
0.0
 27
1.0
 37
0.0
 76
     0
330
23
  0
LAYOUT
  5
22
102
{ACAD_REACTORS
330
1A
102
}
330
1A
100
AcDbPlotSettings
  1

  2
none_device
  4
Letter_(8.50_x_11.00_Inches)
  6

 40
6.35
 41
6.35
 42
6.35000508
 43
6.35000508
 44
215.9
 45
279.4
 46
0.0
 47
0.0
 48
0.0
 49
0.0
140
0.0
141
0.0
142
1.0
143
1.0
 70
  1712
 72
     1
 73
     0
 74
     0
  7

 75
     0
 76
     0
 77
     2
 78
   300
147
1.0
148
0.0
149
0.0
100
AcDbLayout
  1
Model
 70
     1
 71
     0
 10
0.0
 20
0.0
 11
420.0
 21
297.0
 12
0.0
 22
0.0
 32
0.0
 14
0.0
 24
0.0
 34
0.0
 15
420.0
 25
297.0
 35
0.0
146
0.0
 13
0.0
 23
0.0
 33
0.0
 16
1.0
 26
0.0
 36
0.0
 17
0.0
 27
1.0
 37
0.0
 76
     0
330
1F
331
29
  0
MATERIAL
  5
45
102
{ACAD_REACTORS
330
43
102
}
330
43
100
AcDbMaterial
  1
ByBlock
 72
     1
 94
      127
  0
MATERIAL
  5
44
102
{ACAD_REACTORS
330
43
102
}
330
43
100
AcDbMaterial
  1
ByLayer
 72
     1
 94
      127
  0
MATERIAL
  5
46
102
{ACAD_REACTORS
330
43
102
}
330
43
100
AcDbMaterial
  1
Global
 72
     1
 94
      127
  0
MLEADERSTYLE
  5
5C
102
{ACAD_REACTORS
330
5B
102
}
330
5B
100
AcDbMLeaderStyle
179
     2
170
     2
171
     1
172
     0
 90
        2
 40
0.0
 41
0.0
173
     1
 91
-1056964608
340
14
 92
       -2
290
     1
 42
2.0
291
     1
 43
8.0
  3
Standard
341
0
 44
4.0
300

342
11
174
     1
178
     6
175
     1
176
     0
 93
-1056964608
 45
4.0
292
     0
297
     0
 46
4.0
343
0
 94
-1056964608
 47
1.0
 49
1.0
140
1.0
293
     1
141
0.0
294
     1
177
     0
142
1.0
295
     0
296
     0
143
3.75
271
     0
272
     9
273
     9
298
     0
  0
MLINESTYLE
  5
18
102
{ACAD_REACTORS
330
17
102
}
330
17
100
AcDbMlineStyle
  2
Standard
 70
     0
  3

 62
   256
 51
90.0
 52
90.0
 71
     2
 49
0.5
 62
   256
  6
BYLAYER
 49
-0.5
 62
   256
  6
BYLAYER
  0
ACDBPLACEHOLDER
  5
F
102
{ACAD_REACTORS
330
E
102
}
330
E
  0
SCALE
  5
48
102
{ACAD_REACTORS
330
47
102
}
330
47
100
AcDbScale
 70
     0
300
1:1
140
1.0
141
1.0
290
     1
  0
SCALE
  5
49
102
{ACAD_REACTORS
330
47
102
}
330
47
100
AcDbScale
 70
     0
300
1:2
140
1.0
141
2.0
290
     0
  0
SCALE
  5
4A
102
{ACAD_REACTORS
330
47
102
}
330
47
100
AcDbScale
 70
     0
300
1:4
140
1.0
141
4.0
290
     0
  0
SCALE
  5
4B
102
{ACAD_REACTORS
330
47
102
}
330
47
100
AcDbScale
 70
     0
300
1:5
140
1.0
141
5.0
290
     0
  0
SCALE
  5
4C
102
{ACAD_REACTORS
330
47
102
}
330
47
100
AcDbScale
 70
     0
300
1:8
140
1.0
141
8.0
290
     0
  0
SCALE
  5
4D
102
{ACAD_REACTORS
330
47
102
}
330
47
100
AcDbScale
 70
     0
300
1:10
140
1.0
141
10.0
290
     0
  0
SCALE
  5
4E
102
{ACAD_REACTORS
330
47
102
}
330
47
100
AcDbScale
 70
     0
300
1:16
140
1.0
141
16.0
290
     0
  0
SCALE
  5
4F
102
{ACAD_REACTORS
330
47
102
}
330
47
100
AcDbScale
 70
     0
300
1:20
140
1.0
141
20.0
290
     0
  0
SCALE
  5
50
102
{ACAD_REACTORS
330
47
102
}
330
47
100
AcDbScale
 70
     0
300
1:30
140
1.0
141
30.0
290
     0
  0
SCALE
  5
51
102
{ACAD_REACTORS
330
47
102
}
330
47
100
AcDbScale
 70
     0
300
1:40
140
1.0
141
40.0
290
     0
  0
SCALE
  5
52
102
{ACAD_REACTORS
330
47
102
}
330
47
100
AcDbScale
 70
     0
300
1:50
140
1.0
141
50.0
290
     0
  0
SCALE
  5
53
102
{ACAD_REACTORS
330
47
102
}
330
47
100
AcDbScale
 70
     0
300
1:100
140
1.0
141
100.0
290
     0
  0
SCALE
  5
54
102
{ACAD_REACTORS
330
47
102
}
330
47
100
AcDbScale
 70
     0
300
2:1
140
2.0
141
1.0
290
     0
  0
SCALE
  5
55
102
{ACAD_REACTORS
330
47
102
}
330
47
100
AcDbScale
 70
     0
300
4:1
140
4.0
141
1.0
290
     0
  0
SCALE
  5
56
102
{ACAD_REACTORS
330
47
102
}
330
47
100
AcDbScale
 70
     0
300
8:1
140
8.0
141
1.0
290
     0
  0
SCALE
  5
57
102
{ACAD_REACTORS
330
47
102
}
330
47
100
AcDbScale
 70
     0
300
10:1
140
10.0
141
1.0
290
     0
  0
SCALE
  5
58
102
{ACAD_REACTORS
330
47
102
}
330
47
100
AcDbScale
 70
     0
300
100:1
140
100.0
141
1.0
290
     0
  0
TABLESTYLE
  5
5A
102
{ACAD_REACTORS
330
59
102
}
102
{ACAD_XDICTIONARY
360
118
102
}
330
59
100
AcDbTableStyle
  3
Standard
 70
     0
 71
     0
 40
0.06
 41
0.06
280
     0
281
     0
  7
Standard
140
4.5
170
     2
 62
     0
 63
   257
283
     0
 90
        4
 91
        0
  1

274
    -2
284
     1
 64
     0
275
    -2
285
     1
 65
     0
276
    -2
286
     1
 66
     0
277
    -2
287
     1
 67
     0
278
    -2
288
     1
 68
     0
279
    -2
289
     1
 69
     0
  7
Standard
140
6.0
170
     5
 62
     0
 63
   257
283
     0
 90
        4
 91
        0
  1

274
    -2
284
     1
 64
     0
275
    -2
285
     1
 65
     0
276
    -2
286
     1
 66
     0
277
    -2
287
     1
 67
     0
278
    -2
288
     1
 68
     0
279
    -2
289
     1
 69
     0
  7
Standard
140
4.5
170
     5
 62
     0
 63
   257
283
     0
 90
        4
 91
        0
  1

274
    -2
284
     1
 64
     0
275
    -2
285
     1
 65
     0
276
    -2
286
     1
 66
     0
277
    -2
287
     1
 67
     0
278
    -2
288
     1
 68
     0
279
    -2
289
     1
 69
     0
  0
VISUALSTYLE
  5
2F
102
{ACAD_REACTORS
330
2A
102
}
330
2A
100
AcDbVisualStyle
  2
2dWireframe
 70
     4
177
     3
291
     0
 70
    58
 90
        0
176
     1
 90
        2
176
     1
 90
        0
176
     1
 90
        0
176
     1
 40
0.6
176
     1
 40
30.0
176
     1
 62
     7
420
 16777215
176
     1
 90
        1
176
     1
 90
        4
176
     1
 62
     7
176
     1
 62
   257
176
     1
 90
        1
176
     1
 90
        1
176
     1
 40
1.0
176
     1
 90
        0
176
     1
 62
   257
176
     1
 40
1.0
176
     1
 90
        1
176
     1
 90
        6
176
     1
 90
        2
176
     1
 62
     7
176
     1
 90
        5
176
     1
 90
        0
176
     1
 90
        0
176
     1
290
     0
176
     1
 90
        1
176
     1
 40
0.0
176
     1
 90
        0
176
     1
290
     1
176
     1
290
     1
176
     1
290
     0
176
     1
290
     0
176
     1
290
     0
176
     1
290
     0
176
     1
290
     0
176
     1
290
     0
176
     1
290
     0
176
     1
 90
       50
176
     1
 40
0.0
176
     1
 40
1.0
176
     1
 90
        0
176
     1
 62
    18
420
        0
176
     1
 90
       50
176
     1
 90
        3
176
     1
 62
     5
420
      255
176
     1
290
     0
176
     1
 90
       50
176
     1
 90
       50
176
     1
 90
       50
176
     1
290
     0
176
     1
 90
       50
176
     1
 62
   256
176
     0
 40
1.0
176
     0
 90
        2
176
     1
  1
strokes_ogs.tif
176
     1
290
     0
176
     1
 40
1.0
176
     1
 40
1.0
176
     1
  0
VISUALSTYLE
  5
32
102
{ACAD_REACTORS
330
2A
102
}
330
2A
100
AcDbVisualStyle
  2
Basic
 70
     7
177
     3
291
     1
 70
    58
 90
        1
176
     1
 90
        0
176
     1
 90
        1
176
     1
 90
        0
176
     1
 40
0.6
176
     1
 40
30.0
176
     1
 62
     7
420
 16777215
176
     1
 90
        0
176
     1
 90
        4
176
     1
 62
     7
176
     1
 62
   257
176
     1
 90
        1
176
     1
 90
        1
176
     1
 40
1.0
176
     1
 90
        8
176
     1
 62
     7
176
     1
 40
1.0
176
     1
 90
        1
176
     1
 90
        6
176
     1
 90
        2
176
     1
 62
     7
176
     1
 90
        5
176
     1
 90
        0
176
     1
 90
        0
176
     1
290
     0
176
     1
 90
        1
176
     1
 40
0.0
176
     1
 90
        0
176
     1
290
     0
176
     1
290
     1
176
     1
290
     1
176
     1
290
     0
176
     1
290
     0
176
     1
290
     0
176
     1
290
     0
176
     1
290
     0
176
     1
290
     0
176
     1
 90
       50
176
     1
 40
0.0
176
     1
 40
1.0
176
     1
 90
        0
176
     1
 62
    18
420
        0
176
     1
 90
       50
176
     1
 90
        3
176
     1
 62
     5
420
      255
176
     1
290
     0
176
     1
 90
       50
176
     1
 90
       50
176
     1
 90
       50
176
     1
290
     0
176
     1
 90
       50
176
     1
 62
   256
176
     0
 40
1.0
176
     0
 90
        2
176
     1
  1
strokes_ogs.tif
176
     1
290
     0
176
     1
 40
1.0
176
     1
 40
1.0
176
     1
  0
VISUALSTYLE
  5
36
102
{ACAD_REACTORS
330
2A
102
}
330
2A
100
AcDbVisualStyle
  2
Brighten
 70
    12
177
     3
291
     1
 70
    58
 90
        2
176
     1
 90
        2
176
     1
 90
        0
176
     1
 90
        0
176
     1
 40
0.6
176
     1
 40
30.0
176
     1
 62
     7
420
 16777215
176
     1
 90
        1
176
     1
 90
        4
176
     1
 62
     7
176
     1
 62
   257
176
     1
 90
        1
176
     1
 90
        1
176
     1
 40
1.0
176
     1
 90
        8
176
     1
 62
     7
176
     1
 40
1.0
176
     1
 90
        1
176
     1
 90
        6
176
     1
 90
        2
176
     1
 62
     7
176
     1
 90
        5
176
     1
 90
        0
176
     1
 90
        0
176
     1
290
     0
176
     1
 90
        1
176
     1
 40
50.0
176
     1
 90
        0
176
     1
290
     0
176
     1
290
     1
176
     1
290
     1
176
     1
290
     0
176
     1
290
     0
176
     1
290
     0
176
     1
290
     0
176
     1
290
     0
176
     1
290
     0
176
     1
 90
       50
176
     1
 40
0.0
176
     1
 40
1.0
176
     1
 90
        0
176
     1
 62
    18
420
        0
176
     1
 90
       50
176
     1
 90
        3
176
     1
 62
     5
420
      255
176
     1
290
     0
176
     1
 90
       50
176
     1
 90
       50
176
     1
 90
       50
176
     1
290
     0
176
     1
 90
       50
176
     1
 62
   256
176
     0
 40
1.0
176
     0
 90
        2
176
     1
  1
strokes_ogs.tif
176
     1
290
     0
176
     1
 40
1.0
176
     1
 40
1.0
176
     1
  0
VISUALSTYLE
  5
3A
102
{ACAD_REACTORS
330
2A
102
}
330
2A
100
AcDbVisualStyle
  2
ColorChange
 70
    16
177
     3
291
     1
 70
    58
 90
        2
176
     1
 90
        2
176
     1
 90
        3
176
     1
 90
        0
176
     1
 40
0.6
176
     1
 40
30.0
176
     1
 62
     8
420
  8421504
176
     1
 90
        1
176
     1
 90
        4
176
     1
 62
     7
176
     1
 62
   257
176
     1
 90
        1
176
     1
 90
        1
176
     1
 40
1.0
176
     1
 90
        8
176
     1
 62
     8
420
  8421504
176
     1
 40
1.0
176
     1
 90
        1
176
     1
 90
        6
176
     1
 90
        2
176
     1
 62
     7
176
     1
 90
        5
176
     1
 90
        0
176
     1
 90
        0
176
     1
290
     0
176
     1
 90
        1
176
     1
 40
0.0
176
     1
 90
        0
176
     1
290
     0
176
     1
290
     1
176
     1
290
     1
176
     1
290
     0
176
     1
290
     0
176
     1
290
     0
176
     1
290
     0
176
     1
290
     0
176
     1
290
     0
176
     1
 90
       50
176
     1
 40
0.0
176
     1
 40
1.0
176
     1
 90
        0
176
     1
 62
    18
420
        0
176
     1
 90
       50
176
     1
 90
        3
176
     1
 62
     5
420
      255
176
     1
290
     0
176
     1
 90
       50
176
     1
 90
       50
176
     1
 90
       50
176
     1
290
     0
176
     1
 90
       50
176
     1
 62
   256
176
     0
 40
1.0
176
     0
 90
        2
176
     1
  1
strokes_ogs.tif
176
     1
290
     0
176
     1
 40
1.0
176
     1
 40
1.0
176
     1
  0
VISUALSTYLE
  5
34
102
{ACAD_REACTORS
330
2A
102
}
330
2A
100
AcDbVisualStyle
  2
Conceptual
 70
     9
177
     3
291
     0
 70
    58
 90
        3
176
     1
 90
        2
176
     1
 90
        0
176
     1
 90
        0
176
     1
 40
0.6
176
     1
 40
30.0
176
     1
 62
     7
420
 16777215
176
     1
 90
        2
176
     1
 90
        2
176
     1
 62
     7
176
     1
 62
   257
176
     1
 90
        1
176
     1
 90
        1
176
     1
 40
179.0
176
     1
 90
        8
176
     1
 62
     7
176
     1
 40
1.0
176
     1
 90
        1
176
     1
 90
        6
176
     1
 90
        2
176
     1
 62
     7
176
     1
 90
        3
176
     1
 90
        0
176
     1
 90
        0
176
     1
290
     0
176
     1
 90
        1
176
     1
 40
0.0
176
     1
 90
        0
176
     1
290
     0
176
     1
290
     1
176
     1
290
     1
176
     1
290
     0
176
     1
290
     0
176
     1
290
     0
176
     1
290
     0
176
     1
290
     0
176
     1
290
     0
176
     1
 90
       50
176
     1
 40
0.0
176
     1
 40
1.0
176
     1
 90
        0
176
     1
 62
    18
420
        0
176
     1
 90
       50
176
     1
 90
        3
176
     1
 62
     5
420
      255
176
     1
290
     0
176
     1
 90
       50
176
     1
 90
       50
176
     1
 90
       50
176
     1
290
     0
176
     1
 90
       50
176
     1
 62
   256
176
     0
 40
1.0
176
     0
 90
        2
176
     1
  1
strokes_ogs.tif
176
     1
290
     0
176
     1
 40
1.0
176
     1
 40
1.0
176
     1
  0
VISUALSTYLE
  5
35
102
{ACAD_REACTORS
330
2A
102
}
330
2A
100
AcDbVisualStyle
  2
Dim
 70
    11
177
     3
291
     1
 70
    58
 90
        2
176
     1
 90
        2
176
     1
 90
        0
176
     1
 90
        0
176
     1
 40
0.6
176
     1
 40
30.0
176
     1
 62
     7
420
 16777215
176
     1
 90
        1
176
     1
 90
        4
176
     1
 62
     7
176
     1
 62
   257
176
     1
 90
        1
176
     1
 90
        1
176
     1
 40
1.0
176
     1
 90
        8
176
     1
 62
     7
176
     1
 40
1.0
176
     1
 90
        1
176
     1
 90
        6
176
     1
 90
        2
176
     1
 62
     7
176
     1
 90
        5
176
     1
 90
        0
176
     1
 90
        0
176
     1
290
     0
176
     1
 90
        1
176
     1
 40
-50.0
176
     1
 90
        0
176
     1
290
     0
176
     1
290
     1
176
     1
290
     1
176
     1
290
     0
176
     1
290
     0
176
     1
290
     0
176
     1
290
     0
176
     1
290
     0
176
     1
290
     0
176
     1
 90
       50
176
     1
 40
0.0
176
     1
 40
1.0
176
     1
 90
        0
176
     1
 62
    18
420
        0
176
     1
 90
       50
176
     1
 90
        3
176
     1
 62
     5
420
      255
176
     1
290
     0
176
     1
 90
       50
176
     1
 90
       50
176
     1
 90
       50
176
     1
290
     0
176
     1
 90
       50
176
     1
 62
   256
176
     0
 40
1.0
176
     0
 90
        2
176
     1
  1
strokes_ogs.tif
176
     1
290
     0
176
     1
 40
1.0
176
     1
 40
1.0
176
     1
  0
VISUALSTYLE
  5
3D
102
{ACAD_REACTORS
330
2A
102
}
330
2A
100
AcDbVisualStyle
  2
EdgeColorOff
 70
    22
177
     3
291
     1
 70
    58
 90
        2
176
     0
 90
        2
176
     0
 90
        0
176
     0
 90
        0
176
     0
 40
0.6
176
     0
 40
30.0
176
     0
 62
     7
420
 16777215
176
     0
 90
        1
176
     0
 90
        4
176
     0
 62
     7
176
     0
 62
   257
176
     0
 90
        1
176
     0
 90
        1
176
     0
 40
1.0
176
     0
 90
        8
176
     2
 62
     7
176
     0
 40
1.0
176
     0
 90
        1
176
     0
 90
        6
176
     0
 90
        2
176
     0
 62
     7
176
     0
 90
        5
176
     0
 90
        0
176
     0
 90
        0
176
     0
290
     0
176
     0
 90
        1
176
     0
 40
0.0
176
     0
 90
        0
176
     0
290
     0
176
     0
290
     1
176
     0
290
     1
176
     0
290
     0
176
     0
290
     0
176
     0
290
     0
176
     0
290
     0
176
     0
290
     0
176
     0
290
     0
176
     0
 90
       50
176
     0
 40
0.0
176
     0
 40
1.0
176
     0
 90
        0
176
     0
 62
    18
420
        0
176
     0
 90
       50
176
     0
 90
        3
176
     0
 62
     5
420
      255
176
     0
290
     0
176
     0
 90
       50
176
     0
 90
       50
176
     0
 90
       50
176
     0
290
     0
176
     0
 90
       50
176
     0
 62
   256
176
     0
 40
1.0
176
     0
 90
        2
176
     0
  1
strokes_ogs.tif
176
     0
290
     0
176
     0
 40
1.0
176
     0
 40
1.0
176
     0
  0
VISUALSTYLE
  5
39
102
{ACAD_REACTORS
330
2A
102
}
330
2A
100
AcDbVisualStyle
  2
Facepattern
 70
    15
177
     3
291
     1
 70
    58
 90
        2
176
     1
 90
        2
176
     1
 90
        0
176
     1
 90
        0
176
     1
 40
0.6
176
     1
 40
30.0
176
     1
 62
     7
420
 16777215
176
     1
 90
        1
176
     1
 90
        4
176
     1
 62
     7
176
     1
 62
   257
176
     1
 90
        1
176
     1
 90
        1
176
     1
 40
1.0
176
     1
 90
        8
176
     1
 62
     7
176
     1
 40
1.0
176
     1
 90
        1
176
     1
 90
        6
176
     1
 90
        2
176
     1
 62
     7
176
     1
 90
        5
176
     1
 90
        0
176
     1
 90
        0
176
     1
290
     0
176
     1
 90
        1
176
     1
 40
0.0
176
     1
 90
        0
176
     1
290
     0
176
     1
290
     1
176
     1
290
     1
176
     1
290
     0
176
     1
290
     0
176
     1
290
     0
176
     1
290
     0
176
     1
290
     0
176
     1
290
     0
176
     1
 90
       50
176
     1
 40
0.0
176
     1
 40
1.0
176
     1
 90
        0
176
     1
 62
    18
420
        0
176
     1
 90
       50
176
     1
 90
        3
176
     1
 62
     5
420
      255
176
     1
290
     0
176
     1
 90
       50
176
     1
 90
       50
176
     1
 90
       50
176
     1
290
     0
176
     1
 90
       50
176
     1
 62
   256
176
     0
 40
1.0
176
     0
 90
        2
176
     1
  1
strokes_ogs.tif
176
     1
290
     0
176
     1
 40
1.0
176
     1
 40
1.0
176
     1
  0
VISUALSTYLE
  5
2B
102
{ACAD_REACTORS
330
2A
102
}
330
2A
100
AcDbVisualStyle
  2
Flat
 70
     0
177
     3
291
     1
 70
    58
 90
        2
176
     1
 90
        1
176
     1
 90
        1
176
     1
 90
        2
176
     1
 40
0.6
176
     1
 40
30.0
176
     1
 62
     7
420
 16777215
176
     1
 90
        0
176
     1
 90
        0
176
     1
 62
     7
176
     1
 62
   257
176
     1
 90
        1
176
     1
 90
        1
176
     1
 40
1.0
176
     1
 90
        8
176
     1
 62
     7
176
     1
 40
1.0
176
     1
 90
        1
176
     1
 90
        6
176
     1
 90
        2
176
     1
 62
     7
176
     1
 90
        5
176
     1
 90
        0
176
     1
 90
        0
176
     1
290
     0
176
     1
 90
       13
176
     1
 40
0.0
176
     1
 90
        0
176
     1
290
     0
176
     1
290
     1
176
     1
290
     1
176
     1
290
     0
176
     1
290
     0
176
     1
290
     0
176
     1
290
     0
176
     1
290
     0
176
     1
290
     0
176
     1
 90
       50
176
     1
 40
0.0
176
     1
 40
1.0
176
     1
 90
        0
176
     1
 62
    18
420
        0
176
     1
 90
       50
176
     1
 90
        3
176
     1
 62
     5
420
      255
176
     1
290
     0
176
     1
 90
       50
176
     1
 90
       50
176
     1
 90
       50
176
     1
290
     0
176
     1
 90
       50
176
     1
 62
   256
176
     0
 40
1.0
176
     0
 90
        2
176
     1
  1
strokes_ogs.tif
176
     1
290
     0
176
     1
 40
1.0
176
     1
 40
1.0
176
     1
  0
VISUALSTYLE
  5
2C
102
{ACAD_REACTORS
330
2A
102
}
330
2A
100
AcDbVisualStyle
  2
FlatWithEdges
 70
     1
177
     3
291
     1
 70
    58
 90
        2
176
     1
 90
        1
176
     1
 90
        1
176
     1
 90
        2
176
     1
 40
0.6
176
     1
 40
30.0
176
     1
 62
     7
420
 16777215
176
     1
 90
        1
176
     1
 90
        0
176
     1
 62
     7
176
     1
 62
   257
176
     1
 90
        1
176
     1
 90
        1
176
     1
 40
1.0
176
     1
 90
        0
176
     1
 62
   257
176
     1
 40
1.0
176
     1
 90
        1
176
     1
 90
        6
176
     1
 90
        2
176
     1
 62
     7
176
     1
 90
        5
176
     1
 90
        0
176
     1
 90
        0
176
     1
290
     0
176
     1
 90
       13
176
     1
 40
0.0
176
     1
 90
        0
176
     1
290
     0
176
     1
290
     1
176
     1
290
     1
176
     1
290
     0
176
     1
290
     0
176
     1
290
     0
176
     1
290
     0
176
     1
290
     0
176
     1
290
     0
176
     1
 90
       50
176
     1
 40
0.0
176
     1
 40
1.0
176
     1
 90
        0
176
     1
 62
    18
420
        0
176
     1
 90
       50
176
     1
 90
        3
176
     1
 62
     5
420
      255
176
     1
290
     0
176
     1
 90
       50
176
     1
 90
       50
176
     1
 90
       50
176
     1
290
     0
176
     1
 90
       50
176
     1
 62
   256
176
     0
 40
1.0
176
     0
 90
        2
176
     1
  1
strokes_ogs.tif
176
     1
290
     0
176
     1
 40
1.0
176
     1
 40
1.0
176
     1
  0
VISUALSTYLE
  5
2D
102
{ACAD_REACTORS
330
2A
102
}
330
2A
100
AcDbVisualStyle
  2
Gouraud
 70
     2
177
     3
291
     1
 70
    58
 90
        2
176
     1
 90
        2
176
     1
 90
        1
176
     1
 90
        2
176
     1
 40
0.6
176
     1
 40
30.0
176
     1
 62
     7
420
 16777215
176
     1
 90
        0
176
     1
 90
        0
176
     1
 62
     7
176
     1
 62
   257
176
     1
 90
        1
176
     1
 90
        1
176
     1
 40
1.0
176
     1
 90
        0
176
     1
 62
     7
176
     1
 40
1.0
176
     1
 90
        1
176
     1
 90
        6
176
     1
 90
        2
176
     1
 62
     7
176
     1
 90
        5
176
     1
 90
        0
176
     1
 90
        0
176
     1
290
     0
176
     1
 90
       13
176
     1
 40
0.0
176
     1
 90
        0
176
     1
290
     0
176
     1
290
     1
176
     1
290
     1
176
     1
290
     0
176
     1
290
     0
176
     1
290
     0
176
     1
290
     0
176
     1
290
     0
176
     1
290
     0
176
     1
 90
       50
176
     1
 40
0.0
176
     1
 40
1.0
176
     1
 90
        0
176
     1
 62
    18
420
        0
176
     1
 90
       50
176
     1
 90
        3
176
     1
 62
     5
420
      255
176
     1
290
     0
176
     1
 90
       50
176
     1
 90
       50
176
     1
 90
       50
176
     1
290
     0
176
     1
 90
       50
176
     1
 62
   256
176
     0
 40
1.0
176
     0
 90
        2
176
     1
  1
strokes_ogs.tif
176
     1
290
     0
176
     1
 40
1.0
176
     1
 40
1.0
176
     1
  0
VISUALSTYLE
  5
2E
102
{ACAD_REACTORS
330
2A
102
}
330
2A
100
AcDbVisualStyle
  2
GouraudWithEdges
 70
     3
177
     3
291
     1
 70
    58
 90
        2
176
     1
 90
        2
176
     1
 90
        1
176
     1
 90
        2
176
     1
 40
0.6
176
     1
 40
30.0
176
     1
 62
     7
420
 16777215
176
     1
 90
        1
176
     1
 90
        0
176
     1
 62
     7
176
     1
 62
   257
176
     1
 90
        1
176
     1
 90
        1
176
     1
 40
1.0
176
     1
 90
        0
176
     1
 62
   257
176
     1
 40
1.0
176
     1
 90
        1
176
     1
 90
        6
176
     1
 90
        2
176
     1
 62
     7
176
     1
 90
        5
176
     1
 90
        0
176
     1
 90
        0
176
     1
290
     0
176
     1
 90
       13
176
     1
 40
0.0
176
     1
 90
        0
176
     1
290
     0
176
     1
290
     1
176
     1
290
     1
176
     1
290
     0
176
     1
290
     0
176
     1
290
     0
176
     1
290
     0
176
     1
290
     0
176
     1
290
     0
176
     1
 90
       50
176
     1
 40
0.0
176
     1
 40
1.0
176
     1
 90
        0
176
     1
 62
    18
420
        0
176
     1
 90
       50
176
     1
 90
        3
176
     1
 62
     5
420
      255
176
     1
290
     0
176
     1
 90
       50
176
     1
 90
       50
176
     1
 90
       50
176
     1
290
     0
176
     1
 90
       50
176
     1
 62
   256
176
     0
 40
1.0
176
     0
 90
        2
176
     1
  1
strokes_ogs.tif
176
     1
290
     0
176
     1
 40
1.0
176
     1
 40
1.0
176
     1
  0
VISUALSTYLE
  5
31
102
{ACAD_REACTORS
330
2A
102
}
330
2A
100
AcDbVisualStyle
  2
Hidden
 70
     6
177
     3
291
     0
 70
    58
 90
        1
176
     1
 90
        2
176
     1
 90
        2
176
     1
 90
        0
176
     1
 40
0.6
176
     1
 40
30.0
176
     1
 62
     7
420
 16777215
176
     1
 90
        2
176
     1
 90
        2
176
     1
 62
     7
176
     1
 62
   257
176
     1
 90
        2
176
     1
 90
        1
176
     1
 40
40.0
176
     1
 90
        0
176
     1
 62
   257
176
     1
 40
1.0
176
     1
 90
        1
176
     1
 90
        6
176
     1
 90
        2
176
     1
 62
     7
176
     1
 90
        3
176
     1
 90
        0
176
     1
 90
        0
176
     1
290
     0
176
     1
 90
        1
176
     1
 40
0.0
176
     1
 90
        0
176
     1
290
     0
176
     1
290
     1
176
     1
290
     1
176
     1
290
     0
176
     1
290
     0
176
     1
290
     0
176
     1
290
     0
176
     1
290
     0
176
     1
290
     0
176
     1
 90
       50
176
     1
 40
0.0
176
     1
 40
1.0
176
     1
 90
        0
176
     1
 62
    18
420
        0
176
     1
 90
       50
176
     1
 90
        3
176
     1
 62
     5
420
      255
176
     1
290
     0
176
     1
 90
       50
176
     1
 90
       50
176
     1
 90
       50
176
     1
290
     0
176
     1
 90
       50
176
     1
 62
   256
176
     0
 40
1.0
176
     0
 90
        2
176
     1
  1
strokes_ogs.tif
176
     1
290
     0
176
     1
 40
1.0
176
     1
 40
1.0
176
     1
  0
VISUALSTYLE
  5
3B
102
{ACAD_REACTORS
330
2A
102
}
330
2A
100
AcDbVisualStyle
  2
JitterOff
 70
    20
177
     3
291
     1
 70
    58
 90
        2
176
     0
 90
        2
176
     0
 90
        0
176
     0
 90
        0
176
     0
 40
0.6
176
     0
 40
30.0
176
     0
 62
     7
420
 16777215
176
     0
 90
        1
176
     0
 90
        4
176
     0
 62
     7
176
     0
 62
   257
176
     0
 90
        1
176
     0
 90
        1
176
     0
 40
1.0
176
     0
 90
       10
176
     2
 62
     7
176
     0
 40
1.0
176
     0
 90
        1
176
     0
 90
        6
176
     0
 90
        2
176
     0
 62
     7
176
     0
 90
        5
176
     0
 90
        0
176
     0
 90
        0
176
     0
290
     0
176
     0
 90
        1
176
     0
 40
0.0
176
     0
 90
        0
176
     0
290
     0
176
     0
290
     1
176
     0
290
     1
176
     0
290
     0
176
     0
290
     0
176
     0
290
     0
176
     0
290
     0
176
     0
290
     0
176
     0
290
     0
176
     0
 90
       50
176
     0
 40
0.0
176
     0
 40
1.0
176
     0
 90
        0
176
     0
 62
    18
420
        0
176
     0
 90
       50
176
     0
 90
        3
176
     0
 62
     5
420
      255
176
     0
290
     0
176
     0
 90
       50
176
     0
 90
       50
176
     0
 90
       50
176
     0
290
     0
176
     0
 90
       50
176
     0
 62
   256
176
     0
 40
1.0
176
     0
 90
        2
176
     0
  1
strokes_ogs.tif
176
     0
290
     0
176
     0
 40
1.0
176
     0
 40
1.0
176
     0
  0
VISUALSTYLE
  5
38
102
{ACAD_REACTORS
330
2A
102
}
330
2A
100
AcDbVisualStyle
  2
Linepattern
 70
    14
177
     3
291
     1
 70
    58
 90
        2
176
     1
 90
        2
176
     1
 90
        0
176
     1
 90
        0
176
     1
 40
0.6
176
     1
 40
30.0
176
     1
 62
     7
420
 16777215
176
     1
 90
        1
176
     1
 90
        4
176
     1
 62
     7
176
     1
 62
   257
176
     1
 90
        7
176
     1
 90
        7
176
     1
 40
1.0
176
     1
 90
        8
176
     1
 62
     7
176
     1
 40
1.0
176
     1
 90
        1
176
     1
 90
        6
176
     1
 90
        2
176
     1
 62
     7
176
     1
 90
        5
176
     1
 90
        0
176
     1
 90
        0
176
     1
290
     0
176
     1
 90
        1
176
     1
 40
0.0
176
     1
 90
        0
176
     1
290
     0
176
     1
290
     1
176
     1
290
     1
176
     1
290
     0
176
     1
290
     0
176
     1
290
     0
176
     1
290
     0
176
     1
290
     0
176
     1
290
     0
176
     1
 90
       50
176
     1
 40
0.0
176
     1
 40
1.0
176
     1
 90
        0
176
     1
 62
    18
420
        0
176
     1
 90
       50
176
     1
 90
        3
176
     1
 62
     5
420
      255
176
     1
290
     0
176
     1
 90
       50
176
     1
 90
       50
176
     1
 90
       50
176
     1
290
     0
176
     1
 90
       50
176
     1
 62
   256
176
     0
 40
1.0
176
     0
 90
        2
176
     1
  1
strokes_ogs.tif
176
     1
290
     0
176
     1
 40
1.0
176
     1
 40
1.0
176
     1
  0
VISUALSTYLE
  5
3C
102
{ACAD_REACTORS
330
2A
102
}
330
2A
100
AcDbVisualStyle
  2
OverhangOff
 70
    21
177
     3
291
     1
 70
    58
 90
        2
176
     0
 90
        2
176
     0
 90
        0
176
     0
 90
        0
176
     0
 40
0.6
176
     0
 40
30.0
176
     0
 62
     7
420
 16777215
176
     0
 90
        1
176
     0
 90
        4
176
     0
 62
     7
176
     0
 62
   257
176
     0
 90
        1
176
     0
 90
        1
176
     0
 40
1.0
176
     0
 90
        9
176
     2
 62
     7
176
     0
 40
1.0
176
     0
 90
        1
176
     0
 90
        6
176
     0
 90
        2
176
     0
 62
     7
176
     0
 90
        5
176
     0
 90
        0
176
     0
 90
        0
176
     0
290
     0
176
     0
 90
        1
176
     0
 40
0.0
176
     0
 90
        0
176
     0
290
     0
176
     0
290
     1
176
     0
290
     1
176
     0
290
     0
176
     0
290
     0
176
     0
290
     0
176
     0
290
     0
176
     0
290
     0
176
     0
290
     0
176
     0
 90
       50
176
     0
 40
0.0
176
     0
 40
1.0
176
     0
 90
        0
176
     0
 62
    18
420
        0
176
     0
 90
       50
176
     0
 90
        3
176
     0
 62
     5
420
      255
176
     0
290
     0
176
     0
 90
       50
176
     0
 90
       50
176
     0
 90
       50
176
     0
290
     0
176
     0
 90
       50
176
     0
 62
   256
176
     0
 40
1.0
176
     0
 90
        2
176
     0
  1
strokes_ogs.tif
176
     0
290
     0
176
     0
 40
1.0
176
     0
 40
1.0
176
     0
  0
VISUALSTYLE
  5
33
102
{ACAD_REACTORS
330
2A
102
}
330
2A
100
AcDbVisualStyle
  2
Realistic
 70
     8
177
     3
291
     0
 70
    58
 90
        2
176
     1
 90
        3
176
     1
 90
        0
176
     1
 90
        2
176
     1
 40
0.6
176
     1
 40
30.0
176
     1
 62
     7
420
 16777215
176
     1
 90
        0
176
     1
 90
        0
176
     1
 62
     7
176
     1
 62
   257
176
     1
 90
        1
176
     1
 90
        1
176
     1
 40
1.0
176
     1
 90
        8
176
     1
 62
   257
176
     1
 40
1.0
176
     1
 90
        1
176
     1
 90
        6
176
     1
 90
        2
176
     1
 62
     7
176
     1
 90
        3
176
     1
 90
        0
176
     1
 90
        0
176
     1
290
     0
176
     1
 90
       13
176
     1
 40
0.0
176
     1
 90
        0
176
     1
290
     0
176
     1
290
     1
176
     1
290
     1
176
     1
290
     0
176
     1
290
     0
176
     1
290
     0
176
     1
290
     0
176
     1
290
     0
176
     1
290
     0
176
     1
 90
       50
176
     1
 40
0.0
176
     1
 40
1.0
176
     1
 90
        0
176
     1
 62
    18
420
        0
176
     1
 90
       50
176
     1
 90
        3
176
     1
 62
     5
420
      255
176
     1
290
     0
176
     1
 90
       50
176
     1
 90
       50
176
     1
 90
       50
176
     1
290
     0
176
     1
 90
       50
176
     1
 62
   256
176
     0
 40
1.0
176
     0
 90
        2
176
     1
  1
strokes_ogs.tif
176
     1
290
     0
176
     1
 40
1.0
176
     1
 40
1.0
176
     1
  0
VISUALSTYLE
  5
42
102
{ACAD_REACTORS
330
2A
102
}
330
2A
100
AcDbVisualStyle
  2
Shaded
 70
    27
177
     3
291
     0
 70
    58
 90
        2
176
     1
 90
        2
176
     1
 90
        1
176
     1
 90
        2
176
     1
 40
0.6
176
     1
 40
30.0
176
     1
 62
     7
420
 16777215
176
     1
 90
        0
176
     1
 90
        4
176
     1
 62
     7
176
     1
 62
   257
176
     1
 90
        1
176
     1
 90
        1
176
     1
 40
1.0
176
     1
 90
        8
176
     1
 62
   257
176
     1
 40
1.0
176
     1
 90
        1
176
     1
 90
        6
176
     1
 90
        2
176
     1
 62
     8
420
  7895160
176
     1
 90
        3
176
     1
 90
        0
176
     1
 90
        0
176
     1
290
     0
176
     1
 90
        5
176
     1
 40
0.0
176
     1
 90
        0
176
     1
290
     0
176
     1
290
     1
176
     1
290
     1
176
     1
290
     0
176
     1
290
     0
176
     1
290
     0
176
     1
290
     0
176
     1
290
     0
176
     1
290
     0
176
     1
 90
       50
176
     1
 40
0.0
176
     1
 40
1.0
176
     1
 90
        0
176
     1
 62
    18
420
        0
176
     1
 90
       50
176
     1
 90
        3
176
     1
 62
     5
420
      255
176
     1
290
     0
176
     1
 90
       50
176
     1
 90
       50
176
     1
 90
       50
176
     1
290
     0
176
     1
 90
       50
176
     1
 62
   256
176
     0
 40
1.0
176
     0
 90
        2
176
     1
  1
strokes_ogs.tif
176
     1
290
     0
176
     1
 40
1.0
176
     1
 40
1.0
176
     1
  0
VISUALSTYLE
  5
41
102
{ACAD_REACTORS
330
2A
102
}
330
2A
100
AcDbVisualStyle
  2
Shaded with edges
 70
    26
177
     3
291
     0
 70
    58
 90
        2
176
     1
 90
        2
176
     1
 90
        1
176
     1
 90
        2
176
     1
 40
0.6
176
     1
 40
30.0
176
     1
 62
     7
420
 16777215
176
     1
 90
        1
176
     1
 90
       10
176
     1
 62
     7
176
     1
 62
   257
176
     1
 90
        2
176
     1
 90
        1
176
     1
 40
1.0
176
     1
 90
        8
176
     1
 62
   257
176
     1
 40
1.0
176
     1
 90
        1
176
     1
 90
        6
176
     1
 90
        2
176
     1
 62
     7
176
     1
 90
        3
176
     1
 90
        0
176
     1
 90
        0
176
     1
290
     0
176
     1
 90
        5
176
     1
 40
0.0
176
     1
 90
        0
176
     1
290
     0
176
     1
290
     1
176
     1
290
     1
176
     1
290
     0
176
     1
290
     0
176
     1
290
     0
176
     1
290
     0
176
     1
290
     0
176
     1
290
     0
176
     1
 90
       50
176
     1
 40
0.0
176
     1
 40
1.0
176
     1
 90
        0
176
     1
 62
    18
420
        0
176
     1
 90
       50
176
     1
 90
        3
176
     1
 62
     5
420
      255
176
     1
290
     0
176
     1
 90
       50
176
     1
 90
       50
176
     1
 90
       50
176
     1
290
     0
176
     1
 90
       50
176
     1
 62
   256
176
     0
 40
1.0
176
     0
 90
        2
176
     1
  1
strokes_ogs.tif
176
     1
290
     0
176
     1
 40
1.0
176
     1
 40
1.0
176
     1
  0
VISUALSTYLE
  5
3E
102
{ACAD_REACTORS
330
2A
102
}
330
2A
100
AcDbVisualStyle
  2
Shades of Gray
 70
    23
177
     3
291
     0
 70
    58
 90
        2
176
     1
 90
        2
176
     1
 90
        3
176
     1
 90
        0
176
     1
 40
0.6
176
     1
 40
30.0
176
     1
 62
     7
420
 16777215
176
     1
 90
        2
176
     1
 90
        2
176
     1
 62
     7
176
     1
 62
     7
176
     1
 90
        1
176
     1
 90
        1
176
     1
 40
40.0
176
     1
 90
        8
176
     1
 62
     7
176
     1
 40
1.0
176
     1
 90
        1
176
     1
 90
        6
176
     1
 90
        2
176
     1
 62
     7
176
     1
 90
        3
176
     1
 90
        0
176
     1
 90
        0
176
     1
290
     0
176
     1
 90
        1
176
     1
 40
0.0
176
     1
 90
        0
176
     1
290
     0
176
     1
290
     1
176
     1
290
     1
176
     1
290
     0
176
     1
290
     0
176
     1
290
     0
176
     1
290
     0
176
     1
290
     0
176
     1
290
     0
176
     1
 90
       50
176
     1
 40
0.0
176
     1
 40
1.0
176
     1
 90
        0
176
     1
 62
    18
420
        0
176
     1
 90
       50
176
     1
 90
        3
176
     1
 62
     5
420
      255
176
     1
290
     0
176
     1
 90
       50
176
     1
 90
       50
176
     1
 90
       50
176
     1
290
     0
176
     1
 90
       50
176
     1
 62
   256
176
     0
 40
1.0
176
     0
 90
        2
176
     1
  1
strokes_ogs.tif
176
     1
290
     0
176
     1
 40
1.0
176
     1
 40
1.0
176
     1
  0
VISUALSTYLE
  5
3F
102
{ACAD_REACTORS
330
2A
102
}
330
2A
100
AcDbVisualStyle
  2
Sketchy
 70
    24
177
     3
291
     0
 70
    58
 90
        1
176
     1
 90
        2
176
     1
 90
        2
176
     1
 90
        0
176
     1
 40
0.6
176
     1
 40
30.0
176
     1
 62
     7
420
 16777215
176
     1
 90
        2
176
     1
 90
        2
176
     1
 62
     7
176
     1
 62
     7
176
     1
 90
        1
176
     1
 90
        1
176
     1
 40
40.0
176
     1
 90
       11
176
     1
 62
     7
176
     1
 40
1.0
176
     1
 90
        1
176
     1
 90
        6
176
     1
 90
        2
176
     1
 62
     7
176
     1
 90
        6
176
     1
 90
        0
176
     1
 90
        0
176
     1
290
     0
176
     1
 90
        1
176
     1
 40
0.0
176
     1
 90
        0
176
     1
290
     0
176
     1
290
     1
176
     1
290
     1
176
     1
290
     0
176
     1
290
     0
176
     1
290
     0
176
     1
290
     0
176
     1
290
     0
176
     1
290
     0
176
     1
 90
       50
176
     1
 40
0.0
176
     1
 40
1.0
176
     1
 90
        0
176
     1
 62
    18
420
        0
176
     1
 90
       50
176
     1
 90
        3
176
     1
 62
     5
420
      255
176
     1
290
     0
176
     1
 90
       50
176
     1
 90
       50
176
     1
 90
       50
176
     1
290
     0
176
     1
 90
       50
176
     1
 62
   256
176
     0
 40
1.0
176
     0
 90
        2
176
     1
  1
strokes_ogs.tif
176
     1
290
     0
176
     1
 40
1.0
176
     1
 40
1.0
176
     1
  0
VISUALSTYLE
  5
37
102
{ACAD_REACTORS
330
2A
102
}
330
2A
100
AcDbVisualStyle
  2
Thicken
 70
    13
177
     3
291
     1
 70
    58
 90
        2
176
     1
 90
        2
176
     1
 90
        0
176
     1
 90
        0
176
     1
 40
0.6
176
     1
 40
30.0
176
     1
 62
     7
420
 16777215
176
     1
 90
        1
176
     1
 90
        4
176
     1
 62
     7
176
     1
 62
   257
176
     1
 90
        1
176
     1
 90
        1
176
     1
 40
1.0
176
     1
 90
       12
176
     1
 62
     7
176
     1
 40
1.0
176
     1
 90
        1
176
     1
 90
        6
176
     1
 90
        2
176
     1
 62
     7
176
     1
 90
        5
176
     1
 90
        0
176
     1
 90
        0
176
     1
290
     0
176
     1
 90
        1
176
     1
 40
0.0
176
     1
 90
        0
176
     1
290
     0
176
     1
290
     1
176
     1
290
     1
176
     1
290
     0
176
     1
290
     0
176
     1
290
     0
176
     1
290
     0
176
     1
290
     0
176
     1
290
     0
176
     1
 90
       50
176
     1
 40
0.0
176
     1
 40
1.0
176
     1
 90
        0
176
     1
 62
    18
420
        0
176
     1
 90
       50
176
     1
 90
        3
176
     1
 62
     5
420
      255
176
     1
290
     0
176
     1
 90
       50
176
     1
 90
       50
176
     1
 90
       50
176
     1
290
     0
176
     1
 90
       50
176
     1
 62
   256
176
     0
 40
1.0
176
     0
 90
        2
176
     1
  1
strokes_ogs.tif
176
     1
290
     0
176
     1
 40
1.0
176
     1
 40
1.0
176
     1
  0
VISUALSTYLE
  5
30
102
{ACAD_REACTORS
330
2A
102
}
330
2A
100
AcDbVisualStyle
  2
Wireframe
 70
     5
177
     3
291
     0
 70
    58
 90
        0
176
     1
 90
        2
176
     1
 90
        0
176
     1
 90
        0
176
     1
 40
0.6
176
     1
 40
30.0
176
     1
 62
     7
420
 16777215
176
     1
 90
        1
176
     1
 90
        4
176
     1
 62
     7
176
     1
 62
   257
176
     1
 90
        1
176
     1
 90
        1
176
     1
 40
1.0
176
     1
 90
        0
176
     1
 62
   257
176
     1
 40
1.0
176
     1
 90
        1
176
     1
 90
        6
176
     1
 90
        2
176
     1
 62
     7
176
     1
 90
        3
176
     1
 90
        0
176
     1
 90
        0
176
     1
290
     0
176
     1
 90
        1
176
     1
 40
0.0
176
     1
 90
        0
176
     1
290
     0
176
     1
290
     1
176
     1
290
     1
176
     1
290
     0
176
     1
290
     0
176
     1
290
     0
176
     1
290
     0
176
     1
290
     0
176
     1
290
     0
176
     1
 90
       50
176
     1
 40
0.0
176
     1
 40
1.0
176
     1
 90
        0
176
     1
 62
    18
420
        0
176
     1
 90
       50
176
     1
 90
        3
176
     1
 62
     5
420
      255
176
     1
290
     0
176
     1
 90
       50
176
     1
 90
       50
176
     1
 90
       50
176
     1
290
     0
176
     1
 90
       50
176
     1
 62
   256
176
     0
 40
1.0
176
     0
 90
        2
176
     1
  1
strokes_ogs.tif
176
     1
290
     0
176
     1
 40
1.0
176
     1
 40
1.0
176
     1
  0
VISUALSTYLE
  5
40
102
{ACAD_REACTORS
330
2A
102
}
330
2A
100
AcDbVisualStyle
  2
X-Ray
 70
    25
177
     3
291
     0
 70
    58
 90
        2
176
     1
 90
        2
176
     1
 90
        1
176
     1
 90
        1
176
     1
 40
0.5
176
     1
 40
30.0
176
     1
 62
     7
420
 16777215
176
     1
 90
        1
176
     1
 90
        0
176
     1
 62
     7
176
     1
 62
   257
176
     1
 90
        1
176
     1
 90
        1
176
     1
 40
1.0
176
     1
 90
        8
176
     1
 62
     7
176
     1
 40
1.0
176
     1
 90
        1
176
     1
 90
        6
176
     1
 90
        2
176
     1
 62
     7
176
     1
 90
        3
176
     1
 90
        0
176
     1
 90
        0
176
     1
290
     0
176
     1
 90
       13
176
     1
 40
0.0
176
     1
 90
        0
176
     1
290
     0
176
     1
290
     1
176
     1
290
     1
176
     1
290
     0
176
     1
290
     0
176
     1
290
     0
176
     1
290
     0
176
     1
290
     0
176
     1
290
     0
176
     1
 90
       50
176
     1
 40
0.0
176
     1
 40
1.0
176
     1
 90
        0
176
     1
 62
    18
420
        0
176
     1
 90
       50
176
     1
 90
        3
176
     1
 62
     5
420
      255
176
     1
290
     0
176
     1
 90
       50
176
     1
 90
       50
176
     1
 90
       50
176
     1
290
     0
176
     1
 90
       50
176
     1
 62
   256
176
     0
 40
1.0
176
     0
 90
        2
176
     1
  1
strokes_ogs.tif
176
     1
290
     0
176
     1
 40
1.0
176
     1
 40
1.0
176
     1
  0
DICTIONARYVAR
  5
117
102
{ACAD_REACTORS
330
116
102
}
330
116
100
DictionaryVariables
280
     0
  1
1:1
  0
DICTIONARYVAR
  5
11F
102
{ACAD_REACTORS
330
116
102
}
330
116
100
DictionaryVariables
280
     0
  1
3.500000
  0
DICTIONARYVAR
  5
120
102
{ACAD_REACTORS
330
116
102
}
330
116
100
DictionaryVariables
280
     0
  1
acadiso.lin
  0
DICTIONARYVAR
  5
11C
102
{ACAD_REACTORS
330
116
102
}
330
116
100
DictionaryVariables
280
     0
  1
Standard
  0
DICTIONARYVAR
  5
11B
102
{ACAD_REACTORS
330
116
102
}
330
116
100
DictionaryVariables
280
     0
  1
Standard
  0
DICTIONARY
  5
118
330
5A
100
AcDbDictionary
280
     1
281
     1
  3
ACAD_ROUNDTRIP_2008_TABLESTYLE_CELLSTYLEMAP
360
119
  0
CELLSTYLEMAP
  5
119
102
{ACAD_REACTORS
330
118
102
}
330
118
100
AcDbCellStyleMap
 90
        3
300
CELLSTYLE
  1
TABLEFORMAT_BEGIN
 90
        5
170
     1
 91
        0
 92
    32768
 62
   257
 93
        1
300
CONTENTFORMAT
  1
CONTENTFORMAT_BEGIN
 90
        0
 91
        0
 92
        4
 93
        0
300

 40
0.0
140
1.0
 94
        5
 62
     0
340
11
144
6.0
309
CONTENTFORMAT_END
171
     1
301
MARGIN
  1
CELLMARGIN_BEGIN
 40
1.5
 40
1.5
 40
1.5
 40
1.5
 40
1.5
 40
1.5
309
CELLMARGIN_END
 94
        6
 95
        1
302
GRIDFORMAT
  1
GRIDFORMAT_BEGIN
 90
        0
 91
        1
 62
     0
 92
       -2
340
14
 93
        0
 40
0.045
309
GRIDFORMAT_END
 95
        2
302
GRIDFORMAT
  1
GRIDFORMAT_BEGIN
 90
        0
 91
        1
 62
     0
 92
       -2
340
14
 93
        0
 40
0.045
309
GRIDFORMAT_END
 95
        4
302
GRIDFORMAT
  1
GRIDFORMAT_BEGIN
 90
        0
 91
        1
 62
     0
 92
       -2
340
14
 93
        0
 40
0.045
309
GRIDFORMAT_END
 95
        8
302
GRIDFORMAT
  1
GRIDFORMAT_BEGIN
 90
        0
 91
        1
 62
     0
 92
       -2
340
14
 93
        0
 40
0.045
309
GRIDFORMAT_END
 95
       16
302
GRIDFORMAT
  1
GRIDFORMAT_BEGIN
 90
        0
 91
        1
 62
     0
 92
       -2
340
14
 93
        0
 40
0.045
309
GRIDFORMAT_END
 95
       32
302
GRIDFORMAT
  1
GRIDFORMAT_BEGIN
 90
        0
 91
        1
 62
     0
 92
       -2
340
14
 93
        0
 40
0.045
309
GRIDFORMAT_END
309
TABLEFORMAT_END
  1
CELLSTYLE_BEGIN
 90
        1
 91
        1
300
_TITLE
309
CELLSTYLE_END
300
CELLSTYLE
  1
TABLEFORMAT_BEGIN
 90
        5
170
     1
 91
        0
 92
        0
 62
   257
 93
        1
300
CONTENTFORMAT
  1
CONTENTFORMAT_BEGIN
 90
        0
 91
        0
 92
        4
 93
        0
300

 40
0.0
140
1.0
 94
        5
 62
     0
340
11
144
4.5
309
CONTENTFORMAT_END
171
     1
301
MARGIN
  1
CELLMARGIN_BEGIN
 40
1.5
 40
1.5
 40
1.5
 40
1.5
 40
1.5
 40
1.5
309
CELLMARGIN_END
 94
        6
 95
        1
302
GRIDFORMAT
  1
GRIDFORMAT_BEGIN
 90
        0
 91
        1
 62
     0
 92
       -2
340
14
 93
        0
 40
0.045
309
GRIDFORMAT_END
 95
        2
302
GRIDFORMAT
  1
GRIDFORMAT_BEGIN
 90
        0
 91
        1
 62
     0
 92
       -2
340
14
 93
        0
 40
0.045
309
GRIDFORMAT_END
 95
        4
302
GRIDFORMAT
  1
GRIDFORMAT_BEGIN
 90
        0
 91
        1
 62
     0
 92
       -2
340
14
 93
        0
 40
0.045
309
GRIDFORMAT_END
 95
        8
302
GRIDFORMAT
  1
GRIDFORMAT_BEGIN
 90
        0
 91
        1
 62
     0
 92
       -2
340
14
 93
        0
 40
0.045
309
GRIDFORMAT_END
 95
       16
302
GRIDFORMAT
  1
GRIDFORMAT_BEGIN
 90
        0
 91
        1
 62
     0
 92
       -2
340
14
 93
        0
 40
0.045
309
GRIDFORMAT_END
 95
       32
302
GRIDFORMAT
  1
GRIDFORMAT_BEGIN
 90
        0
 91
        1
 62
     0
 92
       -2
340
14
 93
        0
 40
0.045
309
GRIDFORMAT_END
309
TABLEFORMAT_END
  1
CELLSTYLE_BEGIN
 90
        2
 91
        1
300
_HEADER
309
CELLSTYLE_END
300
CELLSTYLE
  1
TABLEFORMAT_BEGIN
 90
        5
170
     1
 91
        0
 92
        0
 62
   257
 93
        1
300
CONTENTFORMAT
  1
CONTENTFORMAT_BEGIN
 90
        0
 91
        0
 92
        4
 93
        0
300

 40
0.0
140
1.0
 94
        2
 62
     0
340
11
144
4.5
309
CONTENTFORMAT_END
171
     1
301
MARGIN
  1
CELLMARGIN_BEGIN
 40
1.5
 40
1.5
 40
1.5
 40
1.5
 40
1.5
 40
1.5
309
CELLMARGIN_END
 94
        6
 95
        1
302
GRIDFORMAT
  1
GRIDFORMAT_BEGIN
 90
        0
 91
        1
 62
     0
 92
       -2
340
14
 93
        0
 40
0.045
309
GRIDFORMAT_END
 95
        2
302
GRIDFORMAT
  1
GRIDFORMAT_BEGIN
 90
        0
 91
        1
 62
     0
 92
       -2
340
14
 93
        0
 40
0.045
309
GRIDFORMAT_END
 95
        4
302
GRIDFORMAT
  1
GRIDFORMAT_BEGIN
 90
        0
 91
        1
 62
     0
 92
       -2
340
14
 93
        0
 40
0.045
309
GRIDFORMAT_END
 95
        8
302
GRIDFORMAT
  1
GRIDFORMAT_BEGIN
 90
        0
 91
        1
 62
     0
 92
       -2
340
14
 93
        0
 40
0.045
309
GRIDFORMAT_END
 95
       16
302
GRIDFORMAT
  1
GRIDFORMAT_BEGIN
 90
        0
 91
        1
 62
     0
 92
       -2
340
14
 93
        0
 40
0.045
309
GRIDFORMAT_END
 95
       32
302
GRIDFORMAT
  1
GRIDFORMAT_BEGIN
 90
        0
 91
        1
 62
     0
 92
       -2
340
14
 93
        0
 40
0.045
309
GRIDFORMAT_END
309
TABLEFORMAT_END
  1
CELLSTYLE_BEGIN
 90
        3
 91
        2
300
_DATA
309
CELLSTYLE_END
  0
ENDSEC
  0
EOF
