  0
SECTION
  2
HEADER
  9
$ACADVER
  1
AC1027
  9
$ACADMAINTVER
 70
   105
  9
$DWGCODEPAGE
  3
ANSI_1252
  9
$LASTSAVEDBY
  1
Nick
  9
$REQUIREDVERSIONS
160
                 0
  9
$INSBASE
 10
0.0
 20
0.0
 30
0.0
  9
$EXTMIN
 10
0.0
 20
0.0
 30
0.0
  9
$EXTMAX
 10
420.0
 20
297.0
 30
0.0
  9
$LIMMIN
 10
0.0
 20
0.0
  9
$LIMMAX
 10
420.0
 20
297.0
  9
$ORTHOMODE
 70
     0
  9
$REGENMODE
 70
     1
  9
$FILLMODE
 70
     1
  9
$QTEXTMODE
 70
     0
  9
$MIRRTEXT
 70
     1
  9
$LTSCALE
 40
1.0
  9
$ATTMODE
 70
     1
  9
$TEXTSIZE
 40
4.2333333333
  9
$TRACEWID
 40
1.0
  9
$TEXTSTYLE
  7
Standard
  9
$CLAYER
  8
0
  9
$CELTYPE
  6
ByLayer
  9
$CECOLOR
 62
   256
  9
$CELTSCALE
 40
1.0
  9
$DISPSILH
 70
     0
  9
$DIMSCALE
 40
1.0
  9
$DIMASZ
 40
3.302
  9
$DIMEXO
 40
1.0
  9
$DIMDLI
 40
3.75
  9
$DIMRND
 40
0.0
  9
$DIMDLE
 40
0.0
  9
$DIMEXE
 40
1.0
  9
$DIMTP
 40
0.0
  9
$DIMTM
 40
0.0
  9
$DIMTXT
 40
4.2333333333
  9
$DIMCEN
 40
2.5
  9
$DIMTSZ
 40
0.0
  9
$DIMTOL
 70
     0
  9
$DIMLIM
 70
     0
  9
$DIMTIH
 70
     1
  9
$DIMTOH
 70
     1
  9
$DIMSE1
 70
     0
  9
$DIMSE2
 70
     0
  9
$DIMTAD
 70
     1
  9
$DIMZIN
 70
     1
  9
$DIMBLK
  1

  9
$DIMASO
 70
     1
  9
$DIMSHO
 70
     1
  9
$DIMPOST
  1

  9
$DIMAPOST
  1

  9
$DIMALT
 70
     0
  9
$DIMALTD
 70
     3
  9
$DIMALTF
 40
0.0393700787
  9
$DIMLFAC
 40
1.0
  9
$DIMTOFL
 70
     1
  9
$DIMTVP
 40
0.0
  9
$DIMTIX
 70
     0
  9
$DIMSOXD
 70
     0
  9
$DIMSAH
 70
     0
  9
$DIMBLK1
  1

  9
$DIMBLK2
  1

  9
$DIMSTYLE
  2
ISO-25
  9
$DIMCLRD
 70
     0
  9
$DIMCLRE
 70
     0
  9
$DIMCLRT
 70
     0
  9
$DIMTFAC
 40
1.0
  9
$DIMGAP
 40
1.524
  9
$DIMJUST
 70
     0
  9
$DIMSD1
 70
     0
  9
$DIMSD2
 70
     0
  9
$DIMTOLJ
 70
     0
  9
$DIMTZIN
 70
     1
  9
$DIMALTZ
 70
     0
  9
$DIMALTTZ
 70
     0
  9
$DIMUPT
 70
     0
  9
$DIMDEC
 70
     0
  9
$DIMTDEC
 70
     0
  9
$DIMALTU
 70
     2
  9
$DIMALTTD
 70
     3
  9
$DIMTXSTY
  7
Standard
  9
$DIMAUNIT
 70
     0
  9
$DIMADEC
 70
     2
  9
$DIMALTRND
 40
0.0
  9
$DIMAZIN
 70
     0
  9
$DIMDSEP
 70
    44
  9
$DIMATFIT
 70
     3
  9
$DIMFRAC
 70
     0
  9
$DIMLDRBLK
  1

  9
$DIMLUNIT
 70
     2
  9
$DIMLWD
 70
    -2
  9
$DIMLWE
 70
    -2
  9
$DIMTMOVE
 70
     0
  9
$DIMFXL
 40
1.0
  9
$DIMFXLON
 70
     0
  9
$DIMJOGANG
 40
0.7853981634
  9
$DIMTFILL
 70
     0
  9
$DIMTFILLCLR
 70
     0
  9
$DIMARCSYM
 70
     0
  9
$DIMLTYPE
  6

  9
$DIMLTEX1
  6

  9
$DIMLTEX2
  6

  9
$DIMTXTDIRECTION
 70
     0
  9
$LUNITS
 70
     2
  9
$LUPREC
 70
     0
  9
$SKETCHINC
 40
1.0
  9
$FILLETRAD
 40
0.0
  9
$AUNITS
 70
     0
  9
$AUPREC
 70
     2
  9
$MENU
  1
.
  9
$ELEVATION
 40
0.0
  9
$PELEVATION
 40
0.0
  9
$THICKNESS
 40
0.0
  9
$LIMCHECK
 70
     0
  9
$CHAMFERA
 40
0.0
  9
$CHAMFERB
 40
0.0
  9
$CHAMFERC
 40
0.0
  9
$CHAMFERD
 40
0.0
  9
$SKPOLY
 70
     0
  9
$TDCREATE
 40
2460934.445863889
  9
$TDUCREATE
 40
2460934.029197222
  9
$TDUPDATE
 40
2460934.445864167
  9
$TDUUPDATE
 40
2460934.0291975
  9
$TDINDWG
 40
0.0000000116
  9
$TDUSRTIMER
 40
0.0000000116
  9
$USRTIMER
 70
     1
  9
$ANGBASE
 50
0.0
  9
$ANGDIR
 70
     0
  9
$PDMODE
 70
     0
  9
$PDSIZE
 40
-1.0
  9
$PLINEWID
 40
0.0
  9
$SPLFRAME
 70
     0
  9
$SPLINETYPE
 70
     6
  9
$SPLINESEGS
 70
     8
  9
$HANDSEED
  5
11D
  9
$SURFTAB1
 70
     6
  9
$SURFTAB2
 70
     6
  9
$SURFTYPE
 70
     6
  9
$SURFU
 70
     6
  9
$SURFV
 70
     6
  9
$UCSBASE
  2

  9
$UCSNAME
  2

  9
$UCSORG
 10
0.0
 20
0.0
 30
0.0
  9
$UCSXDIR
 10
1.0
 20
0.0
 30
0.0
  9
$UCSYDIR
 10
0.0
 20
1.0
 30
0.0
  9
$UCSORTHOREF
  2

  9
$UCSORTHOVIEW
 70
     0
  9
$UCSORGTOP
 10
0.0
 20
0.0
 30
0.0
  9
$UCSORGBOTTOM
 10
0.0
 20
0.0
 30
0.0
  9
$UCSORGLEFT
 10
0.0
 20
0.0
 30
0.0
  9
$UCSORGRIGHT
 10
0.0
 20
0.0
 30
0.0
  9
$UCSORGFRONT
 10
0.0
 20
0.0
 30
0.0
  9
$UCSORGBACK
 10
0.0
 20
0.0
 30
0.0
  9
$PUCSBASE
  2

  9
$PUCSNAME
  2

  9
$PUCSORG
 10
0.0
 20
0.0
 30
0.0
  9
$PUCSXDIR
 10
1.0
 20
0.0
 30
0.0
  9
$PUCSYDIR
 10
0.0
 20
1.0
 30
0.0
  9
$PUCSORTHOREF
  2

  9
$PUCSORTHOVIEW
 70
     0
  9
$PUCSORGTOP
 10
0.0
 20
0.0
 30
0.0
  9
$PUCSORGBOTTOM
 10
0.0
 20
0.0
 30
0.0
  9
$PUCSORGLEFT
 10
0.0
 20
0.0
 30
0.0
  9
$PUCSORGRIGHT
 10
0.0
 20
0.0
 30
0.0
  9
$PUCSORGFRONT
 10
0.0
 20
0.0
 30
0.0
  9
$PUCSORGBACK
 10
0.0
 20
0.0
 30
0.0
  9
$USERI1
 70
     0
  9
$USERI2
 70
     0
  9
$USERI3
 70
     0
  9
$USERI4
 70
     0
  9
$USERI5
 70
     0
  9
$USERR1
 40
0.0
  9
$USERR2
 40
0.0
  9
$USERR3
 40
0.0
  9
$USERR4
 40
0.0
  9
$USERR5
 40
0.0
  9
$WORLDVIEW
 70
     1
  9
$SHADEDGE
 70
     3
  9
$SHADEDIF
 70
    70
  9
$TILEMODE
 70
     1
  9
$MAXACTVP
 70
    64
  9
$PINSBASE
 10
0.0
 20
0.0
 30
0.0
  9
$PLIMCHECK
 70
     0
  9
$PEXTMIN
 10
1.0000000000E+20
 20
1.0000000000E+20
 30
1.0000000000E+20
  9
$PEXTMAX
 10
-1.0000000000E+20
 20
-1.0000000000E+20
 30
-1.0000000000E+20
  9
$PLIMMIN
 10
0.0
 20
0.0
  9
$PLIMMAX
 10
420.0
 20
297.0
  9
$UNITMODE
 70
     0
  9
$VISRETAIN
 70
     1
  9
$PLINEGEN
 70
     0
  9
$PSLTSCALE
 70
     1
  9
$TREEDEPTH
 70
  3020
  9
$CMLSTYLE
  2
Standard
  9
$CMLJUST
 70
     0
  9
$CMLSCALE
 40
20.0
  9
$PROXYGRAPHICS
 70
     1
  9
$MEASUREMENT
 70
     1
  9
$CELWEIGHT
370
    -1
  9
$ENDCAPS
280
     0
  9
$JOINSTYLE
280
     0
  9
$LWDISPLAY
290
     1
  9
$INSUNITS
 70
     4
  9
$HYPERLINKBASE
  1

  9
$STYLESHEET
  1

  9
$XEDIT
290
     1
  9
$CEPSNTYPE
380
     0
  9
$PSTYLEMODE
290
     1
  9
$FINGERPRINTGUID
  2
{1ad510b5-3f0f-4201-97c1-6090c522eeed}
  9
$VERSIONGUID
  2
{FAEB1C32-E019-11D5-929B-00C0DF256EC4}
  9
$EXTNAMES
290
     1
  9
$PSVPSCALE
 40
0.0
  9
$OLESTARTUP
290
     0
  9
$SORTENTS
280
   127
  9
$INDEXCTL
280
     0
  9
$HIDETEXT
280
     1
  9
$XCLIPFRAME
280
     2
  9
$HALOGAP
280
     0
  9
$OBSCOLOR
 70
   257
  9
$OBSLTYPE
280
     0
  9
$INTERSECTIONDISPLAY
280
     0
  9
$INTERSECTIONCOLOR
 70
   257
  9
$DIMASSOC
280
     2
  9
$PROJECTNAME
  1

  9
$CAMERADISPLAY
290
     0
  9
$LENSLENGTH
 40
50.0
  9
$CAMERAHEIGHT
 40
0.0
  9
$STEPSPERSEC
 40
2.0
  9
$STEPSIZE
 40
6.0
  9
$3DDWFPREC
 40
2.0
  9
$PSOLWIDTH
 40
5.0
  9
$PSOLHEIGHT
 40
80.0
  9
$LOFTANG1
 40
1.5707963268
  9
$LOFTANG2
 40
1.5707963268
  9
$LOFTMAG1
 40
0.0
  9
$LOFTMAG2
 40
0.0
  9
$LOFTPARAM
 70
     7
  9
$LOFTNORMALS
280
     1
  9
$LATITUDE
 40
37.795
  9
$LONGITUDE
 40
-122.394
  9
$NORTHDIRECTION
 40
0.0
  9
$TIMEZONE
 70
 -8000
  9
$LIGHTGLYPHDISPLAY
280
     1
  9
$TILEMODELIGHTSYNCH
280
     1
  9
$CMATERIAL
347
44
  9
$SOLIDHIST
280
     0
  9
$SHOWHIST
280
     1
  9
$DWFFRAME
280
     2
  9
$DGNFRAME
280
     2
  9
$REALWORLDSCALE
290
     1
  9
$INTERFERECOLOR
 62
   256
  9
$CSHADOW
280
     0
  9
$SHADOWPLANELOCATION
 40
0.0
  0
ENDSEC
  0
SECTION
  2
CLASSES
  0
CLASS
  1
ACDBDICTIONARYWDFLT
  2
AcDbDictionaryWithDefault
  3
ObjectDBX Classes
 90
        0
 91
        3
280
     0
281
     0
  0
CLASS
  1
VISUALSTYLE
  2
AcDbVisualStyle
  3
ObjectDBX Classes
 90
     4095
 91
        3
280
     0
281
     0
  0
CLASS
  1
MATERIAL
  2
AcDbMaterial
  3
ObjectDBX Classes
 90
     1153
 91
        3
280
     0
281
     0
  0
CLASS
  1
SCALE
  2
AcDbScale
  3
ObjectDBX Classes
 90
     1153
 91
        3
280
     0
281
     0
  0
CLASS
  1
TABLESTYLE
  2
AcDbTableStyle
  3
ObjectDBX Classes
 90
     4095
 91
        3
280
     0
281
     0
  0
CLASS
  1
MLEADERSTYLE
  2
AcDbMLeaderStyle
  3
ACDB_MLEADERSTYLE_CLASS
 90
     4095
 91
        3
280
     0
281
     0
  0
CLASS
  1
SUN
  2
AcDbSun
  3
SCENEOE
 90
     1153
 91
        3
280
     0
281
     0
  0
CLASS
  1
DICTIONARYVAR
  2
AcDbDictionaryVar
  3
ObjectDBX Classes
 90
        0
 91
        3
280
     0
281
     0
  0
CLASS
  1
CELLSTYLEMAP
  2
AcDbCellStyleMap
  3
ObjectDBX Classes
 90
     1152
 91
        3
280
     0
281
     0
  0
ENDSEC
  0
SECTION
  2
TABLES
  0
TABLE
  2
VPORT
  5
8
330
0
100
AcDbSymbolTable
 70
     1
  0
VPORT
  5
29
330
8
100
AcDbSymbolTableRecord
100
AcDbViewportTableRecord
  2
*Active
 70
     0
 10
0.0
 20
0.0
 11
1.0
 21
1.0
 12
210.0
 22
148.5
 13
0.0
 23
0.0
 14
10.0
 24
10.0
 15
10.0
 25
10.0
 16
0.0
 26
0.0
 36
1.0
 17
0.0
 27
0.0
 37
0.0
 40
297.0
 41
1.4141414141
 42
50.0
 43
0.0
 44
0.0
 50
0.0
 51
0.0
 71
     0
 72
  2000
 73
     1
 74
     3
 75
     0
 76
     0
 77
     0
 78
     0
281
     0
 65
     1
110
0.0
120
0.0
130
0.0
111
1.0
121
0.0
131
0.0
112
0.0
122
1.0
132
0.0
 79
     0
146
0.0
348
2F
 60
     3
 61
     5
292
     1
282
     1
141
0.0
142
0.0
 63
   250
361
5D
  0
ENDTAB
  0
TABLE
  2
LTYPE
  5
5
330
0
100
AcDbSymbolTable
 70
     6
  0
LTYPE
  5
14
330
5
100
AcDbSymbolTableRecord
100
AcDbLinetypeTableRecord
  2
ByBlock
 70
     0
  3

 72
    65
 73
     0
 40
0.0
  0
LTYPE
  5
15
330
5
100
AcDbSymbolTableRecord
100
AcDbLinetypeTableRecord
  2
ByLayer
 70
     0
  3

 72
    65
 73
     0
 40
0.0
  0
LTYPE
  5
16
330
5
100
AcDbSymbolTableRecord
100
AcDbLinetypeTableRecord
  2
Continuous
 70
     0
  3
Solid line
 72
    65
 73
     0
 40
0.0
  0
LTYPE
  5
5E
330
5
100
AcDbSymbolTableRecord
100
AcDbLinetypeTableRecord
  2
HIDDEN
 70
     0
  3
Hidden __ __ __ __ __ __ __ __ __ __ __ __ __ __
 72
    65
 73
     2
 40
1.905
 49
1.27
 74
     0
 49
-0.635
 74
     0
  0
LTYPE
  5
5F
330
5
100
AcDbSymbolTableRecord
100
AcDbLinetypeTableRecord
  2
PHANTOM
 70
     0
  3
Phantom ______  __  __  ______  __  __  ______
 72
    65
 73
     6
 40
12.7
 49
6.35
 74
     0
 49
-1.27
 74
     0
 49
1.27
 74
     0
 49
-1.27
 74
     0
 49
1.27
 74
     0
 49
-1.27
 74
     0
  0
LTYPE
  5
60
330
5
100
AcDbSymbolTableRecord
100
AcDbLinetypeTableRecord
  2
CENTER
 70
     0
  3
Center ____ _ ____ _ ____ _ ____ _ ____ _ ____
 72
    65
 73
     4
 40
10.16
 49
6.35
 74
     0
 49
-1.27
 74
     0
 49
1.27
 74
     0
 49
-1.27
 74
     0
  0
LTYPE
  5
61
330
5
100
AcDbSymbolTableRecord
100
AcDbLinetypeTableRecord
  2
CENTERX2
 70
     0
  3
Center (2x) ________  __  ________  __  _____
 72
    65
 73
     4
 40
20.32
 49
12.7
 74
     0
 49
-2.54
 74
     0
 49
2.54
 74
     0
 49
-2.54
 74
     0
  0
LTYPE
  5
62
330
5
100
AcDbSymbolTableRecord
100
AcDbLinetypeTableRecord
  2
DOT2
 70
     0
  3
Dot (.5x) ........................................
 72
    65
 73
     2
 40
0.635
 49
0.0
 74
     0
 49
-0.635
 74
     0
  0
ENDTAB
  0
TABLE
  2
LAYER
  5
2
330
0
100
AcDbSymbolTable
 70
    13
  0
LAYER
  5
10
330
2
100
AcDbSymbolTableRecord
100
AcDbLayerTableRecord
  2
0
 70
     0
 62
     7
  6
Continuous
370
    -3
390
F
347
46
348
0
  0
LAYER
  5
63
330
2
100
AcDbSymbolTableRecord
100
AcDbLayerTableRecord
  2
DRAWING-SHEET
 70
     0
 62
   179
  6
Continuous
370
    -3
390
F
347
46
348
0
  0
LAYER
  5
64
330
2
100
AcDbSymbolTableRecord
100
AcDbLayerTableRecord
  2
BORDER
 70
     0
 62
   179
  6
Continuous
370
    -3
390
F
347
46
348
0
  0
LAYER
  5
65
330
2
100
AcDbSymbolTableRecord
100
AcDbLayerTableRecord
  2
DIMENSIONS
 70
     0
 62
     7
  6
Continuous
370
    -3
390
F
347
46
348
0
  0
LAYER
  5
66
330
2
100
AcDbSymbolTableRecord
100
AcDbLayerTableRecord
  2
CENTRE_LINES
 70
     0
 62
     7
  6
Continuous
370
    -3
390
F
347
46
348
0
  0
LAYER
  5
67
330
2
100
AcDbSymbolTableRecord
100
AcDbLayerTableRecord
  2
FORMAT
 70
     0
 62
     7
  6
Continuous
370
    -3
390
F
347
46
348
0
  0
LAYER
  5
68
330
2
100
AcDbSymbolTableRecord
100
AcDbLayerTableRecord
  2
SLD-0
 70
     0
 62
   179
  6
Continuous
370
    -3
390
F
347
46
348
0
  0
LAYER
  5
69
330
2
100
AcDbSymbolTableRecord
100
AcDbLayerTableRecord
  2
OUTLINE
 70
     0
 62
     4
  6
Continuous
370
    -3
390
F
347
46
348
0
  0
LAYER
  5
6A
330
2
100
AcDbSymbolTableRecord
100
AcDbLayerTableRecord
  2
4
 70
     0
 62
     7
  6
Continuous
370
    70
390
F
347
46
348
0
  0
LAYER
  5
6B
330
2
100
AcDbSymbolTableRecord
100
AcDbLayerTableRecord
  2
TEXT25
 70
     0
 62
   179
  6
Continuous
370
    -3
390
F
347
46
348
0
  0
LAYER
  5
6C
330
2
100
AcDbSymbolTableRecord
100
AcDbLayerTableRecord
  2
TEXT35
 70
     0
 62
     7
  6
Continuous
370
    -3
390
F
347
46
348
0
  0
LAYER
  5
6D
330
2
100
AcDbSymbolTableRecord
100
AcDbLayerTableRecord
  2
TEXT5
 70
     0
 62
     7
  6
Continuous
370
    -3
390
F
347
46
348
0
  0
LAYER
  5
6E
330
2
100
AcDbSymbolTableRecord
100
AcDbLayerTableRecord
  2
5
 70
     0
 62
     7
  6
Continuous
370
    35
390
F
347
46
348
0
  0
ENDTAB
  0
TABLE
  2
STYLE
  5
3
330
0
100
AcDbSymbolTable
 70
     3
  0
STYLE
  5
11
330
3
100
AcDbSymbolTableRecord
100
AcDbTextStyleTableRecord
  2
Standard
 70
     0
 40
0.0
 41
1.0
 50
0.0
 71
     0
 42
4.2333333333
  3
txt
  4

  0
STYLE
  5
75
330
3
100
AcDbSymbolTableRecord
100
AcDbTextStyleTableRecord
  2
SLDTEXTSTYLE0
 70
     0
 40
0.0
 41
0.75
 50
0.0
 71
     0
 42
4.2333333333
  3
TXT
  4

  0
STYLE
  5
7B
330
3
100
AcDbSymbolTableRecord
100
AcDbTextStyleTableRecord
  2
SLDTEXTSTYLE1
 70
     0
 40
0.0
 41
0.6
 50
0.0
 71
     0
 42
4.2333333333
  3
TXT
  4

  0
ENDTAB
  0
TABLE
  2
VIEW
  5
6
330
0
100
AcDbSymbolTable
 70
     0
  0
ENDTAB
  0
TABLE
  2
UCS
  5
7
330
0
100
AcDbSymbolTable
 70
     0
  0
ENDTAB
  0
TABLE
  2
APPID
  5
9
330
0
100
AcDbSymbolTable
 70
     1
  0
APPID
  5
12
330
9
100
AcDbSymbolTableRecord
100
AcDbRegAppTableRecord
  2
ACAD
 70
     0
  0
ENDTAB
  0
TABLE
  2
DIMSTYLE
  5
A
330
0
100
AcDbSymbolTable
 70
     1
100
AcDbDimStyleTable
  0
DIMSTYLE
105
27
330
A
100
AcDbSymbolTableRecord
100
AcDbDimStyleTableRecord
  2
ISO-25
 70
     0
 41
2.5
 42
0.625
 43
3.75
 44
1.25
 73
     0
 74
     0
 77
     1
 78
     8
140
2.5
141
2.5
143
0.0393700787
147
0.625
171
     3
172
     1
178
     0
271
     2
272
     2
274
     3
278
    44
283
     0
284
     8
340
11
  0
ENDTAB
  0
TABLE
  2
BLOCK_RECORD
  5
1
330
0
100
AcDbSymbolTable
 70
     6
  0
BLOCK_RECORD
  5
1F
330
1
100
AcDbSymbolTableRecord
100
AcDbBlockTableRecord
  2
*Model_Space
340
22
 70
     0
280
     1
281
     0
  0
BLOCK_RECORD
  5
1B
330
1
100
AcDbSymbolTableRecord
100
AcDbBlockTableRecord
  2
*Paper_Space
340
1E
 70
     0
280
     1
281
     0
  0
BLOCK_RECORD
  5
23
330
1
100
AcDbSymbolTableRecord
100
AcDbBlockTableRecord
  2
*Paper_Space0
340
26
 70
     0
280
     1
281
     0
  0
BLOCK_RECORD
  5
6F
330
1
100
AcDbSymbolTableRecord
100
AcDbBlockTableRecord
  2
Block1
340
0
 70
     0
280
     1
281
     0
  0
BLOCK_RECORD
  5
72
330
1
100
AcDbSymbolTableRecord
100
AcDbBlockTableRecord
  2
SW_NOTE_0
340
0
102
{BLKREFS
331
77
102
}
 70
     0
280
     1
281
     0
  0
BLOCK_RECORD
  5
78
330
1
100
AcDbSymbolTableRecord
100
AcDbBlockTableRecord
  2
SW_NOTE_0_1
340
0
102
{BLKREFS
331
7D
102
}
 70
     0
280
     1
281
     0
  0
BLOCK_RECORD
  5
7E
330
1
100
AcDbSymbolTableRecord
100
AcDbBlockTableRecord
  2
SW_NOTE_0_2
340
0
102
{BLKREFS
331
82
102
}
 70
     0
280
     1
281
     0
  0
BLOCK_RECORD
  5
83
330
1
100
AcDbSymbolTableRecord
100
AcDbBlockTableRecord
  2
SW_NOTE_0_3
340
0
102
{BLKREFS
331
87
102
}
 70
     0
280
     1
281
     0
  0
ENDTAB
  0
ENDSEC
  0
SECTION
  2
BLOCKS
  0
BLOCK
  5
20
330
1F
100
AcDbEntity
  8
0
100
AcDbBlockBegin
  2
*Model_Space
 70
     0
 10
0.0
 20
0.0
 30
0.0
  3
*Model_Space
  1

  0
ENDBLK
  5
21
330
1F
100
AcDbEntity
  8
0
100
AcDbBlockEnd
  0
BLOCK
  5
1C
330
1B
100
AcDbEntity
 67
     1
  8
0
100
AcDbBlockBegin
  2
*Paper_Space
 70
     0
 10
0.0
 20
0.0
 30
0.0
  3
*Paper_Space
  1

  0
ENDBLK
  5
1D
330
1B
100
AcDbEntity
 67
     1
  8
0
100
AcDbBlockEnd
  0
BLOCK
  5
24
330
23
100
AcDbEntity
  8
0
100
AcDbBlockBegin
  2
*Paper_Space0
 70
     0
 10
0.0
 20
0.0
 30
0.0
  3
*Paper_Space0
  1

  0
ENDBLK
  5
25
330
23
100
AcDbEntity
  8
0
100
AcDbBlockEnd
  0
BLOCK
  5
70
330
6F
100
AcDbEntity
  8
0
100
AcDbBlockBegin
  2
Block1
 70
     0
 10
0.0
 20
0.0
 30
0.0
  3
Block1
  1

  0
INSERT
  5
77
330
6F
100
AcDbEntity
  8
0
  6
Continuous
 62
     7
370
     0
100
AcDbBlockReference
  2
SW_NOTE_0
 10
40.5248655077
 20
20.5912386523
 30
0.0
  0
INSERT
  5
7D
330
6F
100
AcDbEntity
  8
DRAWING-SHEET
 62
     7
100
AcDbBlockReference
  2
SW_NOTE_0_1
 10
3.556761253
 20
-0.3611706024
 30
0.0
  0
INSERT
  5
82
330
6F
100
AcDbEntity
  8
DRAWING-SHEET
 62
     7
100
AcDbBlockReference
  2
SW_NOTE_0_2
 10
7.9590819428
 20
3.0109637777
 30
0.0
  0
INSERT
  5
87
330
6F
100
AcDbEntity
  8
DRAWING-SHEET
 62
     7
100
AcDbBlockReference
  2
SW_NOTE_0_3
 10
0.0721004934
 20
6.5234823937
 30
0.0
  0
ENDBLK
  5
71
330
6F
100
AcDbEntity
  8
0
100
AcDbBlockEnd
  0
BLOCK
  5
73
330
72
100
AcDbEntity
  8
0
100
AcDbBlockBegin
  2
SW_NOTE_0
 70
     0
 10
0.0
 20
0.0
 30
0.0
  3
SW_NOTE_0
  1

  0
MTEXT
  5
76
330
72
100
AcDbEntity
  8
0
  6
Continuous
 62
     0
370
     0
100
AcDbMText
 10
0.0
 20
1.9336016097
 30
0.0
 40
1.5
 41
0.0
 46
0.0
 71
     1
 72
     1
  1
TITLE:
  7
SLDTEXTSTYLE0
 73
     1
 44
1.0
  0
ENDBLK
  5
74
330
72
100
AcDbEntity
  8
0
100
AcDbBlockEnd
  0
BLOCK
  5
79
330
78
100
AcDbEntity
  8
0
100
AcDbBlockBegin
  2
SW_NOTE_0_1
 70
     0
 10
0.0
 20
0.0
 30
0.0
  3
SW_NOTE_0_1
  1

  0
MTEXT
  5
7C
330
78
100
AcDbEntity
  8
DRAWING-SHEET
 62
     0
100
AcDbMText
 10
0.0
 20
2.7285267159
 30
0.0
 40
2.1166666667
 41
0.0
 46
0.0
 71
     1
 72
     1
  1
Email: roddyeng.com.au
  7
SLDTEXTSTYLE1
 73
     1
 44
1.0
  0
ENDBLK
  5
7A
330
78
100
AcDbEntity
  8
0
100
AcDbBlockEnd
  0
BLOCK
  5
7F
330
7E
100
AcDbEntity
  8
0
100
AcDbBlockBegin
  2
SW_NOTE_0_2
 70
     0
 10
0.0
 20
0.0
 30
0.0
  3
SW_NOTE_0_2
  1

  0
MTEXT
  5
81
330
7E
100
AcDbEntity
  8
DRAWING-SHEET
 62
     0
100
AcDbMText
 10
0.0
 20
2.7285267159
 30
0.0
 40
2.1166666667
 41
0.0
 46
0.0
 71
     1
 72
     1
  1
Ph: - 02 6947 4039
  7
SLDTEXTSTYLE1
 73
     1
 44
1.0
  0
ENDBLK
  5
80
330
7E
100
AcDbEntity
  8
0
100
AcDbBlockEnd
  0
BLOCK
  5
84
330
83
100
AcDbEntity
  8
0
100
AcDbBlockBegin
  2
SW_NOTE_0_3
 70
     0
 10
0.0
 20
0.0
 30
0.0
  3
SW_NOTE_0_3
  1

  0
MTEXT
  5
86
330
83
100
AcDbEntity
  8
DRAWING-SHEET
 62
     0
100
AcDbMText
 10
0.0
 20
2.7285267159
 30
0.0
 40
2.1166666667
 41
0.0
 46
0.0
 71
     1
 72
     1
  1
14 Waratah St TUMUT NSW 2720
  7
SLDTEXTSTYLE1
 73
     1
 44
1.0
  0
ENDBLK
  5
85
330
83
100
AcDbEntity
  8
0
100
AcDbBlockEnd
  0
ENDSEC
  0
SECTION
  2
ENTITIES
  0
SPLINE
  5
88
330
1F
100
AcDbEntity
  8
0
  6
Continuous
 62
     7
370
    25
100
AcDbSpline
210
0.0
220
0.0
230
1.0
 70
     8
 71
     3
 72
    31
 73
    27
 74
     0
 42
0.00000001
 43
0.00000001
 40
0.0
 40
0.0
 40
0.0
 40
0.0
 40
0.0337881161627101
 40
0.0671939323738785
 40
0.0998624108568231
 40
0.1325666121262573
 40
0.1651511732547859
 40
0.1979131873557908
 40
0.2313190035669602
 40
0.2650832782673721
 40
0.2992553087581151
 40
0.3343985665049788
 40
0.3699428235093068
 40
0.4062835607000605
 40
0.4440638196985093
 40
0.4829977068727743
 40
0.5233544466133033
 40
0.5655365896041498
 40
0.6096129240658184
 40
0.6563908113764167
 40
0.7058854949364557
 40
0.758324500261731
 40
0.8138317829411497
 40
0.8727945590393887
 40
0.9347222295400733
 40
1.0
 40
1.0
 40
1.0
 40
1.0
 10
867.1315719870938
 20
719.2749150012274
 30
0.0
 10
867.1951959379151
 20
719.2737999951116
 30
0.0
 10
867.3217239582481
 20
719.271582598759
 30
0.0
 10
867.5087876730959
 20
719.2502707301085
 30
0.0
 10
867.6915298027292
 20
719.2149081630298
 30
0.0
 10
867.8691712626229
 20
719.1648030782693
 30
0.0
 10
868.0431712316922
 20
719.1026415316193
 30
0.0
 10
868.2121687348823
 20
719.024728121084
 30
0.0
 10
868.3772134929211
 20
718.9340335671538
 30
0.0
 10
868.5356827215381
 20
718.8274647047386
 30
0.0
 10
868.6893161280433
 20
718.7086480734318
 30
0.0
 10
868.8343400434082
 20
718.5743334018813
 30
0.0
 10
868.9707676683167
 20
718.4258769006958
 30
0.0
 10
869.1003112234852
 20
718.2648669260979
 30
0.0
 10
869.2192954456549
 20
718.088215303621
 30
0.0
 10
869.3326061479073
 20
717.8989944811888
 30
0.0
 10
869.4340279442539
 20
717.6938953616601
 30
0.0
 10
869.531707201805
 20
717.4763400065948
 30
0.0
 10
869.6160203143519
 20
717.2403087864652
 30
0.0
 10
869.6920574464028
 20
716.9871321909953
 30
0.0
 10
869.75349508886
 20
716.713819763902
 30
0.0
 10
869.8046705684899
 20
716.4218054889418
 30
0.0
 10
869.844316044937
 20
716.1100169558215
 30
0.0
 10
869.8731906554023
 20
715.779122520366
 30
0.0
 10
869.888443421211
 20
715.4289044846156
 30
0.0
 10
869.8913158811121
 20
715.1894579722107
 30
0.0
 10
869.8927899358116
 20
715.0665816678941
 30
0.0
  0
SPLINE
  5
89
330
1F
100
AcDbEntity
  8
0
  6
Continuous
 62
     7
370
    25
100
AcDbSpline
210
0.0
220
0.0
230
1.0
 70
     8
 71
     3
 72
    31
 73
    27
 74
     0
 42
0.00000001
 43
0.00000001
 40
0.0
 40
0.0
 40
0.0
 40
0.0
 40
0.0685946222587426
 40
0.1332460424433
 40
0.1943125864682571
 40
0.2512792231169659
 40
0.3045134392563464
 40
0.3542349066533258
 40
0.40048058877399
 40
0.4434107549384919
 40
0.4840148686163445
 40
0.5232523007732021
 40
0.5610423727283596
 40
0.5979002393643985
 40
0.6335184888561959
 40
0.6683143511696515
 40
0.7024956712863799
 40
0.7366853535134568
 40
0.7702931693607888
 40
0.8034372550192478
 40
0.8359129516660281
 40
0.8684602457892914
 40
0.900846538243181
 40
0.9334665246307063
 40
0.9662575752981226
 40
1.0
 40
1.0
 40
1.0
 40
1.0
 10
864.4568924999143
 20
715.0665816678941
 30
0.0
 10
864.4576422557028
 20
715.1948042684295
 30
0.0
 10
864.4590986671286
 20
715.4438785181379
 30
0.0
 10
864.4753007721396
 20
715.8068148428621
 30
0.0
 10
864.5022158402838
 20
716.1472955034225
 30
0.0
 10
864.5391012639416
 20
716.4653367972247
 30
0.0
 10
864.5839880758813
 20
716.7610208304079
 30
0.0
 10
864.643909188113
 20
717.0335574181481
 30
0.0
 10
864.712052736947
 20
717.2842079475495
 30
0.0
 10
864.7910297559425
 20
717.5137897726373
 30
0.0
 10
864.8801447022702
 20
717.7253959509737
 30
0.0
 10
864.9771372982063
 20
717.9229392682167
 30
0.0
 10
865.0858568283173
 20
718.1061208278505
 30
0.0
 10
865.2000897721508
 20
718.2778643488103
 30
0.0
 10
865.3244602215857
 20
718.4353585083358
 30
0.0
 10
865.4554288855109
 20
718.5808274512352
 30
0.0
 10
865.5981074598358
 20
718.710909166581
 30
0.0
 10
865.7476457644607
 20
718.8294150006041
 30
0.0
 10
865.9053976830704
 20
718.9332995072828
 30
0.0
 10
866.0668666342549
 20
719.024802909833
 30
0.0
 10
866.2331640190685
 20
719.1029740349934
 30
0.0
 10
866.4047438656924
 20
719.1644378883866
 30
0.0
 10
866.5800639980116
 20
719.2152055381525
 30
0.0
 10
866.7597372933059
 20
719.2499231327732
 30
0.0
 10
866.9440604108747
 20
719.2717674950347
 30
0.0
 10
867.0684751189848
 20
719.2738558784408
 30
0.0
 10
867.1315719870938
 20
719.2749150012274
 30
0.0
  0
SPLINE
  5
8A
330
1F
100
AcDbEntity
  8
0
  6
Continuous
 62
     7
370
    25
100
AcDbSpline
210
0.0
220
0.0
230
1.0
 70
     8
 71
     3
 72
    31
 73
    27
 74
     0
 42
0.00000001
 43
0.00000001
 40
0.0
 40
0.0
 40
0.0
 40
0.0
 40
0.0337871463469915
 40
0.0666216577242954
 40
0.099284878095974
 40
0.1313611650426511
 40
0.1635851875953436
 40
0.196103926987069
 40
0.2289022543238178
 40
0.2621580559050075
 40
0.2959912222583161
 40
0.3302178457247993
 40
0.3650598258919532
 40
0.400950737340108
 40
0.4376203820767379
 40
0.4757075294370932
 40
0.5153806916250503
 40
0.5564135414931655
 40
0.5997648298727326
 40
0.646424155584088
 40
0.6964314445175677
 40
0.7497815178015588
 40
0.8065733069755331
 40
0.8674355315654004
 40
0.9318867532508747
 40
0.9999999999999999
 40
0.9999999999999999
 40
0.9999999999999999
 40
0.9999999999999999
 10
867.1315719870938
 20
710.864658590971
 30
0.0
 10
867.0684768694131
 20
710.8657245463055
 30
0.0
 10
866.9440656128062
 20
710.8678264021624
 30
0.0
 10
866.7597172118018
 20
710.8895720741353
 30
0.0
 10
866.5807859125106
 20
710.924533224335
 30
0.0
 10
866.4063887604245
 20
710.9734854622576
 30
0.0
 10
866.2356310116619
 20
711.0334050881214
 30
0.0
 10
866.0708394993057
 20
711.1114706506426
 30
0.0
 10
865.9101819365842
 20
711.2013770939705
 30
0.0
 10
865.7540869514
 20
711.3037666286865
 30
0.0
 10
865.6054877261661
 20
711.42107333298
 30
0.0
 10
865.4635480568774
 20
711.5508202785489
 30
0.0
 10
865.3318337275128
 20
711.6962452186575
 30
0.0
 10
865.2092415089589
 20
711.8550519000465
 30
0.0
 10
865.0927293073687
 20
712.025779311093
 30
0.0
 10
864.9855535969247
 20
712.2107584494823
 30
0.0
 10
864.8864202161977
 20
712.4092558448872
 30
0.0
 10
864.795806523241
 20
712.6225539264302
 30
0.0
 10
864.7154667209212
 20
712.8537651901098
 30
0.0
 10
864.6445005309478
 20
713.1055347409726
 30
0.0
 10
864.5884681710161
 20
713.3800847663762
 30
0.0
 10
864.5405071302553
 20
713.6752101769027
 30
0.0
 10
864.5018228261558
 20
713.9921791606417
 30
0.0
 10
864.4754129397138
 20
714.3311637964975
 30
0.0
 10
864.4590899339179
 20
714.6919528454716
 30
0.0
 10
864.4576383443862
 20
714.9394266153381
 30
0.0
 10
864.4568924999143
 20
715.0665816678941
 30
0.0
  0
SPLINE
  5
8B
330
1F
100
AcDbEntity
  8
0
  6
Continuous
 62
     7
370
    25
100
AcDbSpline
210
0.0
220
0.0
230
1.0
 70
     8
 71
     3
 72
    31
 73
    27
 74
     0
 42
0.00000001
 43
0.00000001
 40
0.0
 40
0.0
 40
0.0
 40
0.0
 40
0.0650632896172783
 40
0.1267731664665234
 40
0.1855157632260798
 40
0.2407646791677159
 40
0.2929797960235989
 40
0.3422503727797683
 40
0.3889192861856595
 40
0.4327756640583108
 40
0.4746284326311178
 40
0.5147746906379532
 40
0.5536058934984426
 40
0.5914264064311747
 40
0.6280281199460673
 40
0.6638036341103206
 40
0.6989843361316638
 40
0.7335914893067057
 40
0.7676284691511399
 40
0.8012083477865927
 40
0.8342638397266237
 40
0.8669806947287778
 40
0.8997197415181607
 40
0.9327019124985396
 40
0.9661758834327498
 40
1.0
 40
1.0
 40
1.0
 40
1.0
 10
869.8927899358116
 20
715.0665816678941
 30
0.0
 10
869.8913005997113
 20
714.9442413068863
 30
0.0
 10
869.8883986890564
 20
714.7058661026375
 30
0.0
 10
869.873361645016
 20
714.3572238733352
 30
0.0
 10
869.8437419166074
 20
714.0280854886528
 30
0.0
 10
869.8066905147588
 20
713.7176615744613
 30
0.0
 10
869.7553740279625
 20
713.427244159986
 30
0.0
 10
869.6922765051023
 20
713.1558282777737
 30
0.0
 10
869.6222186243668
 20
712.9022418282527
 30
0.0
 10
869.5357390949731
 20
712.6685622588585
 30
0.0
 10
869.4410860427508
 20
712.4515297494534
 30
0.0
 10
869.338102737207
 20
712.2488619818425
 30
0.0
 10
869.227771706154
 20
712.058767598575
 30
0.0
 10
869.1075688604328
 20
711.8827681770179
 30
0.0
 10
868.9794467731268
 20
711.7196169608513
 30
0.0
 10
868.8406632558856
 20
711.5721938233621
 30
0.0
 10
868.6951304899382
 20
711.4369465731608
 30
0.0
 10
868.5410449680321
 20
711.3165999961043
 30
0.0
 10
868.3801042795014
 20
711.2112632997927
 30
0.0
 10
868.2156263893875
 20
711.1170602131918
 30
0.0
 10
868.0446929417365
 20
711.0410997673637
 30
0.0
 10
867.8711776212119
 20
710.9758768165574
 30
0.0
 10
867.6925984986634
 20
710.9260472122462
 30
0.0
 10
867.5091781770875
 20
710.891592685342
 30
0.0
 10
867.321849637822
 20
710.8674284603024
 30
0.0
 10
867.1952174890648
 20
710.8655850777303
 30
0.0
 10
867.1315719870938
 20
710.864658590971
 30
0.0
  0
LINE
  5
8C
330
1F
100
AcDbEntity
  8
0
  6
Continuous
 62
     7
370
    25
100
AcDbLine
 10
883.4729181409
 20
711.0697867961
 30
0.0
 11
878.2004822435
 21
717.3518380782
 31
0.0
  0
LINE
  5
8D
330
1F
100
AcDbEntity
  8
0
  6
Continuous
 62
     7
370
    25
100
AcDbLine
 10
883.6363796794
 20
711.0697867961
 30
0.0
 11
883.4729181409
 21
711.0697867961
 31
0.0
  0
LINE
  5
8E
330
1F
100
AcDbEntity
  8
0
  6
Continuous
 62
     7
370
    25
100
AcDbLine
 10
883.6363796794
 20
719.0697867961
 30
0.0
 11
883.6363796794
 21
711.0697867961
 31
0.0
  0
LINE
  5
8F
330
1F
100
AcDbEntity
  8
0
  6
Continuous
 62
     7
370
    25
100
AcDbLine
 10
882.9184309615
 20
719.0697867961
 30
0.0
 11
883.6363796794
 21
719.0697867961
 31
0.0
  0
LINE
  5
90
330
1F
100
AcDbEntity
  8
0
  6
Continuous
 62
     7
370
    25
100
AcDbLine
 10
882.9184309615
 20
712.7733124371
 30
0.0
 11
882.9184309615
 21
719.0697867961
 31
0.0
  0
LINE
  5
91
330
1F
100
AcDbEntity
  8
0
  6
Continuous
 62
     7
370
    25
100
AcDbLine
 10
877.6331745512
 20
719.0697867961
 30
0.0
 11
882.9184309615
 21
712.7733124371
 31
0.0
  0
LINE
  5
92
330
1F
100
AcDbEntity
  8
0
  6
Continuous
 62
     7
370
    25
100
AcDbLine
 10
877.4825335256
 20
719.0697867961
 30
0.0
 11
877.6331745512
 21
719.0697867961
 31
0.0
  0
LINE
  5
93
330
1F
100
AcDbEntity
  8
0
  6
Continuous
 62
     7
370
    25
100
AcDbLine
 10
877.4825335256
 20
711.0697867961
 30
0.0
 11
877.4825335256
 21
719.0697867961
 31
0.0
  0
LINE
  5
94
330
1F
100
AcDbEntity
  8
0
  6
Continuous
 62
     7
370
    25
100
AcDbLine
 10
878.2004822435
 20
711.0697867961
 30
0.0
 11
877.4825335256
 21
711.0697867961
 31
0.0
  0
LINE
  5
95
330
1F
100
AcDbEntity
  8
0
  6
Continuous
 62
     7
370
    25
100
AcDbLine
 10
878.2004822435
 20
717.3518380782
 30
0.0
 11
878.2004822435
 21
711.0697867961
 31
0.0
  0
SPLINE
  5
96
330
1F
100
AcDbEntity
  8
0
  6
Continuous
 62
     7
370
    25
100
AcDbSpline
210
0.0
220
0.0
230
1.0
 70
     8
 71
     3
 72
    23
 73
    19
 74
     0
 42
0.00000001
 43
0.00000001
 40
0.0
 40
0.0
 40
0.0
 40
0.0
 40
0.0611602766365184
 40
0.1203345577262037
 40
0.1781802550631268
 40
0.235235125986366
 40
0.2926829614441812
 40
0.3511862482150811
 40
0.4104566095096931
 40
0.4717198544629957
 40
0.5337612027725903
 40
0.5957390238870961
 40
0.6578875151248857
 40
0.7212951802914637
 40
0.7868225145418913
 40
0.8546861538286867
 40
0.9254779862699996
 40
1.0
 40
1.0
 40
1.0
 40
1.0
 10
890.4056104486322
 20
713.3406201294325
 30
0.0
 10
890.4033776577218
 20
713.2625244217254
 30
0.0
 10
890.3989845790524
 20
713.1088689289109
 30
0.0
 10
890.3665732149454
 20
712.8831429070813
 30
0.0
 10
890.3116952561091
 20
712.6674287433947
 30
0.0
 10
890.2361040644184
 20
712.4603311829279
 30
0.0
 10
890.1374473453365
 20
712.2622508755663
 30
0.0
 10
890.0173834268647
 20
712.0729634150258
 30
0.0
 10
889.8742255671553
 20
711.8943706593388
 30
0.0
 10
889.7140818666937
 20
711.7244880922462
 30
0.0
 10
889.532911248434
 20
711.571738864041
 30
0.0
 10
889.3374466657539
 20
711.4357029630552
 30
0.0
 10
889.1252265059969
 20
711.3238262496484
 30
0.0
 10
888.8997362339594
 20
711.2298467719276
 30
0.0
 10
888.6584463685554
 20
711.1580588897217
 30
0.0
 10
888.4024404088757
 20
711.1078358636661
 30
0.0
 10
888.1319391475388
 20
711.073995779098
 30
0.0
 10
887.9463168592838
 20
711.0712135964809
 30
0.0
 10
887.8511232691451
 20
711.0697867960993
 30
0.0
  0
SPLINE
  5
97
330
1F
100
AcDbEntity
  8
0
  6
Continuous
 62
     7
370
    25
100
AcDbSpline
210
0.0
220
0.0
230
1.0
 70
     8
 71
     3
 72
    19
 73
    15
 74
     0
 42
0.00000001
 43
0.00000001
 40
0.0
 40
0.0
 40
0.0
 40
0.0
 40
0.1060574933033982
 40
0.2029142570846112
 40
0.2903001653958381
 40
0.3702225656250411
 40
0.4463837207709717
 40
0.5213968999648273
 40
0.5982910828464569
 40
0.6761424688569261
 40
0.7555286995560203
 40
0.8348871724576592
 40
0.9166460487466405
 40
1.0
 40
1.0
 40
1.0
 40
1.0
 10
888.8655463460681
 20
715.3854919243043
 30
0.0
 10
888.9564273234276
 20
715.3506004981543
 30
0.0
 10
889.1303051460089
 20
715.2838445566803
 30
0.0
 10
889.3695874601392
 20
715.1658206389727
 30
0.0
 10
889.5757471058446
 20
715.0374501009353
 30
0.0
 10
889.7503691538108
 20
714.8972630148926
 30
0.0
 10
889.8997123650488
 20
714.7461571616581
 30
0.0
 10
890.0301190886439
 20
714.5819169005189
 30
0.0
 10
890.1413908010118
 20
714.4023997396563
 30
0.0
 10
890.2367346263045
 20
714.2094773731137
 30
0.0
 10
890.3111317829358
 20
714.0051197311551
 30
0.0
 10
890.3668481357811
 20
713.7912436715039
 30
0.0
 10
890.3987737338057
 20
713.568616116774
 30
0.0
 10
890.4033169138702
 20
713.417106678286
 30
0.0
 10
890.4056104486322
 20
713.3406201294325
 30
0.0
  0
SPLINE
  5
98
330
1F
100
AcDbEntity
  8
0
  6
Continuous
 62
     7
370
    25
100
AcDbSpline
210
0.0
220
0.0
230
1.0
 70
     8
 71
     3
 72
    15
 73
    11
 74
     0
 42
0.00000001
 43
0.00000001
 40
0.0
 40
0.0
 40
0.0
 40
0.0
 40
0.1305691070873111
 40
0.2565806086940813
 40
0.3805516168036825
 40
0.5036229172007103
 40
0.6257393231697906
 40
0.747548581959627
 40
0.8717661185648694
 40
1.0
 40
1.0
 40
1.0
 40
1.0
 10
889.7902258332476
 20
717.0874150012274
 30
0.0
 10
889.7877270482361
 20
716.999066302535
 30
0.0
 10
889.7828167000413
 20
716.8254527779154
 30
0.0
 10
889.7358618215665
 20
716.5715233852671
 30
0.0
 10
889.6623517222762
 20
716.3298063136618
 30
0.0
 10
889.5601682956157
 20
716.1011837184232
 30
0.0
 10
889.4273637328772
 20
715.8908211740902
 30
0.0
 10
889.269973290214
 20
715.6970217088444
 30
0.0
 10
889.080083455949
 20
715.5279907214274
 30
0.0
 10
888.9378131931195
 20
715.4334926584544
 30
0.0
 10
888.8655463460681
 20
715.3854919243043
 30
0.0
  0
SPLINE
  5
99
330
1F
100
AcDbEntity
  8
0
  6
Continuous
 62
     7
370
    25
100
AcDbSpline
210
0.0
220
0.0
230
1.0
 70
     8
 71
     3
 72
    23
 73
    19
 74
     0
 42
0.00000001
 43
0.00000001
 40
0.0
 40
0.0
 40
0.0
 40
0.0
 40
0.0625940971873324
 40
0.1213229386347502
 40
0.1766801421977652
 40
0.2283650957096766
 40
0.2768684458368049
 40
0.3218791276660435
 40
0.3640986251098912
 40
0.403355696242699
 40
0.4779679481633715
 40
0.550535461364775
 40
0.6235844567403224
 40
0.698174882264205
 40
0.7733536703408738
 40
0.8472811254977323
 40
0.9228183395566674
 40
1.0
 40
1.0
 40
1.0
 40
1.0
 10
887.248559166581
 20
719.0697867960993
 30
0.0
 10
887.3249671167245
 20
719.0693850808952
 30
0.0
 10
887.4730647403505
 20
719.0686064568517
 30
0.0
 10
887.6884234645306
 20
719.0565307285158
 30
0.0
 10
887.890135031709
 20
719.0400651973646
 30
0.0
 10
888.0782579399387
 20
719.0139392713207
 30
0.0
 10
888.2527052596898
 20
718.9824152092742
 30
0.0
 10
888.4140027162334
 20
718.9442396296392
 30
0.0
 10
888.5616373957038
 20
718.8984645127043
 30
0.0
 10
888.7378950789179
 20
718.8256730127445
 30
0.0
 10
888.938856589498
 20
718.7175057708022
 30
0.0
 10
889.1564529156764
 20
718.5576690504616
 30
0.0
 10
889.3425197484977
 20
718.362166277615
 30
0.0
 10
889.502945616477
 20
718.1416344937879
 30
0.0
 10
889.6304910327311
 20
717.8990384440714
 30
0.0
 10
889.72276371231
 20
717.6401602982943
 30
0.0
 10
889.7811817131297
 20
717.3683391739066
 30
0.0
 10
889.787189562766
 20
717.1817261958977
 30
0.0
 10
889.7902258332476
 20
717.0874150012274
 30
0.0
  0
LINE
  5
9A
330
1F
100
AcDbEntity
  8
0
  6
Continuous
 62
     7
370
    25
100
AcDbLine
 10
885.6876617307
 20
719.0697867961
 30
0.0
 11
887.2485591666
 21
719.0697867961
 31
0.0
  0
LINE
  5
9B
330
1F
100
AcDbEntity
  8
0
  6
Continuous
 62
     7
370
    25
100
AcDbLine
 10
885.6876617307
 20
711.0697867961
 30
0.0
 11
885.6876617307
 21
719.0697867961
 31
0.0
  0
LINE
  5
9C
330
1F
100
AcDbEntity
  8
0
  6
Continuous
 62
     7
370
    25
100
AcDbLine
 10
887.8511232691
 20
711.0697867961
 30
0.0
 11
885.6876617307
 21
711.0697867961
 31
0.0
  0
LINE
  5
9D
330
1F
100
AcDbEntity
  8
0
  6
Continuous
 62
     7
370
    25
100
AcDbLine
 10
885.6876617307
 20
700.5970303858
 30
0.0
 11
885.6876617307
 21
696.7364534628
 31
0.0
  0
LINE
  5
9E
330
1F
100
AcDbEntity
  8
0
  6
Continuous
 62
     7
370
    25
100
AcDbLine
 10
889.3975976281
 20
696.7364534628
 30
0.0
 11
885.6876617307
 21
700.5970303858
 31
0.0
  0
LINE
  5
9F
330
1F
100
AcDbEntity
  8
0
  6
Continuous
 62
     7
370
    25
100
AcDbLine
 10
890.3543283974
 20
696.7364534628
 30
0.0
 11
889.3975976281
 21
696.7364534628
 31
0.0
  0
LINE
  5
A0
330
1F
100
AcDbEntity
  8
0
  6
Continuous
 62
     7
370
    25
100
AcDbLine
 10
886.1155463461
 20
701.146709873
 30
0.0
 11
890.3543283974
 21
696.7364534628
 31
0.0
  0
LINE
  5
A1
330
1F
100
AcDbEntity
  8
0
  6
Continuous
 62
     7
370
    25
100
AcDbLine
 10
890.0466360897
 20
704.7364534628
 30
0.0
 11
886.1155463461
 21
701.146709873
 31
0.0
  0
LINE
  5
A2
330
1F
100
AcDbEntity
  8
0
  6
Continuous
 62
     7
370
    25
100
AcDbLine
 10
889.0225976281
 20
704.7364534628
 30
0.0
 11
890.0466360897
 21
704.7364534628
 31
0.0
  0
LINE
  5
A3
330
1F
100
AcDbEntity
  8
0
  6
Continuous
 62
     7
370
    25
100
AcDbLine
 10
885.6876617307
 20
701.6899791038
 30
0.0
 11
889.0225976281
 21
704.7364534628
 31
0.0
  0
LINE
  5
A4
330
1F
100
AcDbEntity
  8
0
  6
Continuous
 62
     7
370
    25
100
AcDbLine
 10
885.6876617307
 20
704.7364534628
 30
0.0
 11
885.6876617307
 21
701.6899791038
 31
0.0
  0
LINE
  5
A5
330
1F
100
AcDbEntity
  8
0
  6
Continuous
 62
     7
370
    25
100
AcDbLine
 10
884.9697130127
 20
704.7364534628
 30
0.0
 11
885.6876617307
 21
704.7364534628
 31
0.0
  0
LINE
  5
A6
330
1F
100
AcDbEntity
  8
0
  6
Continuous
 62
     7
370
    25
100
AcDbLine
 10
884.9697130127
 20
696.7364534628
 30
0.0
 11
884.9697130127
 21
704.7364534628
 31
0.0
  0
LINE
  5
A7
330
1F
100
AcDbEntity
  8
0
  6
Continuous
 62
     7
370
    25
100
AcDbLine
 10
885.6876617307
 20
696.7364534628
 30
0.0
 11
884.9697130127
 21
696.7364534628
 31
0.0
  0
LINE
  5
A8
330
1F
100
AcDbEntity
  8
0
  6
Continuous
 62
     7
370
    25
100
AcDbLine
 10
860.7645848076
 20
711.0697867961
 30
0.0
 11
860.7645848076
 21
718.2492739756
 31
0.0
  0
LINE
  5
A9
330
1F
100
AcDbEntity
  8
0
  6
Continuous
 62
     7
370
    25
100
AcDbLine
 10
861.4825335256
 20
711.0697867961
 30
0.0
 11
860.7645848076
 21
711.0697867961
 31
0.0
  0
LINE
  5
AA
330
1F
100
AcDbEntity
  8
0
  6
Continuous
 62
     7
370
    25
100
AcDbLine
 10
861.4825335256
 20
719.0697867961
 30
0.0
 11
861.4825335256
 21
711.0697867961
 31
0.0
  0
LINE
  5
AB
330
1F
100
AcDbEntity
  8
0
  6
Continuous
 62
     7
370
    25
100
AcDbLine
 10
860.0033668589
 20
719.0697867961
 30
0.0
 11
861.4825335256
 21
719.0697867961
 31
0.0
  0
LINE
  5
AC
330
1F
100
AcDbEntity
  8
0
  6
Continuous
 62
     7
370
    25
100
AcDbLine
 10
859.5338155768
 20
718.2492739756
 30
0.0
 11
860.0033668589
 21
719.0697867961
 31
0.0
  0
LINE
  5
AD
330
1F
100
AcDbEntity
  8
0
  6
Continuous
 62
     7
370
    25
100
AcDbLine
 10
860.7645848076
 20
718.2492739756
 30
0.0
 11
859.5338155768
 21
718.2492739756
 31
0.0
  0
ARC
  5
AE
330
1F
100
AcDbEntity
  8
0
  6
Continuous
 62
     7
370
    25
100
AcDbCircle
 10
856.4872798434
 20
660.5360078278
 30
0.0
 40
5.0
100
AcDbArc
 50
180.0
 51
270.0
  0
LINE
  5
AF
330
1F
100
AcDbEntity
  8
0
  6
Continuous
 62
     7
370
    25
100
AcDbLine
 10
851.4872798434
 20
717.8127079965
 30
0.0
 11
851.4872798434
 21
660.5360078278
 31
0.0
  0
ARC
  5
B0
330
1F
100
AcDbEntity
  8
0
  6
Continuous
 62
     7
370
    25
100
AcDbCircle
 10
846.4872798434
 20
717.8127079965
 30
0.0
 40
5.0
100
AcDbArc
 50
0.0
 51
32.8598803789
  0
ARC
  5
B1
330
1F
100
AcDbEntity
  8
0
  6
Continuous
 62
     7
370
    25
100
AcDbCircle
 10
951.4872798434
 20
785.6360078278
 30
0.0
 40
120.0000000000001
100
AcDbArc
 50
327.1401196211
 51
212.8598803789
  0
ARC
  5
B2
330
1F
100
AcDbEntity
  8
0
  6
Continuous
 62
     7
370
    25
100
AcDbCircle
 10
1056.4872798434
 20
717.8127079965
 30
0.0
 40
5.0
100
AcDbArc
 50
147.1401196211
 51
180.0
  0
LINE
  5
B3
330
1F
100
AcDbEntity
  8
0
  6
Continuous
 62
     7
370
    25
100
AcDbLine
 10
1051.4872798434
 20
660.5360078278
 30
0.0
 11
1051.4872798434
 21
717.8127079965
 31
0.0
  0
ARC
  5
B4
330
1F
100
AcDbEntity
  8
0
  6
Continuous
 62
     7
370
    25
100
AcDbCircle
 10
1046.4872798434
 20
660.5360078278
 30
0.0
 40
5.0
100
AcDbArc
 50
270.0
 51
0.0
  0
LINE
  5
B5
330
1F
100
AcDbEntity
  8
0
  6
Continuous
 62
     7
370
    25
100
AcDbLine
 10
856.4872798434
 20
655.5360078278
 30
0.0
 11
1046.4872798434
 21
655.5360078278
 31
0.0
  0
CIRCLE
  5
B6
330
1F
100
AcDbEntity
  8
0
  6
Continuous
 62
     7
370
    25
100
AcDbCircle
 10
988.798914499
 20
875.7142622476
 30
0.0
 40
12.5
  0
CIRCLE
  5
B7
330
1F
100
AcDbEntity
  8
0
  6
Continuous
 62
     7
370
    25
100
AcDbCircle
 10
1041.5655342633
 20
822.9476424834
 30
0.0
 40
12.50000000000018
  0
CIRCLE
  5
B8
330
1F
100
AcDbEntity
  8
0
  6
Continuous
 62
     7
370
    25
100
AcDbCircle
 10
1041.5655342633
 20
748.3243731722
 30
0.0
 40
12.49999999999989
  0
CIRCLE
  5
B9
330
1F
100
AcDbEntity
  8
0
  6
Continuous
 62
     7
370
    25
100
AcDbCircle
 10
988.798914499
 20
695.5577534079
 30
0.0
 40
12.49999999999994
  0
CIRCLE
  5
BA
330
1F
100
AcDbEntity
  8
0
  6
Continuous
 62
     7
370
    25
100
AcDbCircle
 10
914.1756451878
 20
695.5577534079
 30
0.0
 40
12.49999999999989
  0
CIRCLE
  5
BB
330
1F
100
AcDbEntity
  8
0
  6
Continuous
 62
     7
370
    25
100
AcDbCircle
 10
861.4090254236
 20
748.3243731722
 30
0.0
 40
12.49999999999994
  0
CIRCLE
  5
BC
330
1F
100
AcDbEntity
  8
0
  6
Continuous
 62
     7
370
    25
100
AcDbCircle
 10
861.4090254236
 20
822.9476424834
 30
0.0
 40
12.5
  0
CIRCLE
  5
BD
330
1F
100
AcDbEntity
  8
0
  6
Continuous
 62
     7
370
    25
100
AcDbCircle
 10
914.1756451878
 20
875.7142622476
 30
0.0
 40
12.5000000000001
  0
CIRCLE
  5
BE
330
1F
100
AcDbEntity
  8
0
  6
Continuous
 62
     7
370
    25
100
AcDbCircle
 10
951.4872798434
 20
785.6360078278
 30
0.0
 40
70.20000000000005
  0
SPLINE
  5
BF
330
1F
100
AcDbEntity
  8
0
  6
Continuous
 62
     7
370
    25
100
AcDbSpline
210
0.0
220
0.0
230
1.0
 70
     8
 71
     3
 72
    31
 73
    27
 74
     0
 42
0.00000001
 43
0.00000001
 40
0.0
 40
0.0
 40
0.0
 40
0.0
 40
0.0337881161627101
 40
0.0671939323738809
 40
0.0998624108568255
 40
0.1325666121262597
 40
0.1651511732547859
 40
0.1979131873557931
 40
0.2313190035669624
 40
0.2650832782673722
 40
0.2992553087581152
 40
0.3343985665049789
 40
0.3699428235093068
 40
0.4062835607000604
 40
0.4440638196985071
 40
0.4829977068727754
 40
0.5233544466133044
 40
0.5655365896041475
 40
0.6096129240658184
 40
0.6563908113764169
 40
0.7058854949364561
 40
0.7583245002617315
 40
0.81383178294115
 40
0.872794559039389
 40
0.9347222295400733
 40
1.0
 40
1.0
 40
1.0
 40
1.0
 10
880.7725976281193
 20
704.9415816678941
 30
0.0
 10
880.8362215789407
 20
704.9404666617783
 30
0.0
 10
880.9627495992738
 20
704.9382492654256
 30
0.0
 10
881.1498133141216
 20
704.9169373967751
 30
0.0
 10
881.3325554437549
 20
704.8815748296964
 30
0.0
 10
881.5101969036486
 20
704.831469744936
 30
0.0
 10
881.6841968727178
 20
704.769308198286
 30
0.0
 10
881.8531943759078
 20
704.6913947877507
 30
0.0
 10
882.0182391339468
 20
704.6007002338205
 30
0.0
 10
882.1767083625638
 20
704.4941313714054
 30
0.0
 10
882.330341769069
 20
704.3753147400984
 30
0.0
 10
882.4753656844339
 20
704.2410000685479
 30
0.0
 10
882.6117933093423
 20
704.0925435673624
 30
0.0
 10
882.7413368645108
 20
703.9315335927645
 30
0.0
 10
882.8603210866805
 20
703.7548819702878
 30
0.0
 10
882.973631788933
 20
703.5656611478554
 30
0.0
 10
883.0750535852796
 20
703.3605620283267
 30
0.0
 10
883.1727328428307
 20
703.1430066732614
 30
0.0
 10
883.2570459553775
 20
702.906975453132
 30
0.0
 10
883.3330830874286
 20
702.653798857662
 30
0.0
 10
883.3945207298856
 20
702.3804864305687
 30
0.0
 10
883.4456962095155
 20
702.0884721556084
 30
0.0
 10
883.4853416859627
 20
701.776683622488
 30
0.0
 10
883.5142162964279
 20
701.4457891870326
 30
0.0
 10
883.5294690622367
 20
701.0955711512823
 30
0.0
 10
883.5323415221377
 20
700.8561246388774
 30
0.0
 10
883.5338155768374
 20
700.7332483345607
 30
0.0
  0
SPLINE
  5
C0
330
1F
100
AcDbEntity
  8
0
  6
Continuous
 62
     7
370
    25
100
AcDbSpline
210
0.0
220
0.0
230
1.0
 70
     8
 71
     3
 72
    31
 73
    27
 74
     0
 42
0.00000001
 43
0.00000001
 40
0.0
 40
0.0
 40
0.0
 40
0.0
 40
0.0685946222587427
 40
0.1332460424433027
 40
0.1943125864682572
 40
0.251279223116966
 40
0.304513439256347
 40
0.3542349066533265
 40
0.4004805887739901
 40
0.443410754938492
 40
0.4840148686163447
 40
0.5232523007732045
 40
0.5610423727283611
 40
0.5979002393644002
 40
0.633518488856196
 40
0.6683143511696533
 40
0.7024956712863833
 40
0.7366853535134587
 40
0.7702931693607886
 40
0.8034372550192498
 40
0.8359129516660302
 40
0.8684602457892912
 40
0.9008465382431832
 40
0.9334665246307086
 40
0.9662575752981225
 40
1.0
 40
1.0
 40
1.0
 40
1.0
 10
878.0979181409399
 20
700.7332483345607
 30
0.0
 10
878.0986678967284
 20
700.8614709350962
 30
0.0
 10
878.1001243081544
 20
701.1105451848048
 30
0.0
 10
878.1163264131652
 20
701.4734815095287
 30
0.0
 10
878.1432414813095
 20
701.8139621700892
 30
0.0
 10
878.1801269049674
 20
702.1320034638914
 30
0.0
 10
878.225013716907
 20
702.4276874970747
 30
0.0
 10
878.2849348291386
 20
702.7002240848149
 30
0.0
 10
878.3530783779727
 20
702.950874614216
 30
0.0
 10
878.4320553969683
 20
703.1804564393041
 30
0.0
 10
878.5211703432958
 20
703.3920626176406
 30
0.0
 10
878.618162939232
 20
703.5896059348834
 30
0.0
 10
878.7268824693431
 20
703.7727874945172
 30
0.0
 10
878.8411154131765
 20
703.9445310154771
 30
0.0
 10
878.9654858626113
 20
704.1020251750023
 30
0.0
 10
879.0964545265365
 20
704.2474941179019
 30
0.0
 10
879.2391331008613
 20
704.3775758332476
 30
0.0
 10
879.3886714054864
 20
704.4960816672707
 30
0.0
 10
879.546423324096
 20
704.5999661739495
 30
0.0
 10
879.7078922752805
 20
704.6914695764998
 30
0.0
 10
879.8741896600941
 20
704.76964070166
 30
0.0
 10
880.045769506718
 20
704.8311045550532
 30
0.0
 10
880.2210896390372
 20
704.8818722048193
 30
0.0
 10
880.4007629343315
 20
704.91658979944
 30
0.0
 10
880.5850860519004
 20
704.9384341617014
 30
0.0
 10
880.7095007600104
 20
704.9405225451076
 30
0.0
 10
880.7725976281193
 20
704.9415816678941
 30
0.0
  0
SPLINE
  5
C1
330
1F
100
AcDbEntity
  8
0
  6
Continuous
 62
     7
370
    25
100
AcDbSpline
210
0.0
220
0.0
230
1.0
 70
     8
 71
     3
 72
    31
 73
    27
 74
     0
 42
0.00000001
 43
0.00000001
 40
0.0
 40
0.0
 40
0.0
 40
0.0
 40
0.0337871463469916
 40
0.0666216577242934
 40
0.099284878095972
 40
0.1313611650426509
 40
0.1635851875953443
 40
0.1961039269870688
 40
0.2289022543238176
 40
0.2621580559050074
 40
0.2959912222583156
 40
0.3302178457248008
 40
0.3650598258919547
 40
0.4009507373401076
 40
0.4376203820767376
 40
0.4757075294370917
 40
0.5153806916250488
 40
0.5564135414931642
 40
0.5997648298727314
 40
0.6464241555840868
 40
0.6964314445175671
 40
0.749781517801558
 40
0.8065733069755326
 40
0.8674355315654001
 40
0.9318867532508747
 40
1.0
 40
1.0
 40
1.0
 40
1.0
 10
880.7725976281193
 20
696.5313252576377
 30
0.0
 10
880.7095025104388
 20
696.532391212972
 30
0.0
 10
880.5850912538319
 20
696.5344930688291
 30
0.0
 10
880.4007428528275
 20
696.5562387408021
 30
0.0
 10
880.2218115535362
 20
696.5911998910017
 30
0.0
 10
880.0474144014502
 20
696.6401521289241
 30
0.0
 10
879.8766566526875
 20
696.700071754788
 30
0.0
 10
879.7118651403314
 20
696.7781373173092
 30
0.0
 10
879.5512075776098
 20
696.8680437606372
 30
0.0
 10
879.3951125924257
 20
696.9704332953531
 30
0.0
 10
879.2465133671917
 20
697.0877399996467
 30
0.0
 10
879.104573697903
 20
697.2174869452157
 30
0.0
 10
878.9728593685385
 20
697.3629118853241
 30
0.0
 10
878.8502671499846
 20
697.5217185667132
 30
0.0
 10
878.7337549483943
 20
697.6924459777595
 30
0.0
 10
878.6265792379503
 20
697.8774251161491
 30
0.0
 10
878.5274458572233
 20
698.0759225115538
 30
0.0
 10
878.4368321642667
 20
698.289220593097
 30
0.0
 10
878.356492361947
 20
698.5204318567763
 30
0.0
 10
878.2855261719733
 20
698.7722014076393
 30
0.0
 10
878.2294938120418
 20
699.0467514330428
 30
0.0
 10
878.181532771281
 20
699.3418768435693
 30
0.0
 10
878.1428484671815
 20
699.6588458273084
 30
0.0
 10
878.1164385807396
 20
699.9978304631642
 30
0.0
 10
878.1001155749435
 20
700.3586195121383
 30
0.0
 10
878.0986639854118
 20
700.6060932820048
 30
0.0
 10
878.0979181409399
 20
700.7332483345607
 30
0.0
  0
SPLINE
  5
C2
330
1F
100
AcDbEntity
  8
0
  6
Continuous
 62
     7
370
    25
100
AcDbSpline
210
0.0
220
0.0
230
1.0
 70
     8
 71
     3
 72
    31
 73
    27
 74
     0
 42
0.00000001
 43
0.00000001
 40
0.0
 40
0.0
 40
0.0
 40
0.0
 40
0.0650632896172782
 40
0.1267731664665232
 40
0.1855157632260795
 40
0.2407646791677159
 40
0.2929797960235989
 40
0.3422503727797677
 40
0.3889192861856595
 40
0.4327756640583108
 40
0.4746284326311178
 40
0.5147746906379521
 40
0.5536058934984427
 40
0.5914264064311727
 40
0.6280281199460672
 40
0.6638036341103204
 40
0.6989843361316637
 40
0.7335914893067036
 40
0.7676284691511377
 40
0.8012083477865926
 40
0.8342638397266235
 40
0.8669806947287754
 40
0.8997197415181608
 40
0.9327019124985372
 40
0.9661758834327498
 40
1.0
 40
1.0
 40
1.0
 40
1.0
 10
883.5338155768374
 20
700.7332483345607
 30
0.0
 10
883.532326240737
 20
700.6109079735529
 30
0.0
 10
883.5294243300821
 20
700.3725327693043
 30
0.0
 10
883.5143872860416
 20
700.0238905400018
 30
0.0
 10
883.4847675576331
 20
699.6947521553194
 30
0.0
 10
883.4477161557844
 20
699.3843282411281
 30
0.0
 10
883.396399668988
 20
699.0939108266527
 30
0.0
 10
883.3333021461281
 20
698.8224949444403
 30
0.0
 10
883.2632442653925
 20
698.5689084949194
 30
0.0
 10
883.1767647359986
 20
698.3352289255253
 30
0.0
 10
883.0821116837764
 20
698.1181964161201
 30
0.0
 10
882.9791283782326
 20
697.9155286485093
 30
0.0
 10
882.8687973471797
 20
697.7254342652415
 30
0.0
 10
882.7485945014585
 20
697.5494348436846
 30
0.0
 10
882.6204724141525
 20
697.386283627518
 30
0.0
 10
882.4816888969112
 20
697.2388604900289
 30
0.0
 10
882.3361561309638
 20
697.1036132398273
 30
0.0
 10
882.1820706090577
 20
696.983266662771
 30
0.0
 10
882.0211299205271
 20
696.8779299664593
 30
0.0
 10
881.8566520304131
 20
696.7837268798586
 30
0.0
 10
881.6857185827621
 20
696.7077664340303
 30
0.0
 10
881.5122032622376
 20
696.6425434832241
 30
0.0
 10
881.333624139689
 20
696.5927138789128
 30
0.0
 10
881.1502038181131
 20
696.5582593520087
 30
0.0
 10
880.9628752788476
 20
696.5340951269691
 30
0.0
 10
880.8362431300905
 20
696.5322517443971
 30
0.0
 10
880.7725976281193
 20
696.5313252576377
 30
0.0
  0
SPLINE
  5
C3
330
1F
100
AcDbEntity
  8
0
  6
Continuous
 62
     7
370
    25
100
AcDbSpline
210
0.0
220
0.0
230
1.0
 70
     8
 71
     3
 72
    19
 73
    15
 74
     0
 42
0.00000001
 43
0.00000001
 40
0.0
 40
0.0
 40
0.0
 40
0.0
 40
0.1101655532114422
 40
0.2157872561749737
 40
0.3180274349094189
 40
0.4175739541655064
 40
0.5116504876474464
 40
0.596162097102761
 40
0.6729345334849955
 40
0.7436695573498562
 40
0.8106770010653606
 40
0.8740589623137349
 40
0.9366963019193724
 40
1.0
 40
1.0
 40
1.0
 40
1.0
 10
874.200482243504
 20
701.5569662832787
 30
0.0
 10
874.2994563365789
 20
701.5586458346415
 30
0.0
 10
874.4933222715689
 20
701.5619356631734
 30
0.0
 10
874.7765092538772
 20
701.6017254012193
 30
0.0
 10
875.0473053959006
 20
701.6567668367751
 30
0.0
 10
875.2997093776169
 20
701.7410758476789
 30
0.0
 10
875.5297635795615
 20
701.8389965262144
 30
0.0
 10
875.729351241463
 20
701.9529444336789
 30
0.0
 10
875.8956761495177
 20
702.0796067176715
 30
0.0
 10
876.027930027212
 20
702.2209383961682
 30
0.0
 10
876.1274254069779
 20
702.3725156475588
 30
0.0
 10
876.2001723725231
 20
702.5304965794159
 30
0.0
 10
876.2431445467977
 20
702.6962658615561
 30
0.0
 10
876.2488809283242
 20
702.8093965311127
 30
0.0
 10
876.251764294786
 20
702.8662611550735
 30
0.0
  0
LINE
  5
C4
330
1F
100
AcDbEntity
  8
0
  6
Continuous
 62
     7
370
    25
100
AcDbLine
 10
874.2004822435
 20
700.7364534628
 30
0.0
 11
874.2004822435
 21
701.5569662833
 31
0.0
  0
SPLINE
  5
C5
330
1F
100
AcDbEntity
  8
0
  6
Continuous
 62
     7
370
    25
100
AcDbSpline
210
0.0
220
0.0
230
1.0
 70
     8
 71
     3
 72
    23
 73
    19
 74
     0
 42
0.00000001
 43
0.00000001
 40
0.0
 40
0.0
 40
0.0
 40
0.0
 40
0.0669091856056542
 40
0.1334854404229628
 40
0.20103511657008
 40
0.2712343400187615
 40
0.3428799841615812
 40
0.4138361296100205
 40
0.4859766219744207
 40
0.5602295572555477
 40
0.5998841807523879
 40
0.644054839642596
 40
0.6918919315842543
 40
0.7446875244737698
 40
0.8014917751698758
 40
0.8628576982200888
 40
0.9293283793947432
 40
0.9999999999999999
 40
0.9999999999999999
 40
0.9999999999999999
 40
0.9999999999999999
 10
876.6620207050424
 20
699.0441457704582
 30
0.0
 10
876.6585228729836
 20
699.1186859735898
 30
0.0
 10
876.6515446135907
 20
699.2673954781841
 30
0.0
 10
876.5982678605817
 20
699.4861785050927
 30
0.0
 10
876.5106361709646
 20
699.696974876382
 30
0.0
 10
876.3879561451175
 20
699.8961881108003
 30
0.0
 10
876.2386173367853
 20
700.0808187428789
 30
0.0
 10
876.0640689782505
 20
700.2455535599717
 30
0.0
 10
875.8628615991115
 20
700.3814851967056
 30
0.0
 10
875.6776733270356
 20
700.4754021256167
 30
0.0
 10
875.5136386835794
 20
700.539486868894
 30
0.0
 10
875.3732606620077
 20
700.5821725019209
 30
0.0
 10
875.2161027114398
 20
700.6183180006092
 30
0.0
 10
875.0440653425779
 20
700.6519460498085
 30
0.0
 10
874.8558522764226
 20
700.6805662741555
 30
0.0
 10
874.6516684181868
 20
700.7044332815691
 30
0.0
 10
874.4314723916613
 20
700.7235305180137
 30
0.0
 10
874.2790354411279
 20
700.7320587357998
 30
0.0
 10
874.200482243504
 20
700.7364534627659
 30
0.0
  0
SPLINE
  5
C6
330
1F
100
AcDbEntity
  8
0
  6
Continuous
 62
     7
370
    25
100
AcDbSpline
210
0.0
220
0.0
230
1.0
 70
     8
 71
     3
 72
    23
 73
    19
 74
     0
 42
0.00000001
 43
0.00000001
 40
0.0
 40
0.0
 40
0.0
 40
0.0
 40
0.0760717369555652
 40
0.1487517145745092
 40
0.218402793845845
 40
0.2857595810623845
 40
0.3505980236748764
 40
0.4149640445981259
 40
0.4780693385717802
 40
0.541760676006903
 40
0.6043498585387158
 40
0.6640750210708954
 40
0.7214636230801975
 40
0.7775871282364413
 40
0.8326444469271268
 40
0.8878435110684583
 40
0.9434603426519442
 40
1.0
 40
1.0
 40
1.0
 40
1.0
 10
874.6251617306835
 20
697.3518380781505
 30
0.0
 10
874.7000268795939
 20
697.3532458615725
 30
0.0
 10
874.8464192154074
 20
697.3559986605246
 30
0.0
 10
875.060030322449
 20
697.3813145618873
 30
0.0
 10
875.2632473454566
 20
697.4181840783317
 30
0.0
 10
875.4538140329282
 20
697.4751280390585
 30
0.0
 10
875.6342266211592
 20
697.5454842709603
 30
0.0
 10
875.8019561060119
 20
697.6338234833868
 30
0.0
 10
875.9592043487396
 20
697.7374685614147
 30
0.0
 10
876.1039572754286
 20
697.8552723525944
 30
0.0
 10
876.234118435458
 20
697.9842357699223
 30
0.0
 10
876.3487230371527
 20
698.1191227896034
 30
0.0
 10
876.4461508348198
 20
698.2593646856254
 30
0.0
 10
876.5247418706803
 20
698.4057375334351
 30
0.0
 10
876.5868002713673
 20
698.5576351994467
 30
0.0
 10
876.6290475869533
 20
698.7154839522569
 30
0.0
 10
876.6584224786675
 20
698.8779919892946
 30
0.0
 10
876.6608147350735
 20
698.9884582040185
 30
0.0
 10
876.6620207050424
 20
699.0441457704582
 30
0.0
  0
SPLINE
  5
C7
330
1F
100
AcDbEntity
  8
0
  6
Continuous
 62
     7
370
    25
100
AcDbSpline
210
0.0
220
0.0
230
1.0
 70
     8
 71
     3
 72
    15
 73
    11
 74
     0
 42
0.00000001
 43
0.00000001
 40
0.0
 40
0.0
 40
0.0
 40
0.0
 40
0.1182713048357227
 40
0.2361775330837636
 40
0.3556629329485026
 40
0.4759041646706827
 40
0.6001273417110812
 40
0.7286081161551241
 40
0.8613134756739398
 40
0.9999999999999999
 40
0.9999999999999999
 40
0.9999999999999999
 40
0.9999999999999999
 10
873.288623269145
 20
697.7845303858428
 30
0.0
 10
873.3334154440596
 20
697.7499970512473
 30
0.0
 10
873.4228615306441
 20
697.681036978597
 30
0.0
 10
873.5686174874405
 20
697.593033256225
 30
0.0
 10
873.7219086556365
 20
697.5167794840313
 30
0.0
 10
873.8860564824271
 20
697.4585310366798
 30
0.0
 10
874.0575188148935
 20
697.4092106691617
 30
0.0
 10
874.2390670782806
 20
697.3769351968589
 30
0.0
 10
874.4290995745359
 20
697.3547908052172
 30
0.0
 10
874.5588544624973
 20
697.3528366760918
 30
0.0
 10
874.6251617306835
 20
697.3518380781505
 30
0.0
  0
SPLINE
  5
C8
330
1F
100
AcDbEntity
  8
0
  6
Continuous
 62
     7
370
    25
100
AcDbSpline
210
0.0
220
0.0
230
1.0
 70
     8
 71
     3
 72
    15
 73
    11
 74
     0
 42
0.00000001
 43
0.00000001
 40
0.0
 40
0.0
 40
0.0
 40
0.0
 40
0.1497703860319705
 40
0.2913164099952418
 40
0.4259663731047463
 40
0.5521595739695327
 40
0.6715274135235944
 40
0.7861216286916585
 40
0.8953250730704457
 40
1.0
 40
1.0
 40
1.0
 40
1.0
 10
872.6620207050424
 20
698.8902996166121
 30
0.0
 10
872.6807253711917
 20
698.8287018719981
 30
0.0
 10
872.7171075715527
 20
698.7088889082995
 30
0.0
 10
872.7790373956328
 20
698.5364539238998
 30
0.0
 10
872.8495934460796
 20
698.3783783736717
 30
0.0
 10
872.9252838658191
 20
698.2335026662935
 30
0.0
 10
873.0047774567282
 20
698.1004000320896
 30
0.0
 10
873.09372585704
 20
697.9825900457259
 30
0.0
 10
873.1855410459482
 20
697.8748981549608
 30
0.0
 10
873.2547509964655
 20
697.8142247562404
 30
0.0
 10
873.288623269145
 20
697.7845303858428
 30
0.0
  0
LINE
  5
C9
330
1F
100
AcDbEntity
  8
0
  6
Continuous
 62
     7
370
    25
100
AcDbLine
 10
871.9440719871
 20
698.8902996166
 30
0.0
 11
872.662020705
 21
698.8902996166
 31
0.0
  0
SPLINE
  5
CA
330
1F
100
AcDbEntity
  8
0
  6
Continuous
 62
     7
370
    25
100
AcDbSpline
210
0.0
220
0.0
230
1.0
 70
     8
 71
     3
 72
    23
 73
    19
 74
     0
 42
0.00000001
 43
0.00000001
 40
0.0
 40
0.0
 40
0.0
 40
0.0
 40
0.0655411703374025
 40
0.1289631677825911
 40
0.1903771361885587
 40
0.2500923616690508
 40
0.3085484324592009
 40
0.3663979630552939
 40
0.4245421892666808
 40
0.4831699964229055
 40
0.5422433998311189
 40
0.6017393520173296
 40
0.662506002249606
 40
0.7248555134488465
 40
0.7891278292811784
 40
0.8563463998785104
 40
0.9262952349869035
 40
1.0
 40
1.0
 40
1.0
 40
1.0
 10
874.612341217863
 20
696.5313252576377
 30
0.0
 10
874.5268113886444
 20
696.5333097450856
 30
0.0
 10
874.3585172056271
 20
696.5372145546336
 30
0.0
 10
874.1111034950297
 20
696.5639085002258
 30
0.0
 10
873.874939610768
 20
696.6126627979122
 30
0.0
 10
873.6497062442385
 20
696.6782703530347
 30
0.0
 10
873.4352033039104
 20
696.7614514777902
 30
0.0
 10
873.2320853492183
 20
696.8650370732674
 30
0.0
 10
873.0391027354582
 20
696.9868919351002
 30
0.0
 10
872.8580765614134
 20
697.1284544215151
 30
0.0
 10
872.6890284066563
 20
697.2868117695306
 30
0.0
 10
872.5364507512732
 20
697.4647752208854
 30
0.0
 10
872.397799795977
 20
697.6590550012763
 30
0.0
 10
872.2767880503507
 20
697.871907701159
 30
0.0
 10
872.1679035872287
 20
698.1005825749369
 30
0.0
 10
872.078347114892
 20
698.3480077140949
 30
0.0
 10
871.999522958009
 20
698.611971192927
 30
0.0
 10
871.9628750397324
 20
698.7959203133288
 30
0.0
 10
871.9440719870938
 20
698.8902996166121
 30
0.0
  0
SPLINE
  5
CB
330
1F
100
AcDbEntity
  8
0
  6
Continuous
 62
     7
370
    25
100
AcDbSpline
210
0.0
220
0.0
230
1.0
 70
     8
 71
     3
 72
    19
 73
    15
 74
     0
 42
0.00000001
 43
0.00000001
 40
0.0
 40
0.0
 40
0.0
 40
0.0
 40
0.0796482511802281
 40
0.1589216764181109
 40
0.2396194947370302
 40
0.3226094298185587
 40
0.4060346366179226
 40
0.487602095492386
 40
0.569684626595928
 40
0.6530361450088333
 40
0.7374357177222877
 40
0.8224778158555078
 40
0.9097476551184072
 40
1.0
 40
1.0
 40
1.0
 40
1.0
 10
877.3799694229912
 20
699.1130560268684
 30
0.0
 10
877.3758676778061
 20
699.0010338070118
 30
0.0
 10
877.3676834903144
 20
698.7775165456547
 30
0.0
 10
877.2945313204685
 20
698.4472886104929
 30
0.0
 10
877.1811296274535
 20
698.124487462433
 30
0.0
 10
877.0200852023847
 20
697.8157449727285
 30
0.0
 10
876.8238166107768
 20
697.5268755304421
 30
0.0
 10
876.5903141555123
 20
697.2684153954984
 30
0.0
 10
876.3222309362889
 20
697.0462471570161
 30
0.0
 10
876.0232465960586
 20
696.8606237786049
 30
0.0
 10
875.6993217309516
 20
696.7122399564486
 30
0.0
 10
875.3528632349585
 20
696.6092515156565
 30
0.0
 10
874.9888631116098
 20
696.5421749449795
 30
0.0
 10
874.73924643149
 20
696.534982101802
 30
0.0
 10
874.612341217863
 20
696.5313252576377
 30
0.0
  0
SPLINE
  5
CC
330
1F
100
AcDbEntity
  8
0
  6
Continuous
 62
     7
370
    25
100
AcDbSpline
210
0.0
220
0.0
230
1.0
 70
     8
 71
     3
 72
    15
 73
    11
 74
     0
 42
0.00000001
 43
0.00000001
 40
0.0
 40
0.0
 40
0.0
 40
0.0
 40
0.1281355097972564
 40
0.2541727119019845
 40
0.3781116451390034
 40
0.5017122630072849
 40
0.6239863093684844
 40
0.7470956136177425
 40
0.8728746366500608
 40
0.9999999999999999
 40
0.9999999999999999
 40
0.9999999999999999
 40
0.9999999999999999
 10
876.9024053204271
 20
700.5345303858428
 30
0.0
 10
876.9408998172333
 20
700.4818269535944
 30
0.0
 10
877.0172584368073
 20
700.377283144292
 30
0.0
 10
877.1115110853829
 20
700.2091998851287
 30
0.0
 10
877.1970176323686
 20
700.0392536239123
 30
0.0
 10
877.2636467051155
 20
699.8628892672815
 30
0.0
 10
877.3152441150282
 20
699.6821509502571
 30
0.0
 10
877.3521264744336
 20
699.4967283306951
 30
0.0
 10
877.3750387964468
 20
699.3064699937253
 30
0.0
 10
877.3783200581943
 20
699.1777557532213
 30
0.0
 10
877.3799694229912
 20
699.1130560268684
 30
0.0
  0
SPLINE
  5
CD
330
1F
100
AcDbEntity
  8
0
  6
Continuous
 62
     7
370
    25
100
AcDbSpline
210
0.0
220
0.0
230
1.0
 70
     8
 71
     3
 72
    11
 73
     7
 74
     0
 42
0.00000001
 43
0.00000001
 40
0.0
 40
0.0
 40
0.0
 40
0.0
 40
0.2538796003266549
 40
0.5030089172783632
 40
0.7502910806899759
 40
1.0
 40
1.0
 40
1.0
 40
1.0
 10
876.0354181409399
 20
701.2172226935352
 30
0.0
 10
876.1205192942504
 20
701.1761297300118
 30
0.0
 10
876.2891292925754
 20
701.0947126840456
 30
0.0
 10
876.518959074365
 20
700.9350423811491
 30
0.0
 10
876.7275942180379
 20
700.7506850157687
 30
0.0
 10
876.8439455757609
 20
700.6068160948233
 30
0.0
 10
876.9024053204271
 20
700.5345303858428
 30
0.0
  0
SPLINE
  5
CE
330
1F
100
AcDbEntity
  8
0
  6
Continuous
 62
     7
370
    25
100
AcDbSpline
210
0.0
220
0.0
230
1.0
 70
     8
 71
     3
 72
    15
 73
    11
 74
     0
 42
0.00000001
 43
0.00000001
 40
0.0
 40
0.0
 40
0.0
 40
0.0
 40
0.1280675485958933
 40
0.2506083188676667
 40
0.3706301659144985
 40
0.4900722467299481
 40
0.6103747641546198
 40
0.7343130699115243
 40
0.8632165042449879
 40
1.0
 40
1.0
 40
1.0
 40
1.0
 10
876.9697130127347
 20
702.8630560268685
 30
0.0
 10
876.9670533760558
 20
702.7784690675413
 30
0.0
 10
876.9618488798018
 20
702.6129455144828
 30
0.0
 10
876.9176575528022
 20
702.3712963781671
 30
0.0
 10
876.8432889519422
 20
702.1435441489506
 30
0.0
 10
876.7402723517642
 20
701.928730064097
 30
0.0
 10
876.6069202369293
 20
701.7282161445012
 30
0.0
 10
876.4453826440372
 20
701.5415512511058
 30
0.0
 10
876.2545194171217
 20
701.3679074610983
 30
0.0
 10
876.109881844497
 20
701.2684343800115
 30
0.0
 10
876.0354181409399
 20
701.2172226935352
 30
0.0
  0
SPLINE
  5
CF
330
1F
100
AcDbEntity
  8
0
  6
Continuous
 62
     7
370
    25
100
AcDbSpline
210
0.0
220
0.0
230
1.0
 70
     8
 71
     3
 72
    19
 73
    15
 74
     0
 42
0.00000001
 43
0.00000001
 40
0.0
 40
0.0
 40
0.0
 40
0.0
 40
0.0902542493426785
 40
0.1785397915286853
 40
0.2660930338538204
 40
0.3546309779571771
 40
0.4418861533505629
 40
0.5257469151636495
 40
0.6081136336036354
 40
0.6901972728278821
 40
0.7708214843303363
 40
0.8483261812554109
 40
0.9240117400247418
 40
1.0
 40
1.0
 40
1.0
 40
1.0
 10
874.6331745511962
 20
704.9415816678941
 30
0.0
 10
874.737592247368
 20
704.9384291416198
 30
0.0
 10
874.9441499866673
 20
704.9321928548203
 30
0.0
 10
875.247608379697
 20
704.8752455714396
 30
0.0
 10
875.5402411090732
 20
704.7851309832014
 30
0.0
 10
875.818845104082
 20
704.6606196068882
 30
0.0
 10
876.0776300928734
 20
704.507048605375
 30
0.0
 10
876.3078842340097
 20
704.3242720639013
 30
0.0
 10
876.5064865444187
 20
704.1158165176444
 30
0.0
 10
876.6731022647848
 20
703.8855706563447
 30
0.0
 10
876.8035594054788
 20
703.6395009206033
 30
0.0
 10
876.8997568305754
 20
703.3862434185522
 30
0.0
 10
876.958320672858
 20
703.1263989125205
 30
0.0
 10
876.9659105169957
 20
702.9509537029772
 30
0.0
 10
876.9697130127347
 20
702.8630560268685
 30
0.0
  0
SPLINE
  5
D0
330
1F
100
AcDbEntity
  8
0
  6
Continuous
 62
     7
370
    25
100
AcDbSpline
210
0.0
220
0.0
230
1.0
 70
     8
 71
     3
 72
    23
 73
    19
 74
     0
 42
0.00000001
 43
0.00000001
 40
0.0
 40
0.0
 40
0.0
 40
0.0
 40
0.0726253460834363
 40
0.1419766113262354
 40
0.2089849284189394
 40
0.2739568703644433
 40
0.3368893473968416
 40
0.3987449534945902
 40
0.4601158852788609
 40
0.5208249225900299
 40
0.5809944586324842
 40
0.6401519276014673
 40
0.6986224507562548
 40
0.7572710809271677
 40
0.8164266940046613
 40
0.8762540482034712
 40
0.9371652930625409
 40
1.0
 40
1.0
 40
1.0
 40
1.0
 10
872.251764294786
 20
702.8902996166121
 30
0.0
 10
872.2712146963427
 20
702.9708310085557
 30
0.0
 10
872.3092386404732
 20
703.1282632928773
 30
0.0
 10
872.3885473798306
 20
703.353194174814
 30
0.0
 10
872.4749456774182
 20
703.5660479379927
 30
0.0
 10
872.5786922021377
 20
703.7628389635822
 30
0.0
 10
872.6918550689403
 20
703.9475221698284
 30
0.0
 10
872.8215070038794
 20
704.1159087400413
 30
0.0
 10
872.9616663697444
 20
704.2722812325376
 30
0.0
 10
873.1166948252913
 20
704.411054346954
 30
0.0
 10
873.2792746233274
 20
704.5367177279979
 30
0.0
 10
873.451696611329
 20
704.643860716209
 30
0.0
 10
873.630491796862
 20
704.7360302084708
 30
0.0
 10
873.8168989578872
 20
704.811962167043
 30
0.0
 10
874.0114730646118
 20
704.8691633639941
 30
0.0
 10
874.2124550607737
 20
704.9106646339159
 30
0.0
 10
874.4203716324644
 20
704.9376157521203
 30
0.0
 10
874.5615089824032
 20
704.9402460677463
 30
0.0
 10
874.6331745511962
 20
704.9415816678941
 30
0.0
  0
LINE
  5
D1
330
1F
100
AcDbEntity
  8
0
  6
Continuous
 62
     7
370
    25
100
AcDbLine
 10
872.9697130127
 20
702.8902996166
 30
0.0
 11
872.2517642948
 21
702.8902996166
 31
0.0
  0
SPLINE
  5
D2
330
1F
100
AcDbEntity
  8
0
  6
Continuous
 62
     7
370
    25
100
AcDbSpline
210
0.0
220
0.0
230
1.0
 70
     8
 71
     3
 72
    19
 73
    15
 74
     0
 42
0.00000001
 43
0.00000001
 40
0.0
 40
0.0
 40
0.0
 40
0.0
 40
0.1227119423657767
 40
0.2396849640167715
 40
0.3518158552560962
 40
0.4637661328620805
 40
0.5208177931608309
 40
0.5794482914480008
 40
0.6406041451203187
 40
0.705297511805982
 40
0.7736338807131368
 40
0.8446693818863791
 40
0.9200565080211465
 40
1.0
 40
1.0
 40
1.0
 40
1.0
 10
874.6427899358117
 20
704.1210688473813
 30
0.0
 10
874.5517004089477
 20
704.1178885913741
 30
0.0
 10
874.3737813772074
 20
704.1116768117223
 30
0.0
 10
874.1172901385667
 20
704.0572699238364
 30
0.0
 10
873.8788459465654
 20
703.9704628758515
 30
0.0
 10
873.6965861372183
 20
703.8668445457217
 30
0.0
 10
873.5619973962846
 20
703.7645578397766
 30
0.0
 10
873.4658215375342
 20
703.675226670928
 30
0.0
 10
873.371374656609
 20
703.5759516454161
 30
0.0
 10
873.2848702523822
 20
703.4606182162103
 30
0.0
 10
873.1973868771258
 20
703.3370369814885
 30
0.0
 10
873.1177421650606
 20
703.1989257093934
 30
0.0
 10
873.0403485827716
 20
703.0498870938461
 30
0.0
 10
872.9937141836432
 20
702.9445256434417
 30
0.0
 10
872.9697130127347
 20
702.8902996166121
 30
0.0
  0
SPLINE
  5
D3
330
1F
100
AcDbEntity
  8
0
  6
Continuous
 62
     7
370
    25
100
AcDbSpline
210
0.0
220
0.0
230
1.0
 70
     8
 71
     3
 72
    23
 73
    19
 74
     0
 42
0.00000001
 43
0.00000001
 40
0.0
 40
0.0
 40
0.0
 40
0.0
 40
0.0552745490875263
 40
0.1099660938819816
 40
0.1632474428518023
 40
0.2180761854823577
 40
0.2733008743735884
 40
0.3309093000114318
 40
0.3909945233652098
 40
0.4541759534308219
 40
0.5188615408488225
 40
0.5833105320111692
 40
0.6485166818638243
 40
0.7150308870971793
 40
0.7825020728543316
 40
0.852322685076854
 40
0.9249284897844289
 40
1.0
 40
1.0
 40
1.0
 40
1.0
 10
876.251764294786
 20
702.8662611550735
 30
0.0
 10
876.2508170697307
 20
702.9080388582566
 30
0.0
 10
876.2489326104075
 20
702.9911536173315
 30
0.0
 10
876.2251674040452
 20
703.1125823457622
 30
0.0
 10
876.1894553103705
 20
703.2302987935934
 30
0.0
 10
876.1403587862403
 20
703.3438023598886
 30
0.0
 10
876.0746440463392
 20
703.4523058430841
 30
0.0
 10
875.9960017914266
 20
703.5567342978046
 30
0.0
 10
875.9023604193591
 20
703.6564915069615
 30
0.0
 10
875.7950565404824
 20
703.749475094515
 30
0.0
 10
875.679829557696
 20
703.8380904937505
 30
0.0
 10
875.5535443575865
 20
703.9133216639891
 30
0.0
 10
875.4200086439591
 20
703.9776532344495
 30
0.0
 10
875.2790745757309
 20
704.0307035249728
 30
0.0
 10
875.1302847921459
 20
704.0706104694681
 30
0.0
 10
874.9743383746402
 20
704.0992638212437
 30
0.0
 10
874.8109379551832
 20
704.1171784606302
 30
0.0
 10
874.6994597105955
 20
704.1197576969923
 30
0.0
 10
874.6427899358117
 20
704.1210688473813
 30
0.0
  0
SPLINE
  5
D4
330
1F
100
AcDbEntity
  8
0
  6
Continuous
 62
     7
370
    25
100
AcDbSpline
210
0.0
220
0.0
230
1.0
 70
     8
 71
     3
 72
    19
 73
    15
 74
     0
 42
0.00000001
 43
0.00000001
 40
0.0
 40
0.0
 40
0.0
 40
0.0
 40
0.0969723103815162
 40
0.1877734389628667
 40
0.2723961390136915
 40
0.3513209973752904
 40
0.4243347744514641
 40
0.4919087840005257
 40
0.5542332197968012
 40
0.6112676582441532
 40
0.7163478449915544
 40
0.8145400858216157
 40
0.9084954561491835
 40
0.9999999999999999
 40
0.9999999999999999
 40
0.9999999999999999
 40
0.9999999999999999
 10
869.1363796794013
 20
701.2781201294326
 30
0.0
 10
869.223204624104
 20
701.2149398790332
 30
0.0
 10
869.3913290958264
 20
701.0926000807408
 30
0.0
 10
869.6305464213383
 20
700.9087928121066
 30
0.0
 10
869.8474465541266
 20
700.7290264839369
 30
0.0
 10
870.04279101943
 20
700.5544490962886
 30
0.0
 10
870.2185096672922
 20
700.3863848837088
 30
0.0
 10
870.3726530288346
 20
700.2228119000971
 30
0.0
 10
870.506791726771
 20
700.0649020196805
 30
0.0
 10
870.6512013689656
 20
699.8624504181007
 30
0.0
 10
870.7987620992981
 20
699.6138079397592
 30
0.0
 10
870.9254855448436
 20
699.3091719659416
 30
0.0
 10
871.0053903390254
 20
699.0033518048057
 30
0.0
 10
871.0158395171557
 20
698.7978047500055
 30
0.0
 10
871.0209950640169
 20
698.6963893602018
 30
0.0
  0
SPLINE
  5
D5
330
1F
100
AcDbEntity
  8
0
  6
Continuous
 62
     7
370
    25
100
AcDbSpline
210
0.0
220
0.0
230
1.0
 70
     8
 71
     3
 72
    15
 73
    11
 74
     0
 42
0.00000001
 43
0.00000001
 40
0.0
 40
0.0
 40
0.0
 40
0.0
 40
0.0525942815291441
 40
0.124951973975044
 40
0.2180938989285983
 40
0.3335024107325271
 40
0.4687891785044491
 40
0.6249375859646015
 40
0.801683047928222
 40
0.9999999999999999
 40
0.9999999999999999
 40
0.9999999999999999
 40
0.9999999999999999
 10
868.0610591665809
 20
702.0745944884069
 30
0.0
 10
868.0785708749413
 20
702.0589670008279
 30
0.0
 10
868.1201746855401
 20
702.0218396675039
 30
0.0
 10
868.1962339443736
 20
701.9610573117467
 30
0.0
 10
868.296674626042
 20
701.8860795465004
 30
0.0
 10
868.4188739430176
 20
701.7933085374152
 30
0.0
 10
868.5650850555367
 20
701.6856937668614
 30
0.0
 10
868.7353240410099
 20
701.5646112247728
 30
0.0
 10
868.9276932589185
 20
701.4261301756142
 30
0.0
 10
869.0642004952604
 20
701.3293129399343
 30
0.0
 10
869.1363796794013
 20
701.2781201294326
 30
0.0
  0
SPLINE
  5
D6
330
1F
100
AcDbEntity
  8
0
  6
Continuous
 62
     7
370
    25
100
AcDbSpline
210
0.0
220
0.0
230
1.0
 70
     8
 71
     3
 72
    15
 73
    11
 74
     0
 42
0.00000001
 43
0.00000001
 40
0.0
 40
0.0
 40
0.0
 40
0.0
 40
0.1072852142689613
 40
0.2147458609696439
 40
0.3229385595552925
 40
0.4341161625174666
 40
0.5534123109628022
 40
0.6860729848107352
 40
0.8342559920595911
 40
0.9999999999999999
 40
0.9999999999999999
 40
0.9999999999999999
 40
0.9999999999999999
 10
867.5338155768372
 20
703.1082483345608
 30
0.0
 10
867.534714152003
 20
703.0653878121825
 30
0.0
 10
867.536512771681
 20
702.97959668204
 30
0.0
 10
867.5615980235356
 20
702.8528505747167
 30
0.0
 10
867.5938250611536
 20
702.7264246560457
 30
0.0
 10
867.6448939337328
 20
702.6008873238532
 30
0.0
 10
867.7153974848546
 20
702.4740430745908
 30
0.0
 10
867.807980744069
 20
702.343707674457
 30
0.0
 10
867.9245826001834
 20
702.2087323403495
 30
0.0
 10
868.013901485558
 20
702.1209440574353
 30
0.0
 10
868.0610591665809
 20
702.0745944884069
 30
0.0
  0
SPLINE
  5
D7
330
1F
100
AcDbEntity
  8
0
  6
Continuous
 62
     7
370
    25
100
AcDbSpline
210
0.0
220
0.0
230
1.0
 70
     8
 71
     3
 72
    15
 73
    11
 74
     0
 42
0.00000001
 43
0.00000001
 40
0.0
 40
0.0
 40
0.0
 40
0.0
 40
0.1430730837303683
 40
0.2759029640930095
 40
0.4023708562739973
 40
0.5284136450935955
 40
0.6503563791869531
 40
0.7658950861246914
 40
0.880774130844022
 40
1.0
 40
1.0
 40
1.0
 40
1.0
 10
868.7068924999143
 20
704.1210688473813
 30
0.0
 10
868.6242490201304
 20
704.1182992474912
 30
0.0
 10
868.4648788546118
 20
704.1129583350073
 30
0.0
 10
868.2386154577946
 20
704.0546269400551
 30
0.0
 10
868.0349722005071
 20
703.9627826879273
 30
0.0
 10
867.8599949089501
 20
703.8340627379943
 30
0.0
 10
867.7143103899946
 20
703.6815576118569
 30
0.0
 10
867.6089264842462
 20
703.5060630859714
 30
0.0
 10
867.5454975366986
 20
703.312274737161
 30
0.0
 10
867.537757468925
 20
703.1770938084029
 30
0.0
 10
867.5338155768372
 20
703.1082483345608
 30
0.0
  0
SPLINE
  5
D8
330
1F
100
AcDbEntity
  8
0
  6
Continuous
 62
     7
370
    25
100
AcDbSpline
210
0.0
220
0.0
230
1.0
 70
     8
 71
     3
 72
    19
 73
    15
 74
     0
 42
0.00000001
 43
0.00000001
 40
0.0
 40
0.0
 40
0.0
 40
0.0
 40
0.0984694310255588
 40
0.1896291011376289
 40
0.2741840894379703
 40
0.3521831609671498
 40
0.4231988731834703
 40
0.4885509460005293
 40
0.5484733460279364
 40
0.6014401636178723
 40
0.7011980824257671
 40
0.7995918021381857
 40
0.8985450984822301
 40
1.0
 40
1.0
 40
1.0
 40
1.0
 10
870.2693924999141
 20
703.0954278217403
 30
0.0
 10
870.2302017971205
 20
703.145916256992
 30
0.0
 10
870.1547296666698
 20
703.2431451786473
 30
0.0
 10
870.0401479824172
 20
703.3793081857474
 30
0.0
 10
869.9321510728852
 20
703.5036887103917
 30
0.0
 10
869.8257501590926
 20
703.6117232887461
 30
0.0
 10
869.726564715742
 20
703.709328164947
 30
0.0
 10
869.6302971906061
 20
703.7928933234028
 30
0.0
 10
869.5383329592064
 20
703.8632375415287
 30
0.0
 10
869.4224085920154
 20
703.9383085357211
 30
0.0
 10
869.2767680929909
 20
704.0127234009892
 30
0.0
 10
869.0939462958725
 20
704.0756927223098
 30
0.0
 10
868.9028919529353
 20
704.1135328638384
 30
0.0
 10
868.7727670809567
 20
704.1185360354219
 30
0.0
 10
868.7068924999143
 20
704.1210688473813
 30
0.0
  0
LINE
  5
D9
330
1F
100
AcDbEntity
  8
0
  6
Continuous
 62
     7
370
    25
100
AcDbLine
 10
870.9184309615
 20
703.5874150012
 30
0.0
 11
870.2693924999
 21
703.0954278217
 31
0.0
  0
SPLINE
  5
DA
330
1F
100
AcDbEntity
  8
0
  6
Continuous
 62
     7
370
    25
100
AcDbSpline
210
0.0
220
0.0
230
1.0
 70
     8
 71
     3
 72
    19
 73
    15
 74
     0
 42
0.00000001
 43
0.00000001
 40
0.0
 40
0.0
 40
0.0
 40
0.0
 40
0.107232799360087
 40
0.2132518127818486
 40
0.3188304473075887
 40
0.4267935306342717
 40
0.4836459507827179
 40
0.5436038220211407
 40
0.6083076495640818
 40
0.6771267602600382
 40
0.7506856360204979
 40
0.8287134184432897
 40
0.9121903482234519
 40
0.9999999999999999
 40
0.9999999999999999
 40
0.9999999999999999
 40
0.9999999999999999
 10
868.7870207050424
 20
704.9415816678941
 30
0.0
 10
868.8812929342951
 20
704.9383301213817
 30
0.0
 10
869.0687703097163
 20
704.9318638331541
 30
0.0
 10
869.3445399453038
 20
704.8756409044232
 30
0.0
 10
869.6100501542195
 20
704.7826107974793
 30
0.0
 10
869.8236347595212
 20
704.6770367221019
 30
0.0
 10
869.9907953571483
 20
704.571593486186
 30
0.0
 10
870.1182758890086
 20
704.4755481735485
 30
0.0
 10
870.2474586336637
 20
704.364976496739
 30
0.0
 10
870.3793856161294
 20
704.2395839342686
 30
0.0
 10
870.5118214091332
 20
704.098219931778
 30
0.0
 10
870.6467321571198
 20
703.9418526428426
 30
0.0
 10
870.7844333429729
 20
703.7714376580097
 30
0.0
 10
870.8730181661132
 20
703.6497816562852
 30
0.0
 10
870.9184309614527
 20
703.5874150012274
 30
0.0
  0
SPLINE
  5
DB
330
1F
100
AcDbEntity
  8
0
  6
Continuous
 62
     7
370
    25
100
AcDbSpline
210
0.0
220
0.0
230
1.0
 70
     8
 71
     3
 72
    19
 73
    15
 74
     0
 42
0.00000001
 43
0.00000001
 40
0.0
 40
0.0
 40
0.0
 40
0.0
 40
0.0837853706537113
 40
0.1657798879221434
 40
0.2462800078932638
 40
0.3274609277363909
 40
0.4087969540320667
 40
0.489715241230986
 40
0.5713760321300516
 40
0.6555233211112749
 40
0.7410194827999712
 40
0.8265467605037619
 40
0.9119888516548297
 40
0.9999999999999999
 40
0.9999999999999999
 40
0.9999999999999999
 40
0.9999999999999999
 10
866.8158668588885
 20
703.0745944884069
 30
0.0
 10
866.8188501937307
 20
703.1592339731262
 30
0.0
 10
866.82475309673
 20
703.3267038330919
 30
0.0
 10
866.8746742790624
 20
703.5713457312454
 30
0.0
 10
866.9534694645585
 20
703.8049146848856
 30
0.0
 10
867.0638577796706
 20
704.0250983048277
 30
0.0
 10
867.2061603006265
 20
704.2261634040008
 30
0.0
 10
867.3708368134613
 20
704.4104228028168
 30
0.0
 10
867.5669773534327
 20
704.5653224193217
 30
0.0
 10
867.7821833494633
 20
704.7006642670685
 30
0.0
 10
868.0177407713667
 20
704.806597810399
 30
0.0
 10
868.2645771219896
 20
704.8865086221944
 30
0.0
 10
868.5230847151902
 20
704.9317869254879
 30
0.0
 10
868.6981775943294
 20
704.9382846738598
 30
0.0
 10
868.7870207050424
 20
704.9415816678941
 30
0.0
  0
SPLINE
  5
DC
330
1F
100
AcDbEntity
  8
0
  6
Continuous
 62
     7
370
    25
100
AcDbSpline
210
0.0
220
0.0
230
1.0
 70
     8
 71
     3
 72
    15
 73
    11
 74
     0
 42
0.00000001
 43
0.00000001
 40
0.0
 40
0.0
 40
0.0
 40
0.0
 40
0.1335067689985155
 40
0.2625589787303678
 40
0.3882644471488849
 40
0.5126673546814283
 40
0.633722269965767
 40
0.7553938601370978
 40
0.8775529450912812
 40
1.0
 40
1.0
 40
1.0
 40
1.0
 10
867.262982243504
 20
701.8566457704583
 30
0.0
 10
867.2276164258328
 20
701.9037338546964
 30
0.0
 10
867.1580647990548
 20
701.9963388918843
 30
0.0
 10
867.0662567865633
 20
702.1410814239247
 30
0.0
 10
866.9882244144526
 20
702.2892488877172
 30
0.0
 10
866.9270533695698
 20
702.4412394352935
 30
0.0
 10
866.8755420122221
 20
702.5949192727347
 30
0.0
 10
866.8408953134386
 20
702.7522935486197
 30
0.0
 10
866.8192006919169
 20
702.9126561051099
 30
0.0
 10
866.8169790084127
 20
703.0205726779614
 30
0.0
 10
866.8158668588885
 20
703.0745944884069
 30
0.0
  0
SPLINE
  5
DD
330
1F
100
AcDbEntity
  8
0
  6
Continuous
 62
     7
370
    25
100
AcDbSpline
210
0.0
220
0.0
230
1.0
 70
     8
 71
     3
 72
    15
 73
    11
 74
     0
 42
0.00000001
 43
0.00000001
 40
0.0
 40
0.0
 40
0.0
 40
0.0
 40
0.1815353013762816
 40
0.3470816724816241
 40
0.4955678164315533
 40
0.6283573018772152
 40
0.7455196699921545
 40
0.8458307507576536
 40
0.9307818073847599
 40
1.0
 40
1.0
 40
1.0
 40
1.0
 10
868.5738796794014
 20
700.7685047448172
 30
0.0
 10
868.489710545278
 20
700.8284558022327
 30
0.0
 10
868.3287855702375
 20
700.9430776587924
 30
0.0
 10
868.1037373820171
 20
701.1131903079664
 30
0.0
 10
867.9024928951375
 20
701.2687191526336
 30
0.0
 10
867.7259465716555
 20
701.4111283231535
 30
0.0
 10
867.5741760645789
 20
701.5404371339648
 30
0.0
 10
867.4459854108321
 20
701.6554038520039
 30
0.0
 10
867.344640137471
 20
701.7591377054174
 30
0.0
 10
867.2882845245371
 20
701.8264322008348
 30
0.0
 10
867.262982243504
 20
701.8566457704583
 30
0.0
  0
SPLINE
  5
DE
330
1F
100
AcDbEntity
  8
0
  6
Continuous
 62
     7
370
    25
100
AcDbSpline
210
0.0
220
0.0
230
1.0
 70
     8
 71
     3
 72
    15
 73
    11
 74
     0
 42
0.00000001
 43
0.00000001
 40
0.0
 40
0.0
 40
0.0
 40
0.0
 40
0.0902792146500146
 40
0.189529918446962
 40
0.2991978724002915
 40
0.4189258867738207
 40
0.548376285401251
 40
0.6881363695386838
 40
0.8390835016589243
 40
0.9999999999999999
 40
0.9999999999999999
 40
0.9999999999999999
 40
0.9999999999999999
 10
870.0161873717092
 20
699.4928637191762
 30
0.0
 10
869.9803688250106
 20
699.5386850302694
 30
0.0
 10
869.9051722666337
 20
699.6348811412827
 30
0.0
 10
869.7758979521353
 20
699.7780702509408
 30
0.0
 10
869.6242039765801
 20
699.9257694942597
 30
0.0
 10
869.4552815653534
 20
700.0836187672869
 30
0.0
 10
869.2629773622892
 20
700.2442765882881
 30
0.0
 10
869.0533144722249
 20
700.41540408072
 30
0.0
 10
868.8209399374451
 20
700.5904933996839
 30
0.0
 10
868.6579696594612
 20
700.7079164066474
 30
0.0
 10
868.5738796794014
 20
700.7685047448172
 30
0.0
  0
SPLINE
  5
DF
330
1F
100
AcDbEntity
  8
0
  6
Continuous
 62
     7
370
    25
100
AcDbSpline
210
0.0
220
0.0
230
1.0
 70
     8
 71
     3
 72
    11
 73
     7
 74
     0
 42
0.00000001
 43
0.00000001
 40
0.0
 40
0.0
 40
0.0
 40
0.0
 40
0.2347233736739085
 40
0.4771583189290007
 40
0.7285562842030581
 40
0.9999999999999999
 40
0.9999999999999999
 40
0.9999999999999999
 40
0.9999999999999999
 10
870.3030463460682
 20
698.7076073089198
 30
0.0
 10
870.299676493041
 20
698.774214965394
 30
0.0
 10
870.2928260742685
 20
698.909618597736
 30
0.0
 10
870.2349255483887
 20
699.1093892330593
 30
0.0
 10
870.1438415556036
 20
699.3070865359718
 30
0.0
 10
870.0598126557065
 20
699.4293751430067
 30
0.0
 10
870.0161873717092
 20
699.4928637191762
 30
0.0
  0
SPLINE
  5
E0
330
1F
100
AcDbEntity
  8
0
  6
Continuous
 62
     7
370
    25
100
AcDbSpline
210
0.0
220
0.0
230
1.0
 70
     8
 71
     3
 72
    19
 73
    15
 74
     0
 42
0.00000001
 43
0.00000001
 40
0.0
 40
0.0
 40
0.0
 40
0.0
 40
0.0912636048966211
 40
0.1809303110850779
 40
0.2700882198317234
 40
0.3601561333877264
 40
0.4483425324981547
 40
0.5326658421383305
 40
0.6138337041070491
 40
0.6939815272835617
 40
0.7727159770890075
 40
0.8493351720622492
 40
0.9239673265752312
 40
1.0
 40
1.0
 40
1.0
 40
1.0
 10
868.7357386537604
 20
697.3518380781505
 30
0.0
 10
868.8058800492153
 20
697.3537916153213
 30
0.0
 10
868.9449355304661
 20
697.3576645073512
 30
0.0
 10
869.1496492286628
 20
697.3948777691784
 30
0.0
 10
869.3484647766995
 20
697.4520483495521
 30
0.0
 10
869.5372845200837
 20
697.5339247644285
 30
0.0
 10
869.7135030675843
 20
697.6329841603715
 30
0.0
 10
869.8680326569253
 20
697.7526325661024
 30
0.0
 10
870.001623772764
 20
697.8865896077336
 30
0.0
 10
870.1109017489175
 20
698.0360356754867
 30
0.0
 10
870.1947418295765
 20
698.1967605865891
 30
0.0
 10
870.2591808430925
 20
698.361734189648
 30
0.0
 10
870.29494101145
 20
698.5335480599999
 30
0.0
 10
870.3003278764938
 20
698.6492291179378
 30
0.0
 10
870.3030463460682
 20
698.7076073089198
 30
0.0
  0
SPLINE
  5
E1
330
1F
100
AcDbEntity
  8
0
  6
Continuous
 62
     7
370
    25
100
AcDbSpline
210
0.0
220
0.0
230
1.0
 70
     8
 71
     3
 72
    15
 73
    11
 74
     0
 42
0.00000001
 43
0.00000001
 40
0.0
 40
0.0
 40
0.0
 40
0.0
 40
0.1590042985173799
 40
0.3046460998968151
 40
0.4385469045795942
 40
0.562322298775926
 40
0.6774325425257256
 40
0.7868973929387534
 40
0.8936108891042619
 40
1.0
 40
1.0
 40
1.0
 40
1.0
 10
866.9793283973502
 20
698.6851714114839
 30
0.0
 10
867.0422272253514
 20
698.5798813887476
 30
0.0
 10
867.1627389525016
 20
698.3781497683843
 30
0.0
 10
867.3637706305644
 20
698.1055599616899
 30
0.0
 10
867.5720744275152
 20
697.8738750319551
 30
0.0
 10
867.7891929041997
 20
697.6844427861497
 30
0.0
 10
868.0138007856222
 20
697.5353024735838
 30
0.0
 10
868.2473643370204
 20
697.4296973725128
 30
0.0
 10
868.4890964757894
 20
697.3638322859497
 30
0.0
 10
868.6536080677424
 20
697.3558320881104
 30
0.0
 10
868.7357386537604
 20
697.3518380781505
 30
0.0
  0
LINE
  5
E2
330
1F
100
AcDbEntity
  8
0
  6
Continuous
 62
     7
370
    25
100
AcDbLine
 10
866.3030463461
 20
698.2797226935
 30
0.0
 11
866.9793283974
 21
698.6851714115
 31
0.0
  0
SPLINE
  5
E3
330
1F
100
AcDbEntity
  8
0
  6
Continuous
 62
     7
370
    25
100
AcDbSpline
210
0.0
220
0.0
230
1.0
 70
     8
 71
     3
 72
    23
 73
    19
 74
     0
 42
0.00000001
 43
0.00000001
 40
0.0
 40
0.0
 40
0.0
 40
0.0
 40
0.0572082694335125
 40
0.1136960596574911
 40
0.169177916417197
 40
0.2241592165805461
 40
0.2787198783810435
 40
0.3337942174469887
 40
0.3892414593400035
 40
0.4458220733936241
 40
0.503704281109019
 40
0.5642938918193645
 40
0.6279754158952245
 40
0.6950382596840519
 40
0.7653727258510113
 40
0.8396114430907331
 40
0.9175377500777866
 40
0.9999999999999999
 40
0.9999999999999999
 40
0.9999999999999999
 40
0.9999999999999999
 10
868.7357386537604
 20
696.5313252576377
 30
0.0
 10
868.675315012661
 20
696.5324936727176
 30
0.0
 10
868.5552287039651
 20
696.534815787893
 30
0.0
 10
868.3776070311121
 20
696.5553444288579
 30
0.0
 10
868.2035736843736
 20
696.5843892370665
 30
0.0
 10
868.0353124682956
 20
696.6305013970136
 30
0.0
 10
867.8706555274001
 20
696.6864487731099
 30
0.0
 10
867.7103189913408
 20
696.7553363904772
 30
0.0
 10
867.554225153956
 20
696.8378899937854
 30
0.0
 10
867.4014992502568
 20
696.9322786215081
 30
0.0
 10
867.2525297083457
 20
697.0421248947963
 30
0.0
 10
867.1087137816512
 20
697.1700643152266
 30
0.0
 10
866.9653327861922
 20
697.3125683266351
 30
0.0
 10
866.8266187374572
 20
697.4735067571762
 30
0.0
 10
866.6897658361869
 20
697.650279517994
 30
0.0
 10
866.5574723286749
 20
697.8445405086167
 30
0.0
 10
866.4269998311227
 20
698.0552316029228
 30
0.0
 10
866.3451359046603
 20
698.2034946559968
 30
0.0
 10
866.3030463460682
 20
698.2797226935351
 30
0.0
  0
SPLINE
  5
E4
330
1F
100
AcDbEntity
  8
0
  6
Continuous
 62
     7
370
    25
100
AcDbSpline
210
0.0
220
0.0
230
1.0
 70
     8
 71
     3
 72
    23
 73
    19
 74
     0
 42
0.00000001
 43
0.00000001
 40
0.0
 40
0.0
 40
0.0
 40
0.0
 40
0.061484255196891
 40
0.1217745277022083
 40
0.1809195598139334
 40
0.2402561150782704
 40
0.3001144444023535
 40
0.361145947612614
 40
0.4235005824125876
 40
0.4886693612807201
 40
0.5539541046535622
 40
0.6175812610152618
 40
0.6802384268167401
 40
0.7421873887724529
 40
0.8046632117692963
 40
0.868258989312665
 40
0.9330202571803787
 40
1.0
 40
1.0
 40
1.0
 40
1.0
 10
871.0209950640169
 20
698.6963893602018
 30
0.0
 10
871.0194930340192
 20
698.6246673828405
 30
0.0
 10
871.0165181424317
 20
698.4826162204562
 30
0.0
 10
870.9823217680804
 20
698.2740331875827
 30
0.0
 10
870.9322196762803
 20
698.0714483425909
 30
0.0
 10
870.8567059986791
 20
697.8773657998595
 30
0.0
 10
870.7645387797993
 20
697.6882349137259
 30
0.0
 10
870.6475873561056
 20
697.5090168556438
 30
0.0
 10
870.5120269338479
 20
697.335745087445
 30
0.0
 10
870.3565211854951
 20
697.1730399643476
 30
0.0
 10
870.1863591230573
 20
697.0236772306666
 30
0.0
 10
870.0065106781138
 20
696.8908108044438
 30
0.0
 10
869.8166814828359
 20
696.7800260652546
 30
0.0
 10
869.617901330417
 20
696.6896241405689
 30
0.0
 10
869.4101245608008
 20
696.6189189576518
 30
0.0
 10
869.1934210548934
 20
696.5676895424955
 30
0.0
 10
868.9674336006773
 20
696.5362479175503
 30
0.0
 10
868.8138324999402
 20
696.5329844627742
 30
0.0
 10
868.7357386537604
 20
696.5313252576377
 30
0.0
  0
LINE
  5
E5
330
1F
100
AcDbEntity
  8
0
  6
Continuous
 62
     7
370
    25
100
AcDbLine
 10
865.0722771153
 20
704.7364534628
 30
0.0
 11
865.0722771153
 21
696.7364534628
 31
0.0
  0
LINE
  5
E6
330
1F
100
AcDbEntity
  8
0
  6
Continuous
 62
     7
370
    25
100
AcDbLine
 10
864.3543283974
 20
704.7364534628
 30
0.0
 11
865.0722771153
 21
704.7364534628
 31
0.0
  0
LINE
  5
E7
330
1F
100
AcDbEntity
  8
0
  6
Continuous
 62
     7
370
    25
100
AcDbLine
 10
864.3543283974
 20
696.7364534628
 30
0.0
 11
864.3543283974
 21
704.7364534628
 31
0.0
  0
LINE
  5
E8
330
1F
100
AcDbEntity
  8
0
  6
Continuous
 62
     7
370
    25
100
AcDbLine
 10
865.0722771153
 20
696.7364534628
 30
0.0
 11
864.3543283974
 21
696.7364534628
 31
0.0
  0
SPLINE
  5
E9
330
1F
100
AcDbEntity
  8
0
  6
Continuous
 62
     7
370
    25
100
AcDbSpline
210
0.0
220
0.0
230
1.0
 70
     8
 71
     3
 72
    11
 73
     7
 74
     0
 42
0.00000001
 43
0.00000001
 40
0.0
 40
0.0
 40
0.0
 40
0.0
 40
0.26295162556748
 40
0.5157066923583496
 40
0.7621092269531187
 40
0.9999999999999999
 40
0.9999999999999999
 40
0.9999999999999999
 40
0.9999999999999999
 10
859.9536873717091
 20
697.4672226935351
 30
0.0
 10
859.9977657981299
 20
697.4499439339014
 30
0.0
 10
860.084213407818
 20
697.416056438589
 30
0.0
 10
860.2163850184866
 20
697.3782372424494
 30
0.0
 10
860.3478022458265
 20
697.3575688769176
 30
0.0
 10
860.4349284032362
 20
697.3537258297438
 30
0.0
 10
860.4777258332475
 20
697.3518380781505
 30
0.0
  0
SPLINE
  5
EA
330
1F
100
AcDbEntity
  8
0
  6
Continuous
 62
     7
370
    25
100
AcDbSpline
210
0.0
220
0.0
230
1.0
 70
     8
 71
     3
 72
    11
 73
     7
 74
     0
 42
0.00000001
 43
0.00000001
 40
0.0
 40
0.0
 40
0.0
 40
0.0
 40
0.2991842876765367
 40
0.5648989463568078
 40
0.7985478688426111
 40
1.0
 40
1.0
 40
1.0
 40
1.0
 10
858.9312514742732
 20
698.0697867960993
 30
0.0
 10
859.0288575977532
 20
698.002478461949
 30
0.0
 10
859.2131506859366
 20
697.875391550608
 30
0.0
 10
859.4840179793905
 20
697.7119021781714
 30
0.0
 10
859.7240114719755
 20
697.571730371183
 30
0.0
 10
859.8810010658646
 20
697.5002965904022
 30
0.0
 10
859.9536873717091
 20
697.4672226935351
 30
0.0
  0
LINE
  5
EB
330
1F
100
AcDbEntity
  8
0
  6
Continuous
 62
     7
370
    25
100
AcDbLine
 10
858.5081745512
 20
697.4544021807
 30
0.0
 11
858.9312514743
 21
698.0697867961
 31
0.0
  0
SPLINE
  5
EC
330
1F
100
AcDbEntity
  8
0
  6
Continuous
 62
     7
370
    25
100
AcDbSpline
210
0.0
220
0.0
230
1.0
 70
     8
 71
     3
 72
    15
 73
    11
 74
     0
 42
0.00000001
 43
0.00000001
 40
0.0
 40
0.0
 40
0.0
 40
0.0
 40
0.106070902105127
 40
0.2134216804124516
 40
0.3216854881303218
 40
0.433857939098156
 40
0.5540812827743539
 40
0.6875870439665607
 40
0.8364658500651146
 40
1.0
 40
1.0
 40
1.0
 40
1.0
 10
860.4376617306834
 20
696.5313252576377
 30
0.0
 10
860.3600426260813
 20
696.5337952213613
 30
0.0
 10
860.2038678466878
 20
696.538764951966
 30
0.0
 10
859.9714319409456
 20
696.579271724651
 30
0.0
 10
859.7396559961298
 20
696.641708395157
 30
0.0
 10
859.5073098273523
 20
696.7331428989255
 30
0.0
 10
859.2698029899852
 20
696.8574985526046
 30
0.0
 10
859.0239187689714
 20
697.0202067047852
 30
0.0
 10
858.7664943324938
 20
697.2209644794076
 30
0.0
 10
858.5969325356784
 20
697.374193612226
 30
0.0
 10
858.5081745511964
 20
697.4544021807146
 30
0.0
  0
SPLINE
  5
ED
330
1F
100
AcDbEntity
  8
0
  6
Continuous
 62
     7
370
    25
100
AcDbSpline
210
0.0
220
0.0
230
1.0
 70
     8
 71
     3
 72
    23
 73
    19
 74
     0
 42
0.00000001
 43
0.00000001
 40
0.0
 40
0.0
 40
0.0
 40
0.0
 40
0.0773606839426995
 40
0.1485419530250462
 40
0.2140077372521345
 40
0.2729945033606898
 40
0.3264091957674697
 40
0.3738804007298096
 40
0.4160199382657584
 40
0.4521255195126324
 40
0.5180017107054554
 40
0.5823669297335154
 40
0.647043782341806
 40
0.713330421064475
 40
0.7809119703509664
 40
0.8503949591306437
 40
0.9229229735922754
 40
1.0
 40
1.0
 40
1.0
 40
1.0
 10
862.3030463460682
 20
699.3342098730224
 30
0.0
 10
862.3023288177668
 20
699.2343123395462
 30
0.0
 10
862.3009510758726
 20
699.0424968853821
 30
0.0
 10
862.293375280363
 20
698.7662136947727
 30
0.0
 10
862.2793559022911
 20
698.5139378405934
 30
0.0
 10
862.2589330166008
 20
698.2850956760385
 30
0.0
 10
862.2316867701468
 20
698.080404121095
 30
0.0
 10
862.2005072773011
 20
697.8982815660897
 30
0.0
 10
862.162763737242
 20
697.7402480064832
 30
0.0
 10
862.1059260999137
 20
697.5627957647965
 30
0.0
 10
862.012728503237
 20
697.3681813539774
 30
0.0
 10
861.8724609874771
 20
697.1579981525927
 30
0.0
 10
861.6982145956265
 20
696.9741503568206
 30
0.0
 10
861.496383662657
 20
696.8144869855847
 30
0.0
 10
861.265204179046
 20
696.6872704571816
 30
0.0
 10
861.009436821048
 20
696.5959443351021
 30
0.0
 10
860.7306560497383
 20
696.5402395199609
 30
0.0
 10
860.5372864215043
 20
696.5343563083103
 30
0.0
 10
860.4376617306834
 20
696.5313252576377
 30
0.0
  0
LINE
  5
EE
330
1F
100
AcDbEntity
  8
0
  6
Continuous
 62
     7
370
    25
100
AcDbLine
 10
862.3030463461
 20
704.7364534628
 30
0.0
 11
862.3030463461
 21
699.334209873
 31
0.0
  0
LINE
  5
EF
330
1F
100
AcDbEntity
  8
0
  6
Continuous
 62
     7
370
    25
100
AcDbLine
 10
861.5850976281
 20
704.7364534628
 30
0.0
 11
862.3030463461
 21
704.7364534628
 31
0.0
  0
LINE
  5
F0
330
1F
100
AcDbEntity
  8
0
  6
Continuous
 62
     7
370
    25
100
AcDbLine
 10
861.5850976281
 20
699.4143380782
 30
0.0
 11
861.5850976281
 21
704.7364534628
 31
0.0
  0
SPLINE
  5
F1
330
1F
100
AcDbEntity
  8
0
  6
Continuous
 62
     7
370
    25
100
AcDbSpline
210
0.0
220
0.0
230
1.0
 70
     8
 71
     3
 72
    23
 73
    19
 74
     0
 42
0.00000001
 43
0.00000001
 40
0.0
 40
0.0
 40
0.0
 40
0.0
 40
0.0623263659914399
 40
0.1231962451944498
 40
0.1840362202545542
 40
0.2469640854288941
 40
0.3106993957895696
 40
0.3732676370734458
 40
0.4365875799673865
 40
0.5021247910366496
 40
0.5390047220341642
 40
0.5832553755259854
 40
0.6344465152828124
 40
0.692676046102112
 40
0.7585704862865248
 40
0.8316586747921119
 40
0.9119171022748336
 40
1.0
 40
1.0
 40
1.0
 40
1.0
 10
860.4777258332475
 20
697.3518380781505
 30
0.0
 10
860.5330007782246
 20
697.3541757579997
 30
0.0
 10
860.6422589640047
 20
697.3587964891346
 30
0.0
 10
860.8010338074519
 20
697.3995948326119
 30
0.0
 10
860.9529378787886
 20
697.4618677537862
 30
0.0
 10
861.0925256677738
 20
697.553047853824
 30
0.0
 10
861.2211779811037
 20
697.6614625297087
 30
0.0
 10
861.3273330110176
 20
697.7925619780889
 30
0.0
 10
861.4158295698404
 20
697.9378556558179
 30
0.0
 10
861.4690860117844
 20
698.0753904074569
 30
0.0
 10
861.5030169192381
 20
698.2008227052241
 30
0.0
 10
861.5245520663401
 20
698.3160984443718
 30
0.0
 10
861.5433832900917
 20
698.4508675380882
 30
0.0
 10
861.5597982658664
 20
698.6052908530828
 30
0.0
 10
861.5694084842879
 20
698.7796775550984
 30
0.0
 10
861.5801908221733
 20
698.97351559608
 30
0.0
 10
861.5840885613497
 20
699.1872936810996
 30
0.0
 10
861.5847510090517
 20
699.3363472854877
 30
0.0
 10
861.5850976281195
 20
699.4143380781504
 30
0.0
  0
SPLINE
  5
F2
330
1F
100
AcDbEntity
  8
0
  6
Continuous
 62
     7
370
    25
100
AcDbSpline
210
0.0
220
0.0
230
1.0
 70
     8
 71
     3
 72
    31
 73
    27
 74
     0
 42
0.00000001
 43
0.00000001
 40
0.0
 40
0.0
 40
0.0
 40
0.0
 40
0.03378811616271
 40
0.0671939323738809
 40
0.0998624108568255
 40
0.1325666121262573
 40
0.1651511732547858
 40
0.197913187355793
 40
0.2313190035669623
 40
0.2650832782673742
 40
0.2992553087581152
 40
0.3343985665049789
 40
0.3699428235093068
 40
0.4062835607000605
 40
0.4440638196985093
 40
0.4829977068727742
 40
0.5233544466133043
 40
0.5655365896041497
 40
0.6096129240658182
 40
0.6563908113764166
 40
0.705885494936456
 40
0.7583245002617314
 40
0.81383178294115
 40
0.872794559039389
 40
0.9347222295400733
 40
1.0
 40
1.0
 40
1.0
 40
1.0
 10
873.2854181409399
 20
719.2749150012274
 30
0.0
 10
873.3490420917612
 20
719.2737999951116
 30
0.0
 10
873.4755701120941
 20
719.271582598759
 30
0.0
 10
873.6626338269419
 20
719.2502707301085
 30
0.0
 10
873.8453759565754
 20
719.2149081630298
 30
0.0
 10
874.0230174164691
 20
719.1648030782693
 30
0.0
 10
874.1970173855383
 20
719.1026415316193
 30
0.0
 10
874.3660148887284
 20
719.024728121084
 30
0.0
 10
874.5310596467673
 20
718.9340335671538
 30
0.0
 10
874.6895288753842
 20
718.8274647047386
 30
0.0
 10
874.8431622818895
 20
718.7086480734318
 30
0.0
 10
874.9881861972544
 20
718.5743334018813
 30
0.0
 10
875.1246138221629
 20
718.4258769006958
 30
0.0
 10
875.2541573773314
 20
718.2648669260979
 30
0.0
 10
875.3731415995011
 20
718.0882153036212
 30
0.0
 10
875.4864523017535
 20
717.8989944811888
 30
0.0
 10
875.5878740981001
 20
717.6938953616601
 30
0.0
 10
875.6855533556512
 20
717.4763400065948
 30
0.0
 10
875.7698664681981
 20
717.2403087864652
 30
0.0
 10
875.845903600249
 20
716.9871321909953
 30
0.0
 10
875.9073412427061
 20
716.713819763902
 30
0.0
 10
875.9585167223361
 20
716.4218054889418
 30
0.0
 10
875.9981621987832
 20
716.1100169558215
 30
0.0
 10
876.0270368092484
 20
715.779122520366
 30
0.0
 10
876.0422895750572
 20
715.4289044846156
 30
0.0
 10
876.0451620349581
 20
715.1894579722107
 30
0.0
 10
876.0466360896578
 20
715.0665816678941
 30
0.0
  0
SPLINE
  5
F3
330
1F
100
AcDbEntity
  8
0
  6
Continuous
 62
     7
370
    25
100
AcDbSpline
210
0.0
220
0.0
230
1.0
 70
     8
 71
     3
 72
    31
 73
    27
 74
     0
 42
0.00000001
 43
0.00000001
 40
0.0
 40
0.0
 40
0.0
 40
0.0
 40
0.0685946222587427
 40
0.1332460424433002
 40
0.1943125864682574
 40
0.2512792231169662
 40
0.3045134392563472
 40
0.3542349066533261
 40
0.4004805887739903
 40
0.4434107549384923
 40
0.4840148686163459
 40
0.5232523007732025
 40
0.5610423727283612
 40
0.5979002393644003
 40
0.6335184888561961
 40
0.6683143511696535
 40
0.7024956712863818
 40
0.7366853535134588
 40
0.7702931693607887
 40
0.8034372550192499
 40
0.8359129516660303
 40
0.8684602457892913
 40
0.9008465382431833
 40
0.9334665246307088
 40
0.9662575752981226
 40
1.0
 40
1.0
 40
1.0
 40
1.0
 10
870.6107386537603
 20
715.0665816678941
 30
0.0
 10
870.6114884095489
 20
715.1948042684295
 30
0.0
 10
870.6129448209748
 20
715.443878518138
 30
0.0
 10
870.6291469259857
 20
715.8068148428621
 30
0.0
 10
870.65606199413
 20
716.1472955034225
 30
0.0
 10
870.6929474177878
 20
716.4653367972247
 30
0.0
 10
870.7378342297275
 20
716.7610208304079
 30
0.0
 10
870.797755341959
 20
717.0335574181481
 30
0.0
 10
870.8658988907932
 20
717.2842079475495
 30
0.0
 10
870.9448759097887
 20
717.5137897726374
 30
0.0
 10
871.0339908561164
 20
717.7253959509737
 30
0.0
 10
871.1309834520525
 20
717.9229392682167
 30
0.0
 10
871.2397029821635
 20
718.1061208278505
 30
0.0
 10
871.353935925997
 20
718.2778643488103
 30
0.0
 10
871.4783063754319
 20
718.4353585083358
 30
0.0
 10
871.609275039357
 20
718.5808274512352
 30
0.0
 10
871.751953613682
 20
718.710909166581
 30
0.0
 10
871.9014919183069
 20
718.8294150006041
 30
0.0
 10
872.0592438369166
 20
718.9332995072828
 30
0.0
 10
872.220712788101
 20
719.024802909833
 30
0.0
 10
872.3870101729145
 20
719.1029740349934
 30
0.0
 10
872.5585900195385
 20
719.1644378883866
 30
0.0
 10
872.7339101518578
 20
719.2152055381525
 30
0.0
 10
872.9135834471521
 20
719.2499231327732
 30
0.0
 10
873.0979065647209
 20
719.2717674950347
 30
0.0
 10
873.222321272831
 20
719.2738558784408
 30
0.0
 10
873.2854181409399
 20
719.2749150012274
 30
0.0
  0
SPLINE
  5
F4
330
1F
100
AcDbEntity
  8
0
  6
Continuous
 62
     7
370
    25
100
AcDbSpline
210
0.0
220
0.0
230
1.0
 70
     8
 71
     3
 72
    31
 73
    27
 74
     0
 42
0.00000001
 43
0.00000001
 40
0.0
 40
0.0
 40
0.0
 40
0.0
 40
0.0337871463469916
 40
0.066621657724293
 40
0.0992848780959716
 40
0.1313611650426511
 40
0.1635851875953437
 40
0.1961039269870691
 40
0.2289022543238179
 40
0.2621580559050077
 40
0.2959912222583163
 40
0.3302178457247996
 40
0.3650598258919535
 40
0.4009507373401083
 40
0.4376203820767383
 40
0.4757075294370924
 40
0.5153806916250494
 40
0.5564135414931647
 40
0.5997648298727319
 40
0.6464241555840873
 40
0.6964314445175676
 40
0.7497815178015582
 40
0.8065733069755329
 40
0.8674355315654003
 40
0.9318867532508747
 40
0.9999999999999999
 40
0.9999999999999999
 40
0.9999999999999999
 40
0.9999999999999999
 10
873.2854181409399
 20
710.864658590971
 30
0.0
 10
873.2223230232593
 20
710.8657245463055
 30
0.0
 10
873.0979117666524
 20
710.8678264021624
 30
0.0
 10
872.913563365648
 20
710.8895720741353
 30
0.0
 10
872.7346320663567
 20
710.924533224335
 30
0.0
 10
872.5602349142707
 20
710.9734854622576
 30
0.0
 10
872.389477165508
 20
711.0334050881214
 30
0.0
 10
872.2246856531519
 20
711.1114706506426
 30
0.0
 10
872.0640280904304
 20
711.2013770939705
 30
0.0
 10
871.9079331052461
 20
711.3037666286865
 30
0.0
 10
871.7593338800123
 20
711.42107333298
 30
0.0
 10
871.6173942107234
 20
711.550820278549
 30
0.0
 10
871.485679881359
 20
711.6962452186575
 30
0.0
 10
871.3630876628051
 20
711.8550519000465
 30
0.0
 10
871.2465754612149
 20
712.0257793110928
 30
0.0
 10
871.1393997507708
 20
712.2107584494823
 30
0.0
 10
871.0402663700438
 20
712.4092558448872
 30
0.0
 10
870.9496526770872
 20
712.6225539264302
 30
0.0
 10
870.8693128747674
 20
712.8537651901098
 30
0.0
 10
870.798346684794
 20
713.1055347409726
 30
0.0
 10
870.7423143248623
 20
713.3800847663761
 30
0.0
 10
870.6943532841015
 20
713.6752101769027
 30
0.0
 10
870.655668980002
 20
713.9921791606417
 30
0.0
 10
870.62925909356
 20
714.3311637964975
 30
0.0
 10
870.6129360877641
 20
714.6919528454716
 30
0.0
 10
870.6114844982324
 20
714.9394266153381
 30
0.0
 10
870.6107386537603
 20
715.0665816678941
 30
0.0
  0
SPLINE
  5
F5
330
1F
100
AcDbEntity
  8
0
  6
Continuous
 62
     7
370
    25
100
AcDbSpline
210
0.0
220
0.0
230
1.0
 70
     8
 71
     3
 72
    31
 73
    27
 74
     0
 42
0.00000001
 43
0.00000001
 40
0.0
 40
0.0
 40
0.0
 40
0.0
 40
0.0650632896172782
 40
0.1267731664665232
 40
0.1855157632260794
 40
0.2407646791677158
 40
0.2929797960235989
 40
0.3422503727797681
 40
0.3889192861856592
 40
0.4327756640583105
 40
0.4746284326311174
 40
0.5147746906379519
 40
0.5536058934984411
 40
0.5914264064311732
 40
0.6280281199460673
 40
0.6638036341103205
 40
0.6989843361316638
 40
0.7335914893067057
 40
0.7676284691511398
 40
0.8012083477865903
 40
0.8342638397266213
 40
0.8669806947287755
 40
0.8997197415181608
 40
0.9327019124985372
 40
0.9661758834327498
 40
0.9999999999999999
 40
0.9999999999999999
 40
0.9999999999999999
 40
0.9999999999999999
 10
876.0466360896578
 20
715.0665816678941
 30
0.0
 10
876.0451467535574
 20
714.9442413068863
 30
0.0
 10
876.0422448429026
 20
714.7058661026375
 30
0.0
 10
876.0272077988622
 20
714.3572238733352
 30
0.0
 10
875.9975880704536
 20
714.0280854886527
 30
0.0
 10
875.960536668605
 20
713.7176615744613
 30
0.0
 10
875.9092201818086
 20
713.427244159986
 30
0.0
 10
875.8461226589485
 20
713.1558282777737
 30
0.0
 10
875.776064778213
 20
712.9022418282528
 30
0.0
 10
875.6895852488191
 20
712.6685622588585
 30
0.0
 10
875.594932196597
 20
712.4515297494534
 30
0.0
 10
875.4919488910532
 20
712.2488619818425
 30
0.0
 10
875.3816178600002
 20
712.058767598575
 30
0.0
 10
875.261415014279
 20
711.8827681770179
 30
0.0
 10
875.1332929269729
 20
711.7196169608515
 30
0.0
 10
874.9945094097318
 20
711.5721938233621
 30
0.0
 10
874.8489766437843
 20
711.4369465731608
 30
0.0
 10
874.6948911218783
 20
711.3165999961043
 30
0.0
 10
874.5339504333476
 20
711.2112632997927
 30
0.0
 10
874.3694725432337
 20
711.1170602131918
 30
0.0
 10
874.1985390955826
 20
711.0410997673637
 30
0.0
 10
874.025023775058
 20
710.9758768165574
 30
0.0
 10
873.8464446525096
 20
710.9260472122462
 30
0.0
 10
873.6630243309337
 20
710.891592685342
 30
0.0
 10
873.475695791668
 20
710.8674284603024
 30
0.0
 10
873.349063642911
 20
710.8655850777303
 30
0.0
 10
873.2854181409399
 20
710.864658590971
 30
0.0
  0
LINE
  5
F6
330
1F
100
AcDbEntity
  8
0
  6
Continuous
 62
     7
370
    25
100
AcDbLine
 10
886.4056104486
 20
718.2492739756
 30
0.0
 11
886.4056104486
 21
715.6851714115
 31
0.0
  0
LINE
  5
F7
330
1F
100
AcDbEntity
  8
0
  6
Continuous
 62
     7
370
    25
100
AcDbLine
 10
886.4056104486
 20
715.6851714115
 30
0.0
 11
886.8879822435
 21
715.6851714115
 31
0.0
  0
SPLINE
  5
F8
330
1F
100
AcDbEntity
  8
0
  6
Continuous
 62
     7
370
    25
100
AcDbSpline
210
0.0
220
0.0
230
1.0
 70
     8
 71
     3
 72
    23
 73
    19
 74
     0
 42
0.00000001
 43
0.00000001
 40
0.0
 40
0.0
 40
0.0
 40
0.0
 40
0.0723010339955039
 40
0.139700331739383
 40
0.2022885114847722
 40
0.2605995332222003
 40
0.313190329155335
 40
0.3617389329854263
 40
0.4057064756322212
 40
0.4455399848948702
 40
0.5188319558616108
 40
0.5897782395835754
 40
0.658867478656148
 40
0.7284304780610651
 40
0.7972827036080993
 40
0.8648153774014437
 40
0.9313637528792686
 40
0.9999999999999999
 40
0.9999999999999999
 40
0.9999999999999999
 40
0.9999999999999999
 10
886.887982243504
 20
715.6851714114838
 30
0.0
 10
886.9584937757702
 20
715.6860855212129
 30
0.0
 10
887.09473642549
 20
715.687851767494
 30
0.0
 10
887.2920390461958
 20
715.6929112350641
 30
0.0
 10
887.4751819449299
 20
715.7070781914458
 30
0.0
 10
887.6438489919561
 20
715.7212410761421
 30
0.0
 10
887.7977745781656
 20
715.744268705088
 30
0.0
 10
887.9366176901704
 20
715.7716792717448
 30
0.0
 10
888.0625573403156
 20
715.800668769108
 30
0.0
 10
888.2077905872561
 20
715.8499704534518
 30
0.0
 10
888.3725287551603
 20
715.9228337110151
 30
0.0
 10
888.5481472789418
 20
716.035912193575
 30
0.0
 10
888.7029689237164
 20
716.1705964294587
 30
0.0
 10
888.8337053527889
 20
716.3260043420415
 30
0.0
 10
888.9407029997116
 20
716.4971270525745
 30
0.0
 10
889.0150200629212
 20
716.6812342078538
 30
0.0
 10
889.0654138553385
 20
716.8737373667922
 30
0.0
 10
889.0699659270122
 20
717.0058933731689
 30
0.0
 10
889.0722771152989
 20
717.0729919243045
 30
0.0
  0
SPLINE
  5
F9
330
1F
100
AcDbEntity
  8
0
  6
Continuous
 62
     7
370
    25
100
AcDbSpline
210
0.0
220
0.0
230
1.0
 70
     8
 71
     3
 72
    23
 73
    19
 74
     0
 42
0.00000001
 43
0.00000001
 40
0.0
 40
0.0
 40
0.0
 40
0.0
 40
0.0570031325129265
 40
0.1118178691207241
 40
0.1644023722182129
 40
0.2158698048987931
 40
0.2668411100818674
 40
0.3174789632053572
 40
0.3699021362727565
 40
0.4234004494436396
 40
0.4797183982994484
 40
0.5392414966442963
 40
0.6024306889434252
 40
0.6710295461473335
 40
0.744484797560847
 40
0.8234539713786809
 40
0.9087403127306636
 40
1.0
 40
1.0
 40
1.0
 40
1.0
 10
889.0722771152989
 20
717.0729919243045
 30
0.0
 10
889.0710744177359
 20
717.117393687764
 30
0.0
 10
889.0687151951325
 20
717.2044925954269
 30
0.0
 10
889.0493933606069
 20
717.3314625477844
 30
0.0
 10
889.0165531904685
 20
717.4508768392409
 30
0.0
 10
888.9743719487768
 20
717.5643719485535
 30
0.0
 10
888.915426374568
 20
717.6683990347713
 30
0.0
 10
888.8460241727348
 20
717.7665549106451
 30
0.0
 10
888.7621711663583
 20
717.855496895781
 30
0.0
 10
888.6667258802875
 20
717.9386271776444
 30
0.0
 10
888.5569918851827
 20
718.0123289554687
 30
0.0
 10
888.4330346467385
 20
718.0768792712939
 30
0.0
 10
888.2931770991573
 20
718.1288581894194
 30
0.0
 10
888.1397762877712
 20
718.1743808236539
 30
0.0
 10
887.9704709449172
 20
718.206354066667
 30
0.0
 10
887.7872148228404
 20
718.2329903813118
 30
0.0
 10
887.5885068936359
 20
718.2465509344651
 30
0.0
 10
887.4510323735772
 20
718.2483460496072
 30
0.0
 10
887.3799694229912
 20
718.2492739755863
 30
0.0
  0
LINE
  5
FA
330
1F
100
AcDbEntity
  8
0
  6
Continuous
 62
     7
370
    25
100
AcDbLine
 10
887.379969423
 20
718.2492739756
 30
0.0
 11
886.4056104486
 21
718.2492739756
 31
0.0
  0
SPLINE
  5
FB
330
1F
100
AcDbEntity
  8
0
  6
Continuous
 62
     7
370
    25
100
AcDbSpline
210
0.0
220
0.0
230
1.0
 70
     8
 71
     3
 72
    15
 73
    11
 74
     0
 42
0.00000001
 43
0.00000001
 40
0.0
 40
0.0
 40
0.0
 40
0.0
 40
0.1105883385953365
 40
0.2245417540535898
 40
0.3425034940501052
 40
0.4643240984173585
 40
0.5907560327017658
 40
0.72222747535551
 40
0.8588428362087218
 40
1.0
 40
1.0
 40
1.0
 40
1.0
 10
868.8719566024783
 20
713.0585688473813
 30
0.0
 10
868.8960749288641
 20
713.1299511090185
 30
0.0
 10
868.945045474767
 20
713.2748877130037
 30
0.0
 10
869.0081581016714
 20
713.4997189177591
 30
0.0
 10
869.0578618712799
 20
713.7356109496171
 30
0.0
 10
869.10257813585
 20
713.9811540735451
 30
0.0
 10
869.1330994064725
 20
714.2381591044274
 30
0.0
 10
869.1576658368342
 20
714.5058308390919
 30
0.0
 10
869.1721359784096
 20
714.78437109563
 30
0.0
 10
869.1739296951441
 20
714.9736167897906
 30
0.0
 10
869.1748412178629
 20
715.0697867960993
 30
0.0
  0
SPLINE
  5
FC
330
1F
100
AcDbEntity
  8
0
  6
Continuous
 62
     7
370
    25
100
AcDbSpline
210
0.0
220
0.0
230
1.0
 70
     8
 71
     3
 72
    27
 73
    23
 74
     0
 42
0.00000001
 43
0.00000001
 40
0.0
 40
0.0
 40
0.0
 40
0.0
 40
0.0729510658758662
 40
0.141583694186547
 40
0.2059264601708674
 40
0.2653013571846062
 40
0.3205972327139287
 40
0.3718165030988098
 40
0.4187897697094514
 40
0.4616987286157636
 40
0.5021335821035655
 40
0.5408043152926482
 40
0.5781805253279672
 40
0.6142968652075134
 40
0.649678243264787
 40
0.6842994600896374
 40
0.71835895277236
 40
0.7520808646475965
 40
0.8176524386023862
 40
0.8797220764054369
 40
0.9399655597309862
 40
1.0
 40
1.0
 40
1.0
 40
1.0
 10
865.174841217863
 20
715.0697867960993
 30
0.0
 10
865.1751142397316
 20
714.9629326274047
 30
0.0
 10
865.1756441215679
 20
714.7555496678638
 30
0.0
 10
865.1894868657445
 20
714.4541936427759
 30
0.0
 10
865.2083445388861
 20
714.1731186054797
 30
0.0
 10
865.2326675038807
 20
713.9119676649877
 30
0.0
 10
865.268788529083
 20
713.671624779251
 30
0.0
 10
865.3092611869521
 20
713.4504369322451
 30
0.0
 10
865.3585139632245
 20
713.2495746759851
 30
0.0
 10
865.4167882897776
 20
713.0676596800889
 30
0.0
 10
865.4831633683914
 20
712.9016046663852
 30
0.0
 10
865.5556339139229
 20
712.747087603237
 30
0.0
 10
865.6334869948485
 20
712.6022831770981
 30
0.0
 10
865.7206164818266
 20
712.468492072243
 30
0.0
 10
865.8155080549215
 20
712.3452779829336
 30
0.0
 10
865.9160183615215
 20
712.2304600804827
 30
0.0
 10
866.0258985540748
 20
712.1280669802869
 30
0.0
 10
866.1779071084594
 20
712.0052627402196
 30
0.0
 10
866.3785847642927
 20
711.8783618631234
 30
0.0
 10
866.6314315191066
 20
711.7678565149367
 30
0.0
 10
866.89124512135
 20
711.6984109002343
 30
0.0
 10
867.0675908358345
 20
711.6895794580512
 30
0.0
 10
867.1556104486322
 20
711.6851714114838
 30
0.0
  0
SPLINE
  5
FD
330
1F
100
AcDbEntity
  8
0
  6
Continuous
 62
     7
370
    25
100
AcDbSpline
210
0.0
220
0.0
230
1.0
 70
     8
 71
     3
 72
    19
 73
    15
 74
     0
 42
0.00000001
 43
0.00000001
 40
0.0
 40
0.0
 40
0.0
 40
0.0
 40
0.1128134007444529
 40
0.2253938839207277
 40
0.339594814562697
 40
0.4596754102248638
 40
0.5217351900879331
 40
0.5839258387389148
 40
0.6481741447653658
 40
0.7138810381130611
 40
0.7810044549073859
 40
0.8514509275565517
 40
0.9240506926641738
 40
1.0
 40
1.0
 40
1.0
 40
1.0
 10
867.1556104486322
 20
711.6851714114838
 30
0.0
 10
867.2441994124167
 20
711.6888234819102
 30
0.0
 10
867.421194436839
 20
711.6961200826006
 30
0.0
 10
867.6797859685976
 20
711.7665171965989
 30
0.0
 10
867.9308265859282
 20
711.8727332868016
 30
0.0
 10
868.127562449423
 20
711.9983275849027
 30
0.0
 10
868.2772368345691
 20
712.117935195077
 30
0.0
 10
868.3844756690968
 20
712.2199115340779
 30
0.0
 10
868.4829032083728
 20
712.3340963736356
 30
0.0
 10
868.5762565223263
 20
712.4572947642982
 30
0.0
 10
868.661877266726
 20
712.5918604424097
 30
0.0
 10
868.7397358671723
 20
712.737146328732
 30
0.0
 10
868.810783518704
 20
712.8935558782457
 30
0.0
 10
868.8512613380188
 20
713.0027438533675
 30
0.0
 10
868.8719566024783
 20
713.0585688473813
 30
0.0
  0
SPLINE
  5
FE
330
1F
100
AcDbEntity
  8
0
  6
Continuous
 62
     7
370
    25
100
AcDbSpline
210
0.0
220
0.0
230
1.0
 70
     8
 71
     3
 72
    27
 73
    23
 74
     0
 42
0.00000001
 43
0.00000001
 40
0.0
 40
0.0
 40
0.0
 40
0.0
 40
0.0656811979906368
 40
0.1284864641740658
 40
0.1881751303280081
 40
0.2451061306699847
 40
0.299448424529477
 40
0.3508229360093832
 40
0.3999416805337767
 40
0.4466717436323713
 40
0.4912545333734988
 40
0.5333763442704379
 40
0.5738527549682246
 40
0.6125263117194542
 40
0.6495971364453295
 40
0.6855320415538516
 40
0.7201057860682001
 40
0.7538376629736525
 40
0.8189254160467149
 40
0.8804934616501638
 40
0.9403113338460577
 40
1.0
 40
1.0
 40
1.0
 40
1.0
 10
869.1748412178629
 20
715.0697867960993
 30
0.0
 10
869.1735836424734
 20
715.1659412475691
 30
0.0
 10
869.171123556175
 20
715.3540399099246
 30
0.0
 10
869.1617201557152
 20
715.6295100371524
 30
0.0
 10
869.1374376997336
 20
715.8911506335162
 30
0.0
 10
869.1104682851862
 20
716.1400888567489
 30
0.0
 10
869.0707032084042
 20
716.3749466915019
 30
0.0
 10
869.0278282212493
 20
716.5976902463735
 30
0.0
 10
868.9702254503002
 20
716.8055600173892
 30
0.0
 10
868.9086945360739
 20
717.0018104898729
 30
0.0
 10
868.8382707748592
 20
717.1842119858746
 30
0.0
 10
868.7607490965562
 20
717.3536149261306
 30
0.0
 10
868.6779565050841
 20
717.5108371541462
 30
0.0
 10
868.5880313840344
 20
717.655447306321
 30
0.0
 10
868.4920412513137
 20
717.7880931186893
 30
0.0
 10
868.3874525674336
 20
717.9061150491056
 30
0.0
 10
868.278414001009
 20
718.0131709762107
 30
0.0
 10
868.1256890048404
 20
718.135371134203
 30
0.0
 10
867.9257477710111
 20
718.2599692953073
 30
0.0
 10
867.6769577199426
 20
718.3746338892738
 30
0.0
 10
867.4180533902257
 20
718.4404814152645
 30
0.0
 10
867.243028352301
 20
718.4497652713517
 30
0.0
 10
867.1556104486322
 20
718.4544021807146
 30
0.0
  0
SPLINE
  5
FF
330
1F
100
AcDbEntity
  8
0
  6
Continuous
 62
     7
370
    25
100
AcDbSpline
210
0.0
220
0.0
230
1.0
 70
     8
 71
     3
 72
    27
 73
    23
 74
     0
 42
0.00000001
 43
0.00000001
 40
0.0
 40
0.0
 40
0.0
 40
0.0
 40
0.0603866193110625
 40
0.1208832485859977
 40
0.1827546186251421
 40
0.2478110297583517
 40
0.2812991000432508
 40
0.3150876241506589
 40
0.3497023955502773
 40
0.3848565811185574
 40
0.4209661972261038
 40
0.4585111882611408
 40
0.4971747221273141
 40
0.5376020478662712
 40
0.5805030184200142
 40
0.627467540026707
 40
0.6783882095592457
 40
0.7339832205925616
 40
0.7937467045508355
 40
0.8577136721607321
 40
0.9266978643613875
 40
1.0
 40
1.0
 40
1.0
 40
1.0
 10
867.1556104486322
 20
718.4544021807146
 30
0.0
 10
867.067129095291
 20
718.4497588740924
 30
0.0
 10
866.890005196765
 20
718.4404638018547
 30
0.0
 10
866.6284098716752
 20
718.3748792222168
 30
0.0
 10
866.3776570679214
 20
718.2605638715022
 30
0.0
 10
866.1782445543697
 20
718.1349584487252
 30
0.0
 10
866.0254130423524
 20
718.0153280225728
 30
0.0
 10
865.9177954574913
 20
717.9115875561536
 30
0.0
 10
865.8168899209936
 20
717.798110403319
 30
0.0
 10
865.7239351778219
 20
717.6737631693752
 30
0.0
 10
865.6368739590968
 20
717.5401280440744
 30
0.0
 10
865.5569173589237
 20
717.3961537247025
 30
0.0
 10
865.4848777482356
 20
717.2411106064728
 30
0.0
 10
865.4183988083952
 20
717.0751301826579
 30
0.0
 10
865.3599467214781
 20
716.8932308810909
 30
0.0
 10
865.311731948381
 20
716.6926160385916
 30
0.0
 10
865.2671901126783
 20
716.4721317145021
 30
0.0
 10
865.2356580694772
 20
716.230487124913
 30
0.0
 10
865.207626627736
 20
715.9692707743548
 30
0.0
 10
865.1896121181309
 20
715.6874940469734
 30
0.0
 10
865.1755978153441
 20
715.3856326060538
 30
0.0
 10
865.1750984682292
 20
715.1771773866192
 30
0.0
 10
865.1748412178629
 20
715.0697867960993
 30
0.0
  0
SPLINE
  5
100
330
1F
100
AcDbEntity
  8
0
  6
Continuous
 62
     7
370
    25
100
AcDbSpline
210
0.0
220
0.0
230
1.0
 70
     8
 71
     3
 72
    27
 73
    23
 74
     0
 42
0.00000001
 43
0.00000001
 40
0.0
 40
0.0
 40
0.0
 40
0.0
 40
0.0729510658758663
 40
0.1415836941865439
 40
0.2059264601708678
 40
0.2653013571846064
 40
0.3205972327139289
 40
0.3718165030988101
 40
0.4187897697094518
 40
0.4616987286157651
 40
0.5021335821035658
 40
0.5408043152926497
 40
0.5781805253279673
 40
0.6142968652075135
 40
0.6496782432647892
 40
0.6842994600896396
 40
0.71835895277236
 40
0.7520808646475965
 40
0.8176524386023847
 40
0.8797220764054366
 40
0.9399655597309861
 40
1.0
 40
1.0
 40
1.0
 40
1.0
 10
878.8158668588886
 20
700.7364534627659
 30
0.0
 10
878.8161398807572
 20
700.6295992940713
 30
0.0
 10
878.8166697625935
 20
700.4222163345304
 30
0.0
 10
878.8305125067701
 20
700.1208603094425
 30
0.0
 10
878.8493701799117
 20
699.8397852721462
 30
0.0
 10
878.8736931449064
 20
699.5786343316545
 30
0.0
 10
878.9098141701087
 20
699.3382914459178
 30
0.0
 10
878.9502868279777
 20
699.1171035989117
 30
0.0
 10
878.9995396042501
 20
698.9162413426516
 30
0.0
 10
879.0578139308034
 20
698.7343263467556
 30
0.0
 10
879.124189009417
 20
698.5682713330518
 30
0.0
 10
879.1966595549485
 20
698.4137542699037
 30
0.0
 10
879.2745126358741
 20
698.2689498437647
 30
0.0
 10
879.3616421228522
 20
698.1351587389096
 30
0.0
 10
879.4565336959471
 20
698.0119446496003
 30
0.0
 10
879.5570440025472
 20
697.8971267471493
 30
0.0
 10
879.6669241951006
 20
697.7947336469537
 30
0.0
 10
879.8189327494849
 20
697.6719294068862
 30
0.0
 10
880.0196104053183
 20
697.5450285297901
 30
0.0
 10
880.2724571601323
 20
697.4345231816035
 30
0.0
 10
880.5322707623757
 20
697.365077566901
 30
0.0
 10
880.70861647686
 20
697.3562461247179
 30
0.0
 10
880.7966360896579
 20
697.3518380781505
 30
0.0
  0
SPLINE
  5
101
330
1F
100
AcDbEntity
  8
0
  6
Continuous
 62
     7
370
    25
100
AcDbSpline
210
0.0
220
0.0
230
1.0
 70
     8
 71
     3
 72
    19
 73
    15
 74
     0
 42
0.00000001
 43
0.00000001
 40
0.0
 40
0.0
 40
0.0
 40
0.0
 40
0.1128134007444588
 40
0.225393883920728
 40
0.3395948145626995
 40
0.4596754102248632
 40
0.5217351900879325
 40
0.5839258387389142
 40
0.6481741447653692
 40
0.7138810381130656
 40
0.7810044549073887
 40
0.8514509275565516
 40
0.9240506926641737
 40
1.0
 40
1.0
 40
1.0
 40
1.0
 10
880.7966360896579
 20
697.3518380781505
 30
0.0
 10
880.8852250534425
 20
697.3554901485769
 30
0.0
 10
881.0622200778646
 20
697.3627867492673
 30
0.0
 10
881.3208116096231
 20
697.4331838632655
 30
0.0
 10
881.571852226954
 20
697.5393999534682
 30
0.0
 10
881.7685880904486
 20
697.6649942515694
 30
0.0
 10
881.9182624755947
 20
697.7846018617437
 30
0.0
 10
882.0255013101224
 20
697.8865782007447
 30
0.0
 10
882.1239288493985
 20
698.0007630403021
 30
0.0
 10
882.2172821633519
 20
698.1239614309649
 30
0.0
 10
882.3029029077517
 20
698.2585271090763
 30
0.0
 10
882.3807615081978
 20
698.4038129953987
 30
0.0
 10
882.4518091597297
 20
698.5602225449122
 30
0.0
 10
882.4922869790445
 20
698.6694105200341
 30
0.0
 10
882.5129822435041
 20
698.725235514048
 30
0.0
  0
SPLINE
  5
102
330
1F
100
AcDbEntity
  8
0
  6
Continuous
 62
     7
370
    25
100
AcDbSpline
210
0.0
220
0.0
230
1.0
 70
     8
 71
     3
 72
    15
 73
    11
 74
     0
 42
0.00000001
 43
0.00000001
 40
0.0
 40
0.0
 40
0.0
 40
0.0
 40
0.1105883385953363
 40
0.2245417540535978
 40
0.342503494050105
 40
0.4643240984173593
 40
0.5907560327017657
 40
0.7222274753555102
 40
0.8588428362087218
 40
0.9999999999999999
 40
0.9999999999999999
 40
0.9999999999999999
 40
0.9999999999999999
 10
882.5129822435041
 20
698.725235514048
 30
0.0
 10
882.5371005698897
 20
698.7966177756853
 30
0.0
 10
882.5860711157926
 20
698.9415543796703
 30
0.0
 10
882.6491837426971
 20
699.1663855844257
 30
0.0
 10
882.6988875123055
 20
699.4022776162839
 30
0.0
 10
882.7436037768757
 20
699.6478207402118
 30
0.0
 10
882.7741250474982
 20
699.9048257710939
 30
0.0
 10
882.7986914778598
 20
700.1724975057587
 30
0.0
 10
882.8131616194353
 20
700.4510377622967
 30
0.0
 10
882.8149553361698
 20
700.6402834564573
 30
0.0
 10
882.8158668588886
 20
700.7364534627659
 30
0.0
  0
SPLINE
  5
103
330
1F
100
AcDbEntity
  8
0
  6
Continuous
 62
     7
370
    25
100
AcDbSpline
210
0.0
220
0.0
230
1.0
 70
     8
 71
     3
 72
    27
 73
    23
 74
     0
 42
0.00000001
 43
0.00000001
 40
0.0
 40
0.0
 40
0.0
 40
0.0
 40
0.0656811979906398
 40
0.1284864641740655
 40
0.1881751303280078
 40
0.2451061306699875
 40
0.2994484245294759
 40
0.3508229360093827
 40
0.399941680533779
 40
0.4466717436323726
 40
0.4912545333734972
 40
0.5333763442704375
 40
0.5738527549682226
 40
0.612526311719452
 40
0.6495971364453272
 40
0.6855320415538493
 40
0.7201057860682
 40
0.7538376629736498
 40
0.818925416046712
 40
0.8804934616501638
 40
0.9403113338460576
 40
1.0
 40
1.0
 40
1.0
 40
1.0
 10
882.8158668588886
 20
700.7364534627659
 30
0.0
 10
882.8146092834991
 20
700.8326079142357
 30
0.0
 10
882.8121491972006
 20
701.0207065765914
 30
0.0
 10
882.8027457967409
 20
701.296176703819
 30
0.0
 10
882.7784633407592
 20
701.5578173001828
 30
0.0
 10
882.7514939262118
 20
701.8067555234155
 30
0.0
 10
882.71172884943
 20
702.0416133581687
 30
0.0
 10
882.6688538622749
 20
702.2643569130403
 30
0.0
 10
882.6112510913258
 20
702.4722266840558
 30
0.0
 10
882.5497201770995
 20
702.6684771565396
 30
0.0
 10
882.4792964158848
 20
702.8508786525414
 30
0.0
 10
882.4017747375818
 20
703.0202815927972
 30
0.0
 10
882.3189821461099
 20
703.1775038208128
 30
0.0
 10
882.22905702506
 20
703.3221139729877
 30
0.0
 10
882.1330668923393
 20
703.454759785356
 30
0.0
 10
882.0284782084593
 20
703.5727817157722
 30
0.0
 10
881.9194396420345
 20
703.6798376428775
 30
0.0
 10
881.766714645866
 20
703.8020378008697
 30
0.0
 10
881.5667734120367
 20
703.9266359619741
 30
0.0
 10
881.3179833609682
 20
704.0413005559406
 30
0.0
 10
881.0590790312514
 20
704.1071480819311
 30
0.0
 10
880.8840539933267
 20
704.1164319380183
 30
0.0
 10
880.7966360896579
 20
704.1210688473813
 30
0.0
  0
SPLINE
  5
104
330
1F
100
AcDbEntity
  8
0
  6
Continuous
 62
     7
370
    25
100
AcDbSpline
210
0.0
220
0.0
230
1.0
 70
     8
 71
     3
 72
    27
 73
    23
 74
     0
 42
0.00000001
 43
0.00000001
 40
0.0
 40
0.0
 40
0.0
 40
0.0
 40
0.0603866193110628
 40
0.1208832485859981
 40
0.1827546186251396
 40
0.247811029758352
 40
0.2812991000432492
 40
0.3150876241506572
 40
0.3497023955502757
 40
0.3848565811185551
 40
0.4209661972261025
 40
0.4585111882611396
 40
0.4971747221273142
 40
0.5376020478662713
 40
0.5805030184200104
 40
0.6274675400267034
 40
0.6783882095592426
 40
0.7339832205925613
 40
0.7937467045508352
 40
0.8577136721607321
 40
0.9266978643613873
 40
1.0
 40
1.0
 40
1.0
 40
1.0
 10
880.7966360896579
 20
704.1210688473813
 30
0.0
 10
880.7081547363166
 20
704.116425540759
 30
0.0
 10
880.5310308377906
 20
704.1071304685214
 30
0.0
 10
880.2694355127009
 20
704.0415458888833
 30
0.0
 10
880.0186827089472
 20
703.9272305381688
 30
0.0
 10
879.8192701953953
 20
703.8016251153919
 30
0.0
 10
879.666438683378
 20
703.6819946892396
 30
0.0
 10
879.5588210985169
 20
703.5782542228202
 30
0.0
 10
879.4579155620193
 20
703.4647770699855
 30
0.0
 10
879.3649608188475
 20
703.340429836042
 30
0.0
 10
879.2778996001224
 20
703.2067947107411
 30
0.0
 10
879.1979429999492
 20
703.062820391369
 30
0.0
 10
879.1259033892612
 20
702.9077772731396
 30
0.0
 10
879.0594244494207
 20
702.7417968493246
 30
0.0
 10
879.0009723625037
 20
702.5598975477576
 30
0.0
 10
878.9527575894066
 20
702.3592827052582
 30
0.0
 10
878.908215753704
 20
702.1387983811687
 30
0.0
 10
878.8766837105028
 20
701.8971537915797
 30
0.0
 10
878.8486522687616
 20
701.6359374410215
 30
0.0
 10
878.8306377591565
 20
701.3541607136401
 30
0.0
 10
878.8166234563697
 20
701.0522992727203
 30
0.0
 10
878.8161241092548
 20
700.8438440532858
 30
0.0
 10
878.8158668588886
 20
700.7364534627659
 30
0.0
  0
LINE
  5
105
330
1F
100
AcDbEntity
  8
0
  6
Continuous
 62
     7
370
    25
100
AcDbLine
 10
886.4056104486
 20
714.864658591
 30
0.0
 11
886.4056104486
 21
711.8902996166
 31
0.0
  0
SPLINE
  5
106
330
1F
100
AcDbEntity
  8
0
  6
Continuous
 62
     7
370
    25
100
AcDbSpline
210
0.0
220
0.0
230
1.0
 70
     8
 71
     3
 72
    23
 73
    19
 74
     0
 42
0.00000001
 43
0.00000001
 40
0.0
 40
0.0
 40
0.0
 40
0.0
 40
0.0725024889330346
 40
0.1397389892678962
 40
0.2017951348259223
 40
0.2598219344148623
 40
0.3122059893845957
 40
0.3607734341243375
 40
0.4045403426007493
 40
0.4436980985527619
 40
0.5168407942439686
 40
0.5878743359442813
 40
0.6579654175616314
 40
0.7289693886473123
 40
0.7993077199548835
 40
0.8666357778344734
 40
0.9331163290572758
 40
0.9999999999999999
 40
0.9999999999999999
 40
0.9999999999999999
 40
0.9999999999999999
 10
887.4280463460681
 20
711.8902996166121
 30
0.0
 10
887.5012324624407
 20
711.8911767535188
 30
0.0
 10
887.6422890534743
 20
711.8928673192721
 30
0.0
 10
887.8459490080364
 20
711.8983863011255
 30
0.0
 10
888.0347103881533
 20
711.9109400741519
 30
0.0
 10
888.2077118412492
 20
711.9307020162404
 30
0.0
 10
888.3668214472622
 20
711.952138471491
 30
0.0
 10
888.5101304827567
 20
711.9809642564549
 30
0.0
 10
888.63880063924
 20
712.0139904519416
 30
0.0
 10
888.7879990569301
 20
712.0650399884788
 30
0.0
 10
888.956007075858
 20
712.1443462077183
 30
0.0
 10
889.1370604618822
 20
712.2639215823885
 30
0.0
 10
889.2980346747829
 20
712.4063748572978
 30
0.0
 10
889.4347324101122
 20
712.5712455182661
 30
0.0
 10
889.5467620982174
 20
712.7505171226737
 30
0.0
 10
889.6282602812655
 20
712.9405636368512
 30
0.0
 10
889.6785250966235
 20
713.1382448423791
 30
0.0
 10
889.6846100550003
 20
713.27302589962
 30
0.0
 10
889.6876617306834
 20
713.3406201294325
 30
0.0
  0
SPLINE
  5
107
330
1F
100
AcDbEntity
  8
0
  6
Continuous
 62
     7
370
    25
100
AcDbSpline
210
0.0
220
0.0
230
1.0
 70
     8
 71
     3
 72
    19
 73
    15
 74
     0
 42
0.00000001
 43
0.00000001
 40
0.0
 40
0.0
 40
0.0
 40
0.0
 40
0.0602873979279693
 40
0.1196023547075219
 40
0.1775033710185432
 40
0.2351426637323312
 40
0.2921325932269362
 40
0.3508712086415666
 40
0.410097862566597
 40
0.4707315215304487
 40
0.5948287040804154
 40
0.7225788240942896
 40
0.8566913895440215
 40
1.0
 40
1.0
 40
1.0
 40
1.0
 10
889.6876617306834
 20
713.3406201294325
 30
0.0
 10
889.6870306350551
 20
713.3828906220384
 30
0.0
 10
889.6857786234276
 20
713.4667497804044
 30
0.0
 10
889.6668972178877
 20
713.5899859385481
 30
0.0
 10
889.6394369440734
 20
713.709359363255
 30
0.0
 10
889.6039365237705
 20
713.8251941986488
 30
0.0
 10
889.5522348847053
 20
713.9353962017295
 30
0.0
 10
889.4918770675233
 20
714.042144909242
 30
0.0
 10
889.4211081494784
 20
714.1455814336392
 30
0.0
 10
889.3108357703524
 20
714.2763522986663
 30
0.0
 10
889.1504426628782
 20
714.4270197567313
 30
0.0
 10
888.9225414618658
 20
714.5745340476265
 30
0.0
 10
888.6634047807931
 20
714.6935004638265
 30
0.0
 10
888.4754562256022
 20
714.7440135526001
 30
0.0
 10
888.3783668588886
 20
714.7701073089198
 30
0.0
  0
SPLINE
  5
108
330
1F
100
AcDbEntity
  8
0
  6
Continuous
 62
     7
370
    25
100
AcDbSpline
210
0.0
220
0.0
230
1.0
 70
     8
 71
     3
 72
    15
 73
    11
 74
     0
 42
0.00000001
 43
0.00000001
 40
0.0
 40
0.0
 40
0.0
 40
0.0
 40
0.0793064855229951
 40
0.1719528189279322
 40
0.277056507391596
 40
0.3947305758644802
 40
0.5261773212767594
 40
0.6713447665976174
 40
0.8292852571892532
 40
1.0
 40
1.0
 40
1.0
 40
1.0
 10
888.3783668588886
 20
714.7701073089198
 30
0.0
 10
888.3394432112262
 20
714.778004643675
 30
0.0
 10
888.2550487144287
 20
714.7951276943843
 30
0.0
 10
888.1174313877342
 20
714.8132024449886
 30
0.0
 10
887.9603208302433
 20
714.8293054390276
 30
0.0
 10
887.7833542537265
 20
714.8412166565448
 30
0.0
 10
887.5863077597525
 20
714.853528756083
 30
0.0
 10
887.3687605170423
 20
714.8583169186484
 30
0.0
 10
887.1316009406786
 20
714.8640295131476
 30
0.0
 10
886.9670469466221
 20
714.8644435342717
 30
0.0
 10
886.8815719870937
 20
714.8646585909711
 30
0.0
  0
LINE
  5
109
330
1F
100
AcDbEntity
  8
0
  6
Continuous
 62
     7
370
    25
100
AcDbLine
 10
886.8815719871
 20
714.864658591
 30
0.0
 11
886.4056104486
 21
714.864658591
 31
0.0
  0
LINE
  5
10A
330
1F
100
AcDbEntity
  8
0
  6
Continuous
 62
     7
370
    25
100
AcDbLine
 10
886.4056104486
 20
711.8902996166
 30
0.0
 11
887.4280463461
 21
711.8902996166
 31
0.0
  0
SPLINE
  5
10B
330
1F
100
AcDbEntity
  8
0
  6
Continuous
 62
     7
370
    25
100
AcDbSpline
210
0.0
220
0.0
230
1.0
 70
     8
 71
     3
 72
    19
 73
    15
 74
     0
 42
0.00000001
 43
0.00000001
 40
0.0
 40
0.0
 40
0.0
 40
0.0
 40
0.1128134007444587
 40
0.2253938839207276
 40
0.3395948145627021
 40
0.4596754102248638
 40
0.521735190087933
 40
0.5839258387389146
 40
0.6481741447653695
 40
0.7138810381130647
 40
0.7810044549073863
 40
0.8514509275565519
 40
0.924050692664174
 40
1.0
 40
1.0
 40
1.0
 40
1.0
 10
873.3094566024783
 20
711.6851714114838
 30
0.0
 10
873.3980455662629
 20
711.6888234819102
 30
0.0
 10
873.5750405906851
 20
711.6961200826006
 30
0.0
 10
873.8336321224435
 20
711.7665171965989
 30
0.0
 10
874.0846727397745
 20
711.8727332868016
 30
0.0
 10
874.281408603269
 20
711.9983275849028
 30
0.0
 10
874.4310829884153
 20
712.117935195077
 30
0.0
 10
874.538321822943
 20
712.219911534078
 30
0.0
 10
874.636749362219
 20
712.3340963736356
 30
0.0
 10
874.7301026761725
 20
712.4572947642982
 30
0.0
 10
874.8157234205721
 20
712.5918604424097
 30
0.0
 10
874.8935820210183
 20
712.737146328732
 30
0.0
 10
874.9646296725501
 20
712.8935558782456
 30
0.0
 10
875.005107491865
 20
713.0027438533675
 30
0.0
 10
875.0258027563244
 20
713.0585688473813
 30
0.0
  0
SPLINE
  5
10C
330
1F
100
AcDbEntity
  8
0
  6
Continuous
 62
     7
370
    25
100
AcDbSpline
210
0.0
220
0.0
230
1.0
 70
     8
 71
     3
 72
    27
 73
    23
 74
     0
 42
0.00000001
 43
0.00000001
 40
0.0
 40
0.0
 40
0.0
 40
0.0
 40
0.0656811979906367
 40
0.1284864641740657
 40
0.1881751303280079
 40
0.2451061306699845
 40
0.2994484245294766
 40
0.3508229360093821
 40
0.3999416805337763
 40
0.4466717436323699
 40
0.4912545333734973
 40
0.5333763442704377
 40
0.5738527549682229
 40
0.6125263117194523
 40
0.6495971364453295
 40
0.6855320415538495
 40
0.7201057860682002
 40
0.7538376629736502
 40
0.818925416046715
 40
0.880493461650164
 40
0.9403113338460578
 40
1.0
 40
1.0
 40
1.0
 40
1.0
 10
875.3286873717091
 20
715.0697867960993
 30
0.0
 10
875.3274297963196
 20
715.1659412475691
 30
0.0
 10
875.3249697100212
 20
715.3540399099246
 30
0.0
 10
875.3155663095614
 20
715.6295100371524
 30
0.0
 10
875.2912838535798
 20
715.8911506335162
 30
0.0
 10
875.2643144390323
 20
716.1400888567489
 30
0.0
 10
875.2245493622504
 20
716.3749466915019
 30
0.0
 10
875.1816743750954
 20
716.5976902463735
 30
0.0
 10
875.1240716041463
 20
716.8055600173891
 30
0.0
 10
875.0625406899201
 20
717.0018104898729
 30
0.0
 10
874.9921169287054
 20
717.1842119858746
 30
0.0
 10
874.9145952504024
 20
717.3536149261306
 30
0.0
 10
874.8318026589303
 20
717.5108371541462
 30
0.0
 10
874.7418775378806
 20
717.655447306321
 30
0.0
 10
874.6458874051599
 20
717.7880931186893
 30
0.0
 10
874.5412987212799
 20
717.9061150491056
 30
0.0
 10
874.4322601548549
 20
718.0131709762107
 30
0.0
 10
874.2795351586867
 20
718.135371134203
 30
0.0
 10
874.0795939248572
 20
718.2599692953073
 30
0.0
 10
873.8308038737888
 20
718.3746338892738
 30
0.0
 10
873.5718995440719
 20
718.4404814152645
 30
0.0
 10
873.3968745061472
 20
718.4497652713517
 30
0.0
 10
873.3094566024783
 20
718.4544021807145
 30
0.0
  0
SPLINE
  5
10D
330
1F
100
AcDbEntity
  8
0
  6
Continuous
 62
     7
370
    25
100
AcDbSpline
210
0.0
220
0.0
230
1.0
 70
     8
 71
     3
 72
    27
 73
    23
 74
     0
 42
0.00000001
 43
0.00000001
 40
0.0
 40
0.0
 40
0.0
 40
0.0
 40
0.0603866193110626
 40
0.1208832485859949
 40
0.1827546186251393
 40
0.2478110297583517
 40
0.2812991000432508
 40
0.3150876241506567
 40
0.3497023955502752
 40
0.3848565811185573
 40
0.420966197226102
 40
0.4585111882611391
 40
0.4971747221273137
 40
0.5376020478662709
 40
0.5805030184200128
 40
0.6274675400267059
 40
0.6783882095592452
 40
0.7339832205925612
 40
0.7937467045508348
 40
0.8577136721607319
 40
0.9266978643613873
 40
1.0
 40
1.0
 40
1.0
 40
1.0
 10
873.3094566024783
 20
718.4544021807146
 30
0.0
 10
873.2209752491372
 20
718.4497588740924
 30
0.0
 10
873.0438513506111
 20
718.4404638018547
 30
0.0
 10
872.7822560255214
 20
718.3748792222168
 30
0.0
 10
872.5315032217675
 20
718.2605638715022
 30
0.0
 10
872.3320907082159
 20
718.1349584487253
 30
0.0
 10
872.1792591961986
 20
718.0153280225728
 30
0.0
 10
872.0716416113373
 20
717.9115875561536
 30
0.0
 10
871.9707360748398
 20
717.798110403319
 30
0.0
 10
871.8777813316681
 20
717.6737631693752
 30
0.0
 10
871.790720112943
 20
717.5401280440744
 30
0.0
 10
871.7107635127699
 20
717.3961537247025
 30
0.0
 10
871.6387239020818
 20
717.2411106064728
 30
0.0
 10
871.5722449622414
 20
717.0751301826579
 30
0.0
 10
871.5137928753243
 20
716.8932308810909
 30
0.0
 10
871.4655781022271
 20
716.6926160385916
 30
0.0
 10
871.4210362665245
 20
716.4721317145021
 30
0.0
 10
871.3895042233232
 20
716.230487124913
 30
0.0
 10
871.3614727815822
 20
715.9692707743548
 30
0.0
 10
871.343458271977
 20
715.6874940469735
 30
0.0
 10
871.3294439691903
 20
715.3856326060538
 30
0.0
 10
871.3289446220754
 20
715.1771773866192
 30
0.0
 10
871.3286873717091
 20
715.0697867960993
 30
0.0
  0
SPLINE
  5
10E
330
1F
100
AcDbEntity
  8
0
  6
Continuous
 62
     7
370
    25
100
AcDbSpline
210
0.0
220
0.0
230
1.0
 70
     8
 71
     3
 72
    27
 73
    23
 74
     0
 42
0.00000001
 43
0.00000001
 40
0.0
 40
0.0
 40
0.0
 40
0.0
 40
0.0729510658758662
 40
0.1415836941865471
 40
0.2059264601708678
 40
0.2653013571846063
 40
0.3205972327139289
 40
0.3718165030988107
 40
0.4187897697094515
 40
0.4616987286157648
 40
0.5021335821035655
 40
0.540804315292648
 40
0.5781805253279672
 40
0.6142968652075151
 40
0.649678243264787
 40
0.6842994600896395
 40
0.7183589527723597
 40
0.7520808646475963
 40
0.8176524386023861
 40
0.8797220764054369
 40
0.9399655597309861
 40
1.0
 40
1.0
 40
1.0
 40
1.0
 10
871.3286873717091
 20
715.0697867960993
 30
0.0
 10
871.3289603935776
 20
714.9629326274047
 30
0.0
 10
871.3294902754141
 20
714.7555496678638
 30
0.0
 10
871.3433330195905
 20
714.4541936427759
 30
0.0
 10
871.3621906927323
 20
714.1731186054797
 30
0.0
 10
871.3865136577269
 20
713.9119676649877
 30
0.0
 10
871.4226346829292
 20
713.6716247792511
 30
0.0
 10
871.4631073407983
 20
713.4504369322451
 30
0.0
 10
871.5123601170707
 20
713.249574675985
 30
0.0
 10
871.5706344436238
 20
713.0676596800889
 30
0.0
 10
871.6370095222375
 20
712.9016046663852
 30
0.0
 10
871.709480067769
 20
712.747087603237
 30
0.0
 10
871.7873331486945
 20
712.6022831770981
 30
0.0
 10
871.8744626356728
 20
712.468492072243
 30
0.0
 10
871.9693542087676
 20
712.3452779829336
 30
0.0
 10
872.0698645153677
 20
712.2304600804827
 30
0.0
 10
872.179744707921
 20
712.1280669802869
 30
0.0
 10
872.3317532623055
 20
712.0052627402196
 30
0.0
 10
872.5324309181389
 20
711.8783618631234
 30
0.0
 10
872.7852776729528
 20
711.7678565149367
 30
0.0
 10
873.0450912751962
 20
711.6984109002344
 30
0.0
 10
873.2214369896806
 20
711.6895794580512
 30
0.0
 10
873.3094566024783
 20
711.6851714114838
 30
0.0
  0
SPLINE
  5
10F
330
1F
100
AcDbEntity
  8
0
  6
Continuous
 62
     7
370
    25
100
AcDbSpline
210
0.0
220
0.0
230
1.0
 70
     8
 71
     3
 72
    15
 73
    11
 74
     0
 42
0.00000001
 43
0.00000001
 40
0.0
 40
0.0
 40
0.0
 40
0.0
 40
0.1105883385953364
 40
0.2245417540535914
 40
0.3425034940501052
 40
0.4643240984173584
 40
0.5907560327017655
 40
0.7222274753555102
 40
0.8588428362087218
 40
1.0
 40
1.0
 40
1.0
 40
1.0
 10
875.0258027563244
 20
713.0585688473813
 30
0.0
 10
875.0499210827103
 20
713.1299511090185
 30
0.0
 10
875.0988916286129
 20
713.2748877130036
 30
0.0
 10
875.1620042555176
 20
713.4997189177591
 30
0.0
 10
875.2117080251261
 20
713.7356109496172
 30
0.0
 10
875.256424289696
 20
713.981154073545
 30
0.0
 10
875.2869455603187
 20
714.2381591044274
 30
0.0
 10
875.3115119906804
 20
714.5058308390919
 30
0.0
 10
875.3259821322557
 20
714.78437109563
 30
0.0
 10
875.3277758489902
 20
714.9736167897906
 30
0.0
 10
875.3286873717091
 20
715.0697867960993
 30
0.0
  0
CIRCLE
  5
110
330
1F
100
AcDbEntity
  8
0
  6
Continuous
 62
     7
370
    25
100
AcDbCircle
 10
951.4872798434
 20
785.6360078278
 30
0.0
 40
70.0
  0
CIRCLE
  5
111
330
1F
100
AcDbEntity
  8
0
  6
Continuous
 62
     7
370
    25
100
AcDbCircle
 10
951.4872798434
 20
785.6360078278
 30
0.0
 40
57.50000000000011
  0
ENDSEC
  0
SECTION
  2
OBJECTS
  0
DICTIONARY
  5
C
330
0
100
AcDbDictionary
281
     1
  3
ACAD_DETAILVIEWSTYLE
350
119
  3
ACAD_GROUP
350
D
  3
ACAD_LAYOUT
350
1A
  3
ACAD_MATERIAL
350
43
  3
ACAD_MLEADERSTYLE
350
5B
  3
ACAD_MLINESTYLE
350
17
  3
ACAD_PLOTSETTINGS
350
19
  3
ACAD_PLOTSTYLENAME
350
E
  3
ACAD_SCALELIST
350
47
  3
ACAD_SECTIONVIEWSTYLE
350
11A
  3
ACAD_TABLESTYLE
350
59
  3
ACAD_VISUALSTYLE
350
2A
  3
ACDB_RECOMPOSE_DATA
350
116
  3
AcDbVariableDictionary
350
112
  0
SUN
  5
5D
330
29
100
AcDbSun
 90
        1
290
     0
 63
     7
421
 16777215
 40
1.0
291
     1
 91
  2455826
 92
 54000000
292
     0
 70
     2
 71
   256
280
     1
  0
DICTIONARY
  5
119
102
{ACAD_REACTORS
330
C
102
}
330
C
100
AcDbDictionary
281
     1
  0
DICTIONARY
  5
D
102
{ACAD_REACTORS
330
C
102
}
330
C
100
AcDbDictionary
281
     1
  0
DICTIONARY
  5
1A
102
{ACAD_REACTORS
330
C
102
}
330
C
100
AcDbDictionary
281
     1
  3
Layout1
350
1E
  3
Layout2
350
26
  3
Model
350
22
  0
DICTIONARY
  5
43
102
{ACAD_REACTORS
330
C
102
}
330
C
100
AcDbDictionary
281
     1
  3
ByBlock
350
45
  3
ByLayer
350
44
  3
Global
350
46
  0
DICTIONARY
  5
5B
102
{ACAD_REACTORS
330
C
102
}
330
C
100
AcDbDictionary
281
     1
  3
Standard
350
5C
  0
DICTIONARY
  5
17
102
{ACAD_REACTORS
330
C
102
}
330
C
100
AcDbDictionary
281
     1
  3
Standard
350
18
  0
DICTIONARY
  5
19
102
{ACAD_REACTORS
330
C
102
}
330
C
100
AcDbDictionary
281
     1
  0
ACDBDICTIONARYWDFLT
  5
E
102
{ACAD_REACTORS
330
C
102
}
330
C
100
AcDbDictionary
281
     1
  3
Normal
350
F
100
AcDbDictionaryWithDefault
340
F
  0
DICTIONARY
  5
47
102
{ACAD_REACTORS
330
C
102
}
330
C
100
AcDbDictionary
281
     1
  3
A0
350
48
  3
A1
350
49
  3
A2
350
4A
  3
A3
350
4B
  3
A4
350
4C
  3
A5
350
4D
  3
A6
350
4E
  3
A7
350
4F
  3
A8
350
50
  3
A9
350
51
  3
B0
350
52
  3
B1
350
53
  3
B2
350
54
  3
B3
350
55
  3
B4
350
56
  3
B5
350
57
  3
B6
350
58
  0
DICTIONARY
  5
11A
102
{ACAD_REACTORS
330
C
102
}
330
C
100
AcDbDictionary
281
     1
  0
DICTIONARY
  5
59
102
{ACAD_REACTORS
330
C
102
}
330
C
100
AcDbDictionary
281
     1
  3
Standard
350
5A
  0
DICTIONARY
  5
2A
102
{ACAD_REACTORS
330
C
102
}
330
C
100
AcDbDictionary
281
     1
  3
2dWireframe
350
2F
  3
Basic
350
32
  3
Brighten
350
36
  3
ColorChange
350
3A
  3
Conceptual
350
34
  3
Dim
350
35
  3
EdgeColorOff
350
3D
  3
Facepattern
350
39
  3
Flat
350
2B
  3
FlatWithEdges
350
2C
  3
Gouraud
350
2D
  3
GouraudWithEdges
350
2E
  3
Hidden
350
31
  3
JitterOff
350
3B
  3
Linepattern
350
38
  3
OverhangOff
350
3C
  3
Realistic
350
33
  3
Shaded
350
42
  3
Shaded with edges
350
41
  3
Shades of Gray
350
3E
  3
Sketchy
350
3F
  3
Thicken
350
37
  3
Wireframe
350
30
  3
X-Ray
350
40
  0
XRECORD
  5
116
102
{ACAD_REACTORS
330
C
102
}
330
C
100
AcDbXrecord
280
     1
 90
        1
330
5A
  0
DICTIONARY
  5
112
102
{ACAD_REACTORS
330
C
102
}
330
C
100
AcDbDictionary
281
     1
  3
CANNOSCALE
350
113
  3
CENTEREXE
350
11B
  3
CENTERLTYPEFILE
350
11C
  3
CMLEADERSTYLE
350
118
  3
CTABLESTYLE
350
117
  0
LAYOUT
  5
1E
102
{ACAD_REACTORS
330
1A
102
}
330
1A
100
AcDbPlotSettings
  1

  2
none_device
  4

  6

 40
0.0
 41
0.0
 42
0.0
 43
0.0
 44
0.0
 45
0.0
 46
0.0
 47
0.0
 48
0.0
 49
0.0
140
0.0
141
0.0
142
1.0
143
1.0
 70
   688
 72
     1
 73
     0
 74
     5
  7

 75
    16
 76
     0
 77
     2
 78
   300
147
1.0
148
0.0
149
0.0
100
AcDbLayout
  1
Layout1
 70
     1
 71
     1
 10
0.0
 20
0.0
 11
420.0
 21
297.0
 12
0.0
 22
0.0
 32
0.0
 14
1.0000000000E+20
 24
1.0000000000E+20
 34
1.0000000000E+20
 15
-1.0000000000E+20
 25
-1.0000000000E+20
 35
-1.0000000000E+20
146
0.0
 13
0.0
 23
0.0
 33
0.0
 16
1.0
 26
0.0
 36
0.0
 17
0.0
 27
1.0
 37
0.0
 76
     0
330
1B
  0
LAYOUT
  5
26
102
{ACAD_REACTORS
330
1A
102
}
330
1A
100
AcDbPlotSettings
  1

  2
none_device
  4

  6

 40
0.0
 41
0.0
 42
0.0
 43
0.0
 44
0.0
 45
0.0
 46
0.0
 47
0.0
 48
0.0
 49
0.0
140
0.0
141
0.0
142
1.0
143
1.0
 70
   688
 72
     1
 73
     0
 74
     5
  7

 75
    16
 76
     0
 77
     2
 78
   300
147
1.0
148
0.0
149
0.0
100
AcDbLayout
  1
Layout2
 70
     1
 71
     2
 10
0.0
 20
0.0
 11
0.0
 21
0.0
 12
0.0
 22
0.0
 32
0.0
 14
0.0
 24
0.0
 34
0.0
 15
0.0
 25
0.0
 35
0.0
146
0.0
 13
0.0
 23
0.0
 33
0.0
 16
1.0
 26
0.0
 36
0.0
 17
0.0
 27
1.0
 37
0.0
 76
     0
330
23
  0
LAYOUT
  5
22
102
{ACAD_REACTORS
330
1A
102
}
330
1A
100
AcDbPlotSettings
  1

  2
none_device
  4
Letter_(8.50_x_11.00_Inches)
  6

 40
6.35
 41
6.35
 42
6.35000508
 43
6.35000508
 44
215.9
 45
279.4
 46
0.0
 47
0.0
 48
0.0
 49
0.0
140
0.0
141
0.0
142
1.0
143
1.0
 70
  1712
 72
     1
 73
     0
 74
     0
  7

 75
     0
 76
     0
 77
     2
 78
   300
147
1.0
148
0.0
149
0.0
100
AcDbLayout
  1
Model
 70
     1
 71
     0
 10
0.0
 20
0.0
 11
420.0
 21
297.0
 12
0.0
 22
0.0
 32
0.0
 14
0.0
 24
0.0
 34
0.0
 15
420.0
 25
297.0
 35
0.0
146
0.0
 13
0.0
 23
0.0
 33
0.0
 16
1.0
 26
0.0
 36
0.0
 17
0.0
 27
1.0
 37
0.0
 76
     0
330
1F
331
29
  0
MATERIAL
  5
45
102
{ACAD_REACTORS
330
43
102
}
330
43
100
AcDbMaterial
  1
ByBlock
 72
     1
 94
      127
  0
MATERIAL
  5
44
102
{ACAD_REACTORS
330
43
102
}
330
43
100
AcDbMaterial
  1
ByLayer
 72
     1
 94
      127
  0
MATERIAL
  5
46
102
{ACAD_REACTORS
330
43
102
}
330
43
100
AcDbMaterial
  1
Global
 72
     1
 94
      127
  0
MLEADERSTYLE
  5
5C
102
{ACAD_REACTORS
330
5B
102
}
330
5B
100
AcDbMLeaderStyle
179
     2
170
     2
171
     1
172
     0
 90
        2
 40
0.0
 41
0.0
173
     1
 91
-1056964608
340
14
 92
       -2
290
     1
 42
2.0
291
     1
 43
8.0
  3
Standard
341
0
 44
4.0
300

342
11
174
     1
178
     6
175
     1
176
     0
 93
-1056964608
 45
4.0
292
     0
297
     0
 46
4.0
343
0
 94
-1056964608
 47
1.0
 49
1.0
140
1.0
293
     1
141
0.0
294
     1
177
     0
142
1.0
295
     0
296
     0
143
3.75
271
     0
272
     9
273
     9
298
     0
  0
MLINESTYLE
  5
18
102
{ACAD_REACTORS
330
17
102
}
330
17
100
AcDbMlineStyle
  2
Standard
 70
     0
  3

 62
   256
 51
90.0
 52
90.0
 71
     2
 49
0.5
 62
   256
  6
BYLAYER
 49
-0.5
 62
   256
  6
BYLAYER
  0
ACDBPLACEHOLDER
  5
F
102
{ACAD_REACTORS
330
E
102
}
330
E
  0
SCALE
  5
48
102
{ACAD_REACTORS
330
47
102
}
330
47
100
AcDbScale
 70
     0
300
1:1
140
1.0
141
1.0
290
     1
  0
SCALE
  5
49
102
{ACAD_REACTORS
330
47
102
}
330
47
100
AcDbScale
 70
     0
300
1:2
140
1.0
141
2.0
290
     0
  0
SCALE
  5
4A
102
{ACAD_REACTORS
330
47
102
}
330
47
100
AcDbScale
 70
     0
300
1:4
140
1.0
141
4.0
290
     0
  0
SCALE
  5
4B
102
{ACAD_REACTORS
330
47
102
}
330
47
100
AcDbScale
 70
     0
300
1:5
140
1.0
141
5.0
290
     0
  0
SCALE
  5
4C
102
{ACAD_REACTORS
330
47
102
}
330
47
100
AcDbScale
 70
     0
300
1:8
140
1.0
141
8.0
290
     0
  0
SCALE
  5
4D
102
{ACAD_REACTORS
330
47
102
}
330
47
100
AcDbScale
 70
     0
300
1:10
140
1.0
141
10.0
290
     0
  0
SCALE
  5
4E
102
{ACAD_REACTORS
330
47
102
}
330
47
100
AcDbScale
 70
     0
300
1:16
140
1.0
141
16.0
290
     0
  0
SCALE
  5
4F
102
{ACAD_REACTORS
330
47
102
}
330
47
100
AcDbScale
 70
     0
300
1:20
140
1.0
141
20.0
290
     0
  0
SCALE
  5
50
102
{ACAD_REACTORS
330
47
102
}
330
47
100
AcDbScale
 70
     0
300
1:30
140
1.0
141
30.0
290
     0
  0
SCALE
  5
51
102
{ACAD_REACTORS
330
47
102
}
330
47
100
AcDbScale
 70
     0
300
1:40
140
1.0
141
40.0
290
     0
  0
SCALE
  5
52
102
{ACAD_REACTORS
330
47
102
}
330
47
100
AcDbScale
 70
     0
300
1:50
140
1.0
141
50.0
290
     0
  0
SCALE
  5
53
102
{ACAD_REACTORS
330
47
102
}
330
47
100
AcDbScale
 70
     0
300
1:100
140
1.0
141
100.0
290
     0
  0
SCALE
  5
54
102
{ACAD_REACTORS
330
47
102
}
330
47
100
AcDbScale
 70
     0
300
2:1
140
2.0
141
1.0
290
     0
  0
SCALE
  5
55
102
{ACAD_REACTORS
330
47
102
}
330
47
100
AcDbScale
 70
     0
300
4:1
140
4.0
141
1.0
290
     0
  0
SCALE
  5
56
102
{ACAD_REACTORS
330
47
102
}
330
47
100
AcDbScale
 70
     0
300
8:1
140
8.0
141
1.0
290
     0
  0
SCALE
  5
57
102
{ACAD_REACTORS
330
47
102
}
330
47
100
AcDbScale
 70
     0
300
10:1
140
10.0
141
1.0
290
     0
  0
SCALE
  5
58
102
{ACAD_REACTORS
330
47
102
}
330
47
100
AcDbScale
 70
     0
300
100:1
140
100.0
141
1.0
290
     0
  0
TABLESTYLE
  5
5A
102
{ACAD_REACTORS
330
59
102
}
102
{ACAD_XDICTIONARY
360
114
102
}
330
59
100
AcDbTableStyle
  3
Standard
 70
     0
 71
     0
 40
0.06
 41
0.06
280
     0
281
     0
  7
Standard
140
4.5
170
     2
 62
     0
 63
   257
283
     0
 90
        4
 91
        0
  1

274
    -2
284
     1
 64
     0
275
    -2
285
     1
 65
     0
276
    -2
286
     1
 66
     0
277
    -2
287
     1
 67
     0
278
    -2
288
     1
 68
     0
279
    -2
289
     1
 69
     0
  7
Standard
140
6.0
170
     5
 62
     0
 63
   257
283
     0
 90
        4
 91
        0
  1

274
    -2
284
     1
 64
     0
275
    -2
285
     1
 65
     0
276
    -2
286
     1
 66
     0
277
    -2
287
     1
 67
     0
278
    -2
288
     1
 68
     0
279
    -2
289
     1
 69
     0
  7
Standard
140
4.5
170
     5
 62
     0
 63
   257
283
     0
 90
        4
 91
        0
  1

274
    -2
284
     1
 64
     0
275
    -2
285
     1
 65
     0
276
    -2
286
     1
 66
     0
277
    -2
287
     1
 67
     0
278
    -2
288
     1
 68
     0
279
    -2
289
     1
 69
     0
  0
VISUALSTYLE
  5
2F
102
{ACAD_REACTORS
330
2A
102
}
330
2A
100
AcDbVisualStyle
  2
2dWireframe
 70
     4
177
     3
291
     0
 70
    58
 90
        0
176
     1
 90
        2
176
     1
 90
        0
176
     1
 90
        0
176
     1
 40
0.6
176
     1
 40
30.0
176
     1
 62
     7
420
 16777215
176
     1
 90
        1
176
     1
 90
        4
176
     1
 62
     7
176
     1
 62
   257
176
     1
 90
        1
176
     1
 90
        1
176
     1
 40
1.0
176
     1
 90
        0
176
     1
 62
   257
176
     1
 40
1.0
176
     1
 90
        1
176
     1
 90
        6
176
     1
 90
        2
176
     1
 62
     7
176
     1
 90
        5
176
     1
 90
        0
176
     1
 90
        0
176
     1
290
     0
176
     1
 90
        1
176
     1
 40
0.0
176
     1
 90
        0
176
     1
290
     1
176
     1
290
     1
176
     1
290
     0
176
     1
290
     0
176
     1
290
     0
176
     1
290
     0
176
     1
290
     0
176
     1
290
     0
176
     1
290
     0
176
     1
 90
       50
176
     1
 40
0.0
176
     1
 40
1.0
176
     1
 90
        0
176
     1
 62
    18
420
        0
176
     1
 90
       50
176
     1
 90
        3
176
     1
 62
     5
420
      255
176
     1
290
     0
176
     1
 90
       50
176
     1
 90
       50
176
     1
 90
       50
176
     1
290
     0
176
     1
 90
       50
176
     1
 62
   256
176
     0
 40
1.0
176
     0
 90
        2
176
     1
  1
strokes_ogs.tif
176
     1
290
     0
176
     1
 40
1.0
176
     1
 40
1.0
176
     1
  0
VISUALSTYLE
  5
32
102
{ACAD_REACTORS
330
2A
102
}
330
2A
100
AcDbVisualStyle
  2
Basic
 70
     7
177
     3
291
     1
 70
    58
 90
        1
176
     1
 90
        0
176
     1
 90
        1
176
     1
 90
        0
176
     1
 40
0.6
176
     1
 40
30.0
176
     1
 62
     7
420
 16777215
176
     1
 90
        0
176
     1
 90
        4
176
     1
 62
     7
176
     1
 62
   257
176
     1
 90
        1
176
     1
 90
        1
176
     1
 40
1.0
176
     1
 90
        8
176
     1
 62
     7
176
     1
 40
1.0
176
     1
 90
        1
176
     1
 90
        6
176
     1
 90
        2
176
     1
 62
     7
176
     1
 90
        5
176
     1
 90
        0
176
     1
 90
        0
176
     1
290
     0
176
     1
 90
        1
176
     1
 40
0.0
176
     1
 90
        0
176
     1
290
     0
176
     1
290
     1
176
     1
290
     1
176
     1
290
     0
176
     1
290
     0
176
     1
290
     0
176
     1
290
     0
176
     1
290
     0
176
     1
290
     0
176
     1
 90
       50
176
     1
 40
0.0
176
     1
 40
1.0
176
     1
 90
        0
176
     1
 62
    18
420
        0
176
     1
 90
       50
176
     1
 90
        3
176
     1
 62
     5
420
      255
176
     1
290
     0
176
     1
 90
       50
176
     1
 90
       50
176
     1
 90
       50
176
     1
290
     0
176
     1
 90
       50
176
     1
 62
   256
176
     0
 40
1.0
176
     0
 90
        2
176
     1
  1
strokes_ogs.tif
176
     1
290
     0
176
     1
 40
1.0
176
     1
 40
1.0
176
     1
  0
VISUALSTYLE
  5
36
102
{ACAD_REACTORS
330
2A
102
}
330
2A
100
AcDbVisualStyle
  2
Brighten
 70
    12
177
     3
291
     1
 70
    58
 90
        2
176
     1
 90
        2
176
     1
 90
        0
176
     1
 90
        0
176
     1
 40
0.6
176
     1
 40
30.0
176
     1
 62
     7
420
 16777215
176
     1
 90
        1
176
     1
 90
        4
176
     1
 62
     7
176
     1
 62
   257
176
     1
 90
        1
176
     1
 90
        1
176
     1
 40
1.0
176
     1
 90
        8
176
     1
 62
     7
176
     1
 40
1.0
176
     1
 90
        1
176
     1
 90
        6
176
     1
 90
        2
176
     1
 62
     7
176
     1
 90
        5
176
     1
 90
        0
176
     1
 90
        0
176
     1
290
     0
176
     1
 90
        1
176
     1
 40
50.0
176
     1
 90
        0
176
     1
290
     0
176
     1
290
     1
176
     1
290
     1
176
     1
290
     0
176
     1
290
     0
176
     1
290
     0
176
     1
290
     0
176
     1
290
     0
176
     1
290
     0
176
     1
 90
       50
176
     1
 40
0.0
176
     1
 40
1.0
176
     1
 90
        0
176
     1
 62
    18
420
        0
176
     1
 90
       50
176
     1
 90
        3
176
     1
 62
     5
420
      255
176
     1
290
     0
176
     1
 90
       50
176
     1
 90
       50
176
     1
 90
       50
176
     1
290
     0
176
     1
 90
       50
176
     1
 62
   256
176
     0
 40
1.0
176
     0
 90
        2
176
     1
  1
strokes_ogs.tif
176
     1
290
     0
176
     1
 40
1.0
176
     1
 40
1.0
176
     1
  0
VISUALSTYLE
  5
3A
102
{ACAD_REACTORS
330
2A
102
}
330
2A
100
AcDbVisualStyle
  2
ColorChange
 70
    16
177
     3
291
     1
 70
    58
 90
        2
176
     1
 90
        2
176
     1
 90
        3
176
     1
 90
        0
176
     1
 40
0.6
176
     1
 40
30.0
176
     1
 62
     8
420
  8421504
176
     1
 90
        1
176
     1
 90
        4
176
     1
 62
     7
176
     1
 62
   257
176
     1
 90
        1
176
     1
 90
        1
176
     1
 40
1.0
176
     1
 90
        8
176
     1
 62
     8
420
  8421504
176
     1
 40
1.0
176
     1
 90
        1
176
     1
 90
        6
176
     1
 90
        2
176
     1
 62
     7
176
     1
 90
        5
176
     1
 90
        0
176
     1
 90
        0
176
     1
290
     0
176
     1
 90
        1
176
     1
 40
0.0
176
     1
 90
        0
176
     1
290
     0
176
     1
290
     1
176
     1
290
     1
176
     1
290
     0
176
     1
290
     0
176
     1
290
     0
176
     1
290
     0
176
     1
290
     0
176
     1
290
     0
176
     1
 90
       50
176
     1
 40
0.0
176
     1
 40
1.0
176
     1
 90
        0
176
     1
 62
    18
420
        0
176
     1
 90
       50
176
     1
 90
        3
176
     1
 62
     5
420
      255
176
     1
290
     0
176
     1
 90
       50
176
     1
 90
       50
176
     1
 90
       50
176
     1
290
     0
176
     1
 90
       50
176
     1
 62
   256
176
     0
 40
1.0
176
     0
 90
        2
176
     1
  1
strokes_ogs.tif
176
     1
290
     0
176
     1
 40
1.0
176
     1
 40
1.0
176
     1
  0
VISUALSTYLE
  5
34
102
{ACAD_REACTORS
330
2A
102
}
330
2A
100
AcDbVisualStyle
  2
Conceptual
 70
     9
177
     3
291
     0
 70
    58
 90
        3
176
     1
 90
        2
176
     1
 90
        0
176
     1
 90
        0
176
     1
 40
0.6
176
     1
 40
30.0
176
     1
 62
     7
420
 16777215
176
     1
 90
        2
176
     1
 90
        2
176
     1
 62
     7
176
     1
 62
   257
176
     1
 90
        1
176
     1
 90
        1
176
     1
 40
179.0
176
     1
 90
        8
176
     1
 62
     7
176
     1
 40
1.0
176
     1
 90
        1
176
     1
 90
        6
176
     1
 90
        2
176
     1
 62
     7
176
     1
 90
        3
176
     1
 90
        0
176
     1
 90
        0
176
     1
290
     0
176
     1
 90
        1
176
     1
 40
0.0
176
     1
 90
        0
176
     1
290
     0
176
     1
290
     1
176
     1
290
     1
176
     1
290
     0
176
     1
290
     0
176
     1
290
     0
176
     1
290
     0
176
     1
290
     0
176
     1
290
     0
176
     1
 90
       50
176
     1
 40
0.0
176
     1
 40
1.0
176
     1
 90
        0
176
     1
 62
    18
420
        0
176
     1
 90
       50
176
     1
 90
        3
176
     1
 62
     5
420
      255
176
     1
290
     0
176
     1
 90
       50
176
     1
 90
       50
176
     1
 90
       50
176
     1
290
     0
176
     1
 90
       50
176
     1
 62
   256
176
     0
 40
1.0
176
     0
 90
        2
176
     1
  1
strokes_ogs.tif
176
     1
290
     0
176
     1
 40
1.0
176
     1
 40
1.0
176
     1
  0
VISUALSTYLE
  5
35
102
{ACAD_REACTORS
330
2A
102
}
330
2A
100
AcDbVisualStyle
  2
Dim
 70
    11
177
     3
291
     1
 70
    58
 90
        2
176
     1
 90
        2
176
     1
 90
        0
176
     1
 90
        0
176
     1
 40
0.6
176
     1
 40
30.0
176
     1
 62
     7
420
 16777215
176
     1
 90
        1
176
     1
 90
        4
176
     1
 62
     7
176
     1
 62
   257
176
     1
 90
        1
176
     1
 90
        1
176
     1
 40
1.0
176
     1
 90
        8
176
     1
 62
     7
176
     1
 40
1.0
176
     1
 90
        1
176
     1
 90
        6
176
     1
 90
        2
176
     1
 62
     7
176
     1
 90
        5
176
     1
 90
        0
176
     1
 90
        0
176
     1
290
     0
176
     1
 90
        1
176
     1
 40
-50.0
176
     1
 90
        0
176
     1
290
     0
176
     1
290
     1
176
     1
290
     1
176
     1
290
     0
176
     1
290
     0
176
     1
290
     0
176
     1
290
     0
176
     1
290
     0
176
     1
290
     0
176
     1
 90
       50
176
     1
 40
0.0
176
     1
 40
1.0
176
     1
 90
        0
176
     1
 62
    18
420
        0
176
     1
 90
       50
176
     1
 90
        3
176
     1
 62
     5
420
      255
176
     1
290
     0
176
     1
 90
       50
176
     1
 90
       50
176
     1
 90
       50
176
     1
290
     0
176
     1
 90
       50
176
     1
 62
   256
176
     0
 40
1.0
176
     0
 90
        2
176
     1
  1
strokes_ogs.tif
176
     1
290
     0
176
     1
 40
1.0
176
     1
 40
1.0
176
     1
  0
VISUALSTYLE
  5
3D
102
{ACAD_REACTORS
330
2A
102
}
330
2A
100
AcDbVisualStyle
  2
EdgeColorOff
 70
    22
177
     3
291
     1
 70
    58
 90
        2
176
     0
 90
        2
176
     0
 90
        0
176
     0
 90
        0
176
     0
 40
0.6
176
     0
 40
30.0
176
     0
 62
     7
420
 16777215
176
     0
 90
        1
176
     0
 90
        4
176
     0
 62
     7
176
     0
 62
   257
176
     0
 90
        1
176
     0
 90
        1
176
     0
 40
1.0
176
     0
 90
        8
176
     2
 62
     7
176
     0
 40
1.0
176
     0
 90
        1
176
     0
 90
        6
176
     0
 90
        2
176
     0
 62
     7
176
     0
 90
        5
176
     0
 90
        0
176
     0
 90
        0
176
     0
290
     0
176
     0
 90
        1
176
     0
 40
0.0
176
     0
 90
        0
176
     0
290
     0
176
     0
290
     1
176
     0
290
     1
176
     0
290
     0
176
     0
290
     0
176
     0
290
     0
176
     0
290
     0
176
     0
290
     0
176
     0
290
     0
176
     0
 90
       50
176
     0
 40
0.0
176
     0
 40
1.0
176
     0
 90
        0
176
     0
 62
    18
420
        0
176
     0
 90
       50
176
     0
 90
        3
176
     0
 62
     5
420
      255
176
     0
290
     0
176
     0
 90
       50
176
     0
 90
       50
176
     0
 90
       50
176
     0
290
     0
176
     0
 90
       50
176
     0
 62
   256
176
     0
 40
1.0
176
     0
 90
        2
176
     0
  1
strokes_ogs.tif
176
     0
290
     0
176
     0
 40
1.0
176
     0
 40
1.0
176
     0
  0
VISUALSTYLE
  5
39
102
{ACAD_REACTORS
330
2A
102
}
330
2A
100
AcDbVisualStyle
  2
Facepattern
 70
    15
177
     3
291
     1
 70
    58
 90
        2
176
     1
 90
        2
176
     1
 90
        0
176
     1
 90
        0
176
     1
 40
0.6
176
     1
 40
30.0
176
     1
 62
     7
420
 16777215
176
     1
 90
        1
176
     1
 90
        4
176
     1
 62
     7
176
     1
 62
   257
176
     1
 90
        1
176
     1
 90
        1
176
     1
 40
1.0
176
     1
 90
        8
176
     1
 62
     7
176
     1
 40
1.0
176
     1
 90
        1
176
     1
 90
        6
176
     1
 90
        2
176
     1
 62
     7
176
     1
 90
        5
176
     1
 90
        0
176
     1
 90
        0
176
     1
290
     0
176
     1
 90
        1
176
     1
 40
0.0
176
     1
 90
        0
176
     1
290
     0
176
     1
290
     1
176
     1
290
     1
176
     1
290
     0
176
     1
290
     0
176
     1
290
     0
176
     1
290
     0
176
     1
290
     0
176
     1
290
     0
176
     1
 90
       50
176
     1
 40
0.0
176
     1
 40
1.0
176
     1
 90
        0
176
     1
 62
    18
420
        0
176
     1
 90
       50
176
     1
 90
        3
176
     1
 62
     5
420
      255
176
     1
290
     0
176
     1
 90
       50
176
     1
 90
       50
176
     1
 90
       50
176
     1
290
     0
176
     1
 90
       50
176
     1
 62
   256
176
     0
 40
1.0
176
     0
 90
        2
176
     1
  1
strokes_ogs.tif
176
     1
290
     0
176
     1
 40
1.0
176
     1
 40
1.0
176
     1
  0
VISUALSTYLE
  5
2B
102
{ACAD_REACTORS
330
2A
102
}
330
2A
100
AcDbVisualStyle
  2
Flat
 70
     0
177
     3
291
     1
 70
    58
 90
        2
176
     1
 90
        1
176
     1
 90
        1
176
     1
 90
        2
176
     1
 40
0.6
176
     1
 40
30.0
176
     1
 62
     7
420
 16777215
176
     1
 90
        0
176
     1
 90
        0
176
     1
 62
     7
176
     1
 62
   257
176
     1
 90
        1
176
     1
 90
        1
176
     1
 40
1.0
176
     1
 90
        8
176
     1
 62
     7
176
     1
 40
1.0
176
     1
 90
        1
176
     1
 90
        6
176
     1
 90
        2
176
     1
 62
     7
176
     1
 90
        5
176
     1
 90
        0
176
     1
 90
        0
176
     1
290
     0
176
     1
 90
       13
176
     1
 40
0.0
176
     1
 90
        0
176
     1
290
     0
176
     1
290
     1
176
     1
290
     1
176
     1
290
     0
176
     1
290
     0
176
     1
290
     0
176
     1
290
     0
176
     1
290
     0
176
     1
290
     0
176
     1
 90
       50
176
     1
 40
0.0
176
     1
 40
1.0
176
     1
 90
        0
176
     1
 62
    18
420
        0
176
     1
 90
       50
176
     1
 90
        3
176
     1
 62
     5
420
      255
176
     1
290
     0
176
     1
 90
       50
176
     1
 90
       50
176
     1
 90
       50
176
     1
290
     0
176
     1
 90
       50
176
     1
 62
   256
176
     0
 40
1.0
176
     0
 90
        2
176
     1
  1
strokes_ogs.tif
176
     1
290
     0
176
     1
 40
1.0
176
     1
 40
1.0
176
     1
  0
VISUALSTYLE
  5
2C
102
{ACAD_REACTORS
330
2A
102
}
330
2A
100
AcDbVisualStyle
  2
FlatWithEdges
 70
     1
177
     3
291
     1
 70
    58
 90
        2
176
     1
 90
        1
176
     1
 90
        1
176
     1
 90
        2
176
     1
 40
0.6
176
     1
 40
30.0
176
     1
 62
     7
420
 16777215
176
     1
 90
        1
176
     1
 90
        0
176
     1
 62
     7
176
     1
 62
   257
176
     1
 90
        1
176
     1
 90
        1
176
     1
 40
1.0
176
     1
 90
        0
176
     1
 62
   257
176
     1
 40
1.0
176
     1
 90
        1
176
     1
 90
        6
176
     1
 90
        2
176
     1
 62
     7
176
     1
 90
        5
176
     1
 90
        0
176
     1
 90
        0
176
     1
290
     0
176
     1
 90
       13
176
     1
 40
0.0
176
     1
 90
        0
176
     1
290
     0
176
     1
290
     1
176
     1
290
     1
176
     1
290
     0
176
     1
290
     0
176
     1
290
     0
176
     1
290
     0
176
     1
290
     0
176
     1
290
     0
176
     1
 90
       50
176
     1
 40
0.0
176
     1
 40
1.0
176
     1
 90
        0
176
     1
 62
    18
420
        0
176
     1
 90
       50
176
     1
 90
        3
176
     1
 62
     5
420
      255
176
     1
290
     0
176
     1
 90
       50
176
     1
 90
       50
176
     1
 90
       50
176
     1
290
     0
176
     1
 90
       50
176
     1
 62
   256
176
     0
 40
1.0
176
     0
 90
        2
176
     1
  1
strokes_ogs.tif
176
     1
290
     0
176
     1
 40
1.0
176
     1
 40
1.0
176
     1
  0
VISUALSTYLE
  5
2D
102
{ACAD_REACTORS
330
2A
102
}
330
2A
100
AcDbVisualStyle
  2
Gouraud
 70
     2
177
     3
291
     1
 70
    58
 90
        2
176
     1
 90
        2
176
     1
 90
        1
176
     1
 90
        2
176
     1
 40
0.6
176
     1
 40
30.0
176
     1
 62
     7
420
 16777215
176
     1
 90
        0
176
     1
 90
        0
176
     1
 62
     7
176
     1
 62
   257
176
     1
 90
        1
176
     1
 90
        1
176
     1
 40
1.0
176
     1
 90
        0
176
     1
 62
     7
176
     1
 40
1.0
176
     1
 90
        1
176
     1
 90
        6
176
     1
 90
        2
176
     1
 62
     7
176
     1
 90
        5
176
     1
 90
        0
176
     1
 90
        0
176
     1
290
     0
176
     1
 90
       13
176
     1
 40
0.0
176
     1
 90
        0
176
     1
290
     0
176
     1
290
     1
176
     1
290
     1
176
     1
290
     0
176
     1
290
     0
176
     1
290
     0
176
     1
290
     0
176
     1
290
     0
176
     1
290
     0
176
     1
 90
       50
176
     1
 40
0.0
176
     1
 40
1.0
176
     1
 90
        0
176
     1
 62
    18
420
        0
176
     1
 90
       50
176
     1
 90
        3
176
     1
 62
     5
420
      255
176
     1
290
     0
176
     1
 90
       50
176
     1
 90
       50
176
     1
 90
       50
176
     1
290
     0
176
     1
 90
       50
176
     1
 62
   256
176
     0
 40
1.0
176
     0
 90
        2
176
     1
  1
strokes_ogs.tif
176
     1
290
     0
176
     1
 40
1.0
176
     1
 40
1.0
176
     1
  0
VISUALSTYLE
  5
2E
102
{ACAD_REACTORS
330
2A
102
}
330
2A
100
AcDbVisualStyle
  2
GouraudWithEdges
 70
     3
177
     3
291
     1
 70
    58
 90
        2
176
     1
 90
        2
176
     1
 90
        1
176
     1
 90
        2
176
     1
 40
0.6
176
     1
 40
30.0
176
     1
 62
     7
420
 16777215
176
     1
 90
        1
176
     1
 90
        0
176
     1
 62
     7
176
     1
 62
   257
176
     1
 90
        1
176
     1
 90
        1
176
     1
 40
1.0
176
     1
 90
        0
176
     1
 62
   257
176
     1
 40
1.0
176
     1
 90
        1
176
     1
 90
        6
176
     1
 90
        2
176
     1
 62
     7
176
     1
 90
        5
176
     1
 90
        0
176
     1
 90
        0
176
     1
290
     0
176
     1
 90
       13
176
     1
 40
0.0
176
     1
 90
        0
176
     1
290
     0
176
     1
290
     1
176
     1
290
     1
176
     1
290
     0
176
     1
290
     0
176
     1
290
     0
176
     1
290
     0
176
     1
290
     0
176
     1
290
     0
176
     1
 90
       50
176
     1
 40
0.0
176
     1
 40
1.0
176
     1
 90
        0
176
     1
 62
    18
420
        0
176
     1
 90
       50
176
     1
 90
        3
176
     1
 62
     5
420
      255
176
     1
290
     0
176
     1
 90
       50
176
     1
 90
       50
176
     1
 90
       50
176
     1
290
     0
176
     1
 90
       50
176
     1
 62
   256
176
     0
 40
1.0
176
     0
 90
        2
176
     1
  1
strokes_ogs.tif
176
     1
290
     0
176
     1
 40
1.0
176
     1
 40
1.0
176
     1
  0
VISUALSTYLE
  5
31
102
{ACAD_REACTORS
330
2A
102
}
330
2A
100
AcDbVisualStyle
  2
Hidden
 70
     6
177
     3
291
     0
 70
    58
 90
        1
176
     1
 90
        2
176
     1
 90
        2
176
     1
 90
        0
176
     1
 40
0.6
176
     1
 40
30.0
176
     1
 62
     7
420
 16777215
176
     1
 90
        2
176
     1
 90
        2
176
     1
 62
     7
176
     1
 62
   257
176
     1
 90
        2
176
     1
 90
        1
176
     1
 40
40.0
176
     1
 90
        0
176
     1
 62
   257
176
     1
 40
1.0
176
     1
 90
        1
176
     1
 90
        6
176
     1
 90
        2
176
     1
 62
     7
176
     1
 90
        3
176
     1
 90
        0
176
     1
 90
        0
176
     1
290
     0
176
     1
 90
        1
176
     1
 40
0.0
176
     1
 90
        0
176
     1
290
     0
176
     1
290
     1
176
     1
290
     1
176
     1
290
     0
176
     1
290
     0
176
     1
290
     0
176
     1
290
     0
176
     1
290
     0
176
     1
290
     0
176
     1
 90
       50
176
     1
 40
0.0
176
     1
 40
1.0
176
     1
 90
        0
176
     1
 62
    18
420
        0
176
     1
 90
       50
176
     1
 90
        3
176
     1
 62
     5
420
      255
176
     1
290
     0
176
     1
 90
       50
176
     1
 90
       50
176
     1
 90
       50
176
     1
290
     0
176
     1
 90
       50
176
     1
 62
   256
176
     0
 40
1.0
176
     0
 90
        2
176
     1
  1
strokes_ogs.tif
176
     1
290
     0
176
     1
 40
1.0
176
     1
 40
1.0
176
     1
  0
VISUALSTYLE
  5
3B
102
{ACAD_REACTORS
330
2A
102
}
330
2A
100
AcDbVisualStyle
  2
JitterOff
 70
    20
177
     3
291
     1
 70
    58
 90
        2
176
     0
 90
        2
176
     0
 90
        0
176
     0
 90
        0
176
     0
 40
0.6
176
     0
 40
30.0
176
     0
 62
     7
420
 16777215
176
     0
 90
        1
176
     0
 90
        4
176
     0
 62
     7
176
     0
 62
   257
176
     0
 90
        1
176
     0
 90
        1
176
     0
 40
1.0
176
     0
 90
       10
176
     2
 62
     7
176
     0
 40
1.0
176
     0
 90
        1
176
     0
 90
        6
176
     0
 90
        2
176
     0
 62
     7
176
     0
 90
        5
176
     0
 90
        0
176
     0
 90
        0
176
     0
290
     0
176
     0
 90
        1
176
     0
 40
0.0
176
     0
 90
        0
176
     0
290
     0
176
     0
290
     1
176
     0
290
     1
176
     0
290
     0
176
     0
290
     0
176
     0
290
     0
176
     0
290
     0
176
     0
290
     0
176
     0
290
     0
176
     0
 90
       50
176
     0
 40
0.0
176
     0
 40
1.0
176
     0
 90
        0
176
     0
 62
    18
420
        0
176
     0
 90
       50
176
     0
 90
        3
176
     0
 62
     5
420
      255
176
     0
290
     0
176
     0
 90
       50
176
     0
 90
       50
176
     0
 90
       50
176
     0
290
     0
176
     0
 90
       50
176
     0
 62
   256
176
     0
 40
1.0
176
     0
 90
        2
176
     0
  1
strokes_ogs.tif
176
     0
290
     0
176
     0
 40
1.0
176
     0
 40
1.0
176
     0
  0
VISUALSTYLE
  5
38
102
{ACAD_REACTORS
330
2A
102
}
330
2A
100
AcDbVisualStyle
  2
Linepattern
 70
    14
177
     3
291
     1
 70
    58
 90
        2
176
     1
 90
        2
176
     1
 90
        0
176
     1
 90
        0
176
     1
 40
0.6
176
     1
 40
30.0
176
     1
 62
     7
420
 16777215
176
     1
 90
        1
176
     1
 90
        4
176
     1
 62
     7
176
     1
 62
   257
176
     1
 90
        7
176
     1
 90
        7
176
     1
 40
1.0
176
     1
 90
        8
176
     1
 62
     7
176
     1
 40
1.0
176
     1
 90
        1
176
     1
 90
        6
176
     1
 90
        2
176
     1
 62
     7
176
     1
 90
        5
176
     1
 90
        0
176
     1
 90
        0
176
     1
290
     0
176
     1
 90
        1
176
     1
 40
0.0
176
     1
 90
        0
176
     1
290
     0
176
     1
290
     1
176
     1
290
     1
176
     1
290
     0
176
     1
290
     0
176
     1
290
     0
176
     1
290
     0
176
     1
290
     0
176
     1
290
     0
176
     1
 90
       50
176
     1
 40
0.0
176
     1
 40
1.0
176
     1
 90
        0
176
     1
 62
    18
420
        0
176
     1
 90
       50
176
     1
 90
        3
176
     1
 62
     5
420
      255
176
     1
290
     0
176
     1
 90
       50
176
     1
 90
       50
176
     1
 90
       50
176
     1
290
     0
176
     1
 90
       50
176
     1
 62
   256
176
     0
 40
1.0
176
     0
 90
        2
176
     1
  1
strokes_ogs.tif
176
     1
290
     0
176
     1
 40
1.0
176
     1
 40
1.0
176
     1
  0
VISUALSTYLE
  5
3C
102
{ACAD_REACTORS
330
2A
102
}
330
2A
100
AcDbVisualStyle
  2
OverhangOff
 70
    21
177
     3
291
     1
 70
    58
 90
        2
176
     0
 90
        2
176
     0
 90
        0
176
     0
 90
        0
176
     0
 40
0.6
176
     0
 40
30.0
176
     0
 62
     7
420
 16777215
176
     0
 90
        1
176
     0
 90
        4
176
     0
 62
     7
176
     0
 62
   257
176
     0
 90
        1
176
     0
 90
        1
176
     0
 40
1.0
176
     0
 90
        9
176
     2
 62
     7
176
     0
 40
1.0
176
     0
 90
        1
176
     0
 90
        6
176
     0
 90
        2
176
     0
 62
     7
176
     0
 90
        5
176
     0
 90
        0
176
     0
 90
        0
176
     0
290
     0
176
     0
 90
        1
176
     0
 40
0.0
176
     0
 90
        0
176
     0
290
     0
176
     0
290
     1
176
     0
290
     1
176
     0
290
     0
176
     0
290
     0
176
     0
290
     0
176
     0
290
     0
176
     0
290
     0
176
     0
290
     0
176
     0
 90
       50
176
     0
 40
0.0
176
     0
 40
1.0
176
     0
 90
        0
176
     0
 62
    18
420
        0
176
     0
 90
       50
176
     0
 90
        3
176
     0
 62
     5
420
      255
176
     0
290
     0
176
     0
 90
       50
176
     0
 90
       50
176
     0
 90
       50
176
     0
290
     0
176
     0
 90
       50
176
     0
 62
   256
176
     0
 40
1.0
176
     0
 90
        2
176
     0
  1
strokes_ogs.tif
176
     0
290
     0
176
     0
 40
1.0
176
     0
 40
1.0
176
     0
  0
VISUALSTYLE
  5
33
102
{ACAD_REACTORS
330
2A
102
}
330
2A
100
AcDbVisualStyle
  2
Realistic
 70
     8
177
     3
291
     0
 70
    58
 90
        2
176
     1
 90
        3
176
     1
 90
        0
176
     1
 90
        2
176
     1
 40
0.6
176
     1
 40
30.0
176
     1
 62
     7
420
 16777215
176
     1
 90
        0
176
     1
 90
        0
176
     1
 62
     7
176
     1
 62
   257
176
     1
 90
        1
176
     1
 90
        1
176
     1
 40
1.0
176
     1
 90
        8
176
     1
 62
   257
176
     1
 40
1.0
176
     1
 90
        1
176
     1
 90
        6
176
     1
 90
        2
176
     1
 62
     7
176
     1
 90
        3
176
     1
 90
        0
176
     1
 90
        0
176
     1
290
     0
176
     1
 90
       13
176
     1
 40
0.0
176
     1
 90
        0
176
     1
290
     0
176
     1
290
     1
176
     1
290
     1
176
     1
290
     0
176
     1
290
     0
176
     1
290
     0
176
     1
290
     0
176
     1
290
     0
176
     1
290
     0
176
     1
 90
       50
176
     1
 40
0.0
176
     1
 40
1.0
176
     1
 90
        0
176
     1
 62
    18
420
        0
176
     1
 90
       50
176
     1
 90
        3
176
     1
 62
     5
420
      255
176
     1
290
     0
176
     1
 90
       50
176
     1
 90
       50
176
     1
 90
       50
176
     1
290
     0
176
     1
 90
       50
176
     1
 62
   256
176
     0
 40
1.0
176
     0
 90
        2
176
     1
  1
strokes_ogs.tif
176
     1
290
     0
176
     1
 40
1.0
176
     1
 40
1.0
176
     1
  0
VISUALSTYLE
  5
42
102
{ACAD_REACTORS
330
2A
102
}
330
2A
100
AcDbVisualStyle
  2
Shaded
 70
    27
177
     3
291
     0
 70
    58
 90
        2
176
     1
 90
        2
176
     1
 90
        1
176
     1
 90
        2
176
     1
 40
0.6
176
     1
 40
30.0
176
     1
 62
     7
420
 16777215
176
     1
 90
        0
176
     1
 90
        4
176
     1
 62
     7
176
     1
 62
   257
176
     1
 90
        1
176
     1
 90
        1
176
     1
 40
1.0
176
     1
 90
        8
176
     1
 62
   257
176
     1
 40
1.0
176
     1
 90
        1
176
     1
 90
        6
176
     1
 90
        2
176
     1
 62
     8
420
  7895160
176
     1
 90
        3
176
     1
 90
        0
176
     1
 90
        0
176
     1
290
     0
176
     1
 90
        5
176
     1
 40
0.0
176
     1
 90
        0
176
     1
290
     0
176
     1
290
     1
176
     1
290
     1
176
     1
290
     0
176
     1
290
     0
176
     1
290
     0
176
     1
290
     0
176
     1
290
     0
176
     1
290
     0
176
     1
 90
       50
176
     1
 40
0.0
176
     1
 40
1.0
176
     1
 90
        0
176
     1
 62
    18
420
        0
176
     1
 90
       50
176
     1
 90
        3
176
     1
 62
     5
420
      255
176
     1
290
     0
176
     1
 90
       50
176
     1
 90
       50
176
     1
 90
       50
176
     1
290
     0
176
     1
 90
       50
176
     1
 62
   256
176
     0
 40
1.0
176
     0
 90
        2
176
     1
  1
strokes_ogs.tif
176
     1
290
     0
176
     1
 40
1.0
176
     1
 40
1.0
176
     1
  0
VISUALSTYLE
  5
41
102
{ACAD_REACTORS
330
2A
102
}
330
2A
100
AcDbVisualStyle
  2
Shaded with edges
 70
    26
177
     3
291
     0
 70
    58
 90
        2
176
     1
 90
        2
176
     1
 90
        1
176
     1
 90
        2
176
     1
 40
0.6
176
     1
 40
30.0
176
     1
 62
     7
420
 16777215
176
     1
 90
        1
176
     1
 90
       10
176
     1
 62
     7
176
     1
 62
   257
176
     1
 90
        2
176
     1
 90
        1
176
     1
 40
1.0
176
     1
 90
        8
176
     1
 62
   257
176
     1
 40
1.0
176
     1
 90
        1
176
     1
 90
        6
176
     1
 90
        2
176
     1
 62
     7
176
     1
 90
        3
176
     1
 90
        0
176
     1
 90
        0
176
     1
290
     0
176
     1
 90
        5
176
     1
 40
0.0
176
     1
 90
        0
176
     1
290
     0
176
     1
290
     1
176
     1
290
     1
176
     1
290
     0
176
     1
290
     0
176
     1
290
     0
176
     1
290
     0
176
     1
290
     0
176
     1
290
     0
176
     1
 90
       50
176
     1
 40
0.0
176
     1
 40
1.0
176
     1
 90
        0
176
     1
 62
    18
420
        0
176
     1
 90
       50
176
     1
 90
        3
176
     1
 62
     5
420
      255
176
     1
290
     0
176
     1
 90
       50
176
     1
 90
       50
176
     1
 90
       50
176
     1
290
     0
176
     1
 90
       50
176
     1
 62
   256
176
     0
 40
1.0
176
     0
 90
        2
176
     1
  1
strokes_ogs.tif
176
     1
290
     0
176
     1
 40
1.0
176
     1
 40
1.0
176
     1
  0
VISUALSTYLE
  5
3E
102
{ACAD_REACTORS
330
2A
102
}
330
2A
100
AcDbVisualStyle
  2
Shades of Gray
 70
    23
177
     3
291
     0
 70
    58
 90
        2
176
     1
 90
        2
176
     1
 90
        3
176
     1
 90
        0
176
     1
 40
0.6
176
     1
 40
30.0
176
     1
 62
     7
420
 16777215
176
     1
 90
        2
176
     1
 90
        2
176
     1
 62
     7
176
     1
 62
     7
176
     1
 90
        1
176
     1
 90
        1
176
     1
 40
40.0
176
     1
 90
        8
176
     1
 62
     7
176
     1
 40
1.0
176
     1
 90
        1
176
     1
 90
        6
176
     1
 90
        2
176
     1
 62
     7
176
     1
 90
        3
176
     1
 90
        0
176
     1
 90
        0
176
     1
290
     0
176
     1
 90
        1
176
     1
 40
0.0
176
     1
 90
        0
176
     1
290
     0
176
     1
290
     1
176
     1
290
     1
176
     1
290
     0
176
     1
290
     0
176
     1
290
     0
176
     1
290
     0
176
     1
290
     0
176
     1
290
     0
176
     1
 90
       50
176
     1
 40
0.0
176
     1
 40
1.0
176
     1
 90
        0
176
     1
 62
    18
420
        0
176
     1
 90
       50
176
     1
 90
        3
176
     1
 62
     5
420
      255
176
     1
290
     0
176
     1
 90
       50
176
     1
 90
       50
176
     1
 90
       50
176
     1
290
     0
176
     1
 90
       50
176
     1
 62
   256
176
     0
 40
1.0
176
     0
 90
        2
176
     1
  1
strokes_ogs.tif
176
     1
290
     0
176
     1
 40
1.0
176
     1
 40
1.0
176
     1
  0
VISUALSTYLE
  5
3F
102
{ACAD_REACTORS
330
2A
102
}
330
2A
100
AcDbVisualStyle
  2
Sketchy
 70
    24
177
     3
291
     0
 70
    58
 90
        1
176
     1
 90
        2
176
     1
 90
        2
176
     1
 90
        0
176
     1
 40
0.6
176
     1
 40
30.0
176
     1
 62
     7
420
 16777215
176
     1
 90
        2
176
     1
 90
        2
176
     1
 62
     7
176
     1
 62
     7
176
     1
 90
        1
176
     1
 90
        1
176
     1
 40
40.0
176
     1
 90
       11
176
     1
 62
     7
176
     1
 40
1.0
176
     1
 90
        1
176
     1
 90
        6
176
     1
 90
        2
176
     1
 62
     7
176
     1
 90
        6
176
     1
 90
        0
176
     1
 90
        0
176
     1
290
     0
176
     1
 90
        1
176
     1
 40
0.0
176
     1
 90
        0
176
     1
290
     0
176
     1
290
     1
176
     1
290
     1
176
     1
290
     0
176
     1
290
     0
176
     1
290
     0
176
     1
290
     0
176
     1
290
     0
176
     1
290
     0
176
     1
 90
       50
176
     1
 40
0.0
176
     1
 40
1.0
176
     1
 90
        0
176
     1
 62
    18
420
        0
176
     1
 90
       50
176
     1
 90
        3
176
     1
 62
     5
420
      255
176
     1
290
     0
176
     1
 90
       50
176
     1
 90
       50
176
     1
 90
       50
176
     1
290
     0
176
     1
 90
       50
176
     1
 62
   256
176
     0
 40
1.0
176
     0
 90
        2
176
     1
  1
strokes_ogs.tif
176
     1
290
     0
176
     1
 40
1.0
176
     1
 40
1.0
176
     1
  0
VISUALSTYLE
  5
37
102
{ACAD_REACTORS
330
2A
102
}
330
2A
100
AcDbVisualStyle
  2
Thicken
 70
    13
177
     3
291
     1
 70
    58
 90
        2
176
     1
 90
        2
176
     1
 90
        0
176
     1
 90
        0
176
     1
 40
0.6
176
     1
 40
30.0
176
     1
 62
     7
420
 16777215
176
     1
 90
        1
176
     1
 90
        4
176
     1
 62
     7
176
     1
 62
   257
176
     1
 90
        1
176
     1
 90
        1
176
     1
 40
1.0
176
     1
 90
       12
176
     1
 62
     7
176
     1
 40
1.0
176
     1
 90
        1
176
     1
 90
        6
176
     1
 90
        2
176
     1
 62
     7
176
     1
 90
        5
176
     1
 90
        0
176
     1
 90
        0
176
     1
290
     0
176
     1
 90
        1
176
     1
 40
0.0
176
     1
 90
        0
176
     1
290
     0
176
     1
290
     1
176
     1
290
     1
176
     1
290
     0
176
     1
290
     0
176
     1
290
     0
176
     1
290
     0
176
     1
290
     0
176
     1
290
     0
176
     1
 90
       50
176
     1
 40
0.0
176
     1
 40
1.0
176
     1
 90
        0
176
     1
 62
    18
420
        0
176
     1
 90
       50
176
     1
 90
        3
176
     1
 62
     5
420
      255
176
     1
290
     0
176
     1
 90
       50
176
     1
 90
       50
176
     1
 90
       50
176
     1
290
     0
176
     1
 90
       50
176
     1
 62
   256
176
     0
 40
1.0
176
     0
 90
        2
176
     1
  1
strokes_ogs.tif
176
     1
290
     0
176
     1
 40
1.0
176
     1
 40
1.0
176
     1
  0
VISUALSTYLE
  5
30
102
{ACAD_REACTORS
330
2A
102
}
330
2A
100
AcDbVisualStyle
  2
Wireframe
 70
     5
177
     3
291
     0
 70
    58
 90
        0
176
     1
 90
        2
176
     1
 90
        0
176
     1
 90
        0
176
     1
 40
0.6
176
     1
 40
30.0
176
     1
 62
     7
420
 16777215
176
     1
 90
        1
176
     1
 90
        4
176
     1
 62
     7
176
     1
 62
   257
176
     1
 90
        1
176
     1
 90
        1
176
     1
 40
1.0
176
     1
 90
        0
176
     1
 62
   257
176
     1
 40
1.0
176
     1
 90
        1
176
     1
 90
        6
176
     1
 90
        2
176
     1
 62
     7
176
     1
 90
        3
176
     1
 90
        0
176
     1
 90
        0
176
     1
290
     0
176
     1
 90
        1
176
     1
 40
0.0
176
     1
 90
        0
176
     1
290
     0
176
     1
290
     1
176
     1
290
     1
176
     1
290
     0
176
     1
290
     0
176
     1
290
     0
176
     1
290
     0
176
     1
290
     0
176
     1
290
     0
176
     1
 90
       50
176
     1
 40
0.0
176
     1
 40
1.0
176
     1
 90
        0
176
     1
 62
    18
420
        0
176
     1
 90
       50
176
     1
 90
        3
176
     1
 62
     5
420
      255
176
     1
290
     0
176
     1
 90
       50
176
     1
 90
       50
176
     1
 90
       50
176
     1
290
     0
176
     1
 90
       50
176
     1
 62
   256
176
     0
 40
1.0
176
     0
 90
        2
176
     1
  1
strokes_ogs.tif
176
     1
290
     0
176
     1
 40
1.0
176
     1
 40
1.0
176
     1
  0
VISUALSTYLE
  5
40
102
{ACAD_REACTORS
330
2A
102
}
330
2A
100
AcDbVisualStyle
  2
X-Ray
 70
    25
177
     3
291
     0
 70
    58
 90
        2
176
     1
 90
        2
176
     1
 90
        1
176
     1
 90
        1
176
     1
 40
0.5
176
     1
 40
30.0
176
     1
 62
     7
420
 16777215
176
     1
 90
        1
176
     1
 90
        0
176
     1
 62
     7
176
     1
 62
   257
176
     1
 90
        1
176
     1
 90
        1
176
     1
 40
1.0
176
     1
 90
        8
176
     1
 62
     7
176
     1
 40
1.0
176
     1
 90
        1
176
     1
 90
        6
176
     1
 90
        2
176
     1
 62
     7
176
     1
 90
        3
176
     1
 90
        0
176
     1
 90
        0
176
     1
290
     0
176
     1
 90
       13
176
     1
 40
0.0
176
     1
 90
        0
176
     1
290
     0
176
     1
290
     1
176
     1
290
     1
176
     1
290
     0
176
     1
290
     0
176
     1
290
     0
176
     1
290
     0
176
     1
290
     0
176
     1
290
     0
176
     1
 90
       50
176
     1
 40
0.0
176
     1
 40
1.0
176
     1
 90
        0
176
     1
 62
    18
420
        0
176
     1
 90
       50
176
     1
 90
        3
176
     1
 62
     5
420
      255
176
     1
290
     0
176
     1
 90
       50
176
     1
 90
       50
176
     1
 90
       50
176
     1
290
     0
176
     1
 90
       50
176
     1
 62
   256
176
     0
 40
1.0
176
     0
 90
        2
176
     1
  1
strokes_ogs.tif
176
     1
290
     0
176
     1
 40
1.0
176
     1
 40
1.0
176
     1
  0
DICTIONARYVAR
  5
113
102
{ACAD_REACTORS
330
112
102
}
330
112
100
DictionaryVariables
280
     0
  1
1:1
  0
DICTIONARYVAR
  5
11B
102
{ACAD_REACTORS
330
112
102
}
330
112
100
DictionaryVariables
280
     0
  1
3.500000
  0
DICTIONARYVAR
  5
11C
102
{ACAD_REACTORS
330
112
102
}
330
112
100
DictionaryVariables
280
     0
  1
acadiso.lin
  0
DICTIONARYVAR
  5
118
102
{ACAD_REACTORS
330
112
102
}
330
112
100
DictionaryVariables
280
     0
  1
Standard
  0
DICTIONARYVAR
  5
117
102
{ACAD_REACTORS
330
112
102
}
330
112
100
DictionaryVariables
280
     0
  1
Standard
  0
DICTIONARY
  5
114
330
5A
100
AcDbDictionary
280
     1
281
     1
  3
ACAD_ROUNDTRIP_2008_TABLESTYLE_CELLSTYLEMAP
360
115
  0
CELLSTYLEMAP
  5
115
102
{ACAD_REACTORS
330
114
102
}
330
114
100
AcDbCellStyleMap
 90
        3
300
CELLSTYLE
  1
TABLEFORMAT_BEGIN
 90
        5
170
     1
 91
        0
 92
    32768
 62
   257
 93
        1
300
CONTENTFORMAT
  1
CONTENTFORMAT_BEGIN
 90
        0
 91
        0
 92
        4
 93
        0
300

 40
0.0
140
1.0
 94
        5
 62
     0
340
11
144
6.0
309
CONTENTFORMAT_END
171
     1
301
MARGIN
  1
CELLMARGIN_BEGIN
 40
1.5
 40
1.5
 40
1.5
 40
1.5
 40
1.5
 40
1.5
309
CELLMARGIN_END
 94
        6
 95
        1
302
GRIDFORMAT
  1
GRIDFORMAT_BEGIN
 90
        0
 91
        1
 62
     0
 92
       -2
340
14
 93
        0
 40
0.045
309
GRIDFORMAT_END
 95
        2
302
GRIDFORMAT
  1
GRIDFORMAT_BEGIN
 90
        0
 91
        1
 62
     0
 92
       -2
340
14
 93
        0
 40
0.045
309
GRIDFORMAT_END
 95
        4
302
GRIDFORMAT
  1
GRIDFORMAT_BEGIN
 90
        0
 91
        1
 62
     0
 92
       -2
340
14
 93
        0
 40
0.045
309
GRIDFORMAT_END
 95
        8
302
GRIDFORMAT
  1
GRIDFORMAT_BEGIN
 90
        0
 91
        1
 62
     0
 92
       -2
340
14
 93
        0
 40
0.045
309
GRIDFORMAT_END
 95
       16
302
GRIDFORMAT
  1
GRIDFORMAT_BEGIN
 90
        0
 91
        1
 62
     0
 92
       -2
340
14
 93
        0
 40
0.045
309
GRIDFORMAT_END
 95
       32
302
GRIDFORMAT
  1
GRIDFORMAT_BEGIN
 90
        0
 91
        1
 62
     0
 92
       -2
340
14
 93
        0
 40
0.045
309
GRIDFORMAT_END
309
TABLEFORMAT_END
  1
CELLSTYLE_BEGIN
 90
        1
 91
        1
300
_TITLE
309
CELLSTYLE_END
300
CELLSTYLE
  1
TABLEFORMAT_BEGIN
 90
        5
170
     1
 91
        0
 92
        0
 62
   257
 93
        1
300
CONTENTFORMAT
  1
CONTENTFORMAT_BEGIN
 90
        0
 91
        0
 92
        4
 93
        0
300

 40
0.0
140
1.0
 94
        5
 62
     0
340
11
144
4.5
309
CONTENTFORMAT_END
171
     1
301
MARGIN
  1
CELLMARGIN_BEGIN
 40
1.5
 40
1.5
 40
1.5
 40
1.5
 40
1.5
 40
1.5
309
CELLMARGIN_END
 94
        6
 95
        1
302
GRIDFORMAT
  1
GRIDFORMAT_BEGIN
 90
        0
 91
        1
 62
     0
 92
       -2
340
14
 93
        0
 40
0.045
309
GRIDFORMAT_END
 95
        2
302
GRIDFORMAT
  1
GRIDFORMAT_BEGIN
 90
        0
 91
        1
 62
     0
 92
       -2
340
14
 93
        0
 40
0.045
309
GRIDFORMAT_END
 95
        4
302
GRIDFORMAT
  1
GRIDFORMAT_BEGIN
 90
        0
 91
        1
 62
     0
 92
       -2
340
14
 93
        0
 40
0.045
309
GRIDFORMAT_END
 95
        8
302
GRIDFORMAT
  1
GRIDFORMAT_BEGIN
 90
        0
 91
        1
 62
     0
 92
       -2
340
14
 93
        0
 40
0.045
309
GRIDFORMAT_END
 95
       16
302
GRIDFORMAT
  1
GRIDFORMAT_BEGIN
 90
        0
 91
        1
 62
     0
 92
       -2
340
14
 93
        0
 40
0.045
309
GRIDFORMAT_END
 95
       32
302
GRIDFORMAT
  1
GRIDFORMAT_BEGIN
 90
        0
 91
        1
 62
     0
 92
       -2
340
14
 93
        0
 40
0.045
309
GRIDFORMAT_END
309
TABLEFORMAT_END
  1
CELLSTYLE_BEGIN
 90
        2
 91
        1
300
_HEADER
309
CELLSTYLE_END
300
CELLSTYLE
  1
TABLEFORMAT_BEGIN
 90
        5
170
     1
 91
        0
 92
        0
 62
   257
 93
        1
300
CONTENTFORMAT
  1
CONTENTFORMAT_BEGIN
 90
        0
 91
        0
 92
        4
 93
        0
300

 40
0.0
140
1.0
 94
        2
 62
     0
340
11
144
4.5
309
CONTENTFORMAT_END
171
     1
301
MARGIN
  1
CELLMARGIN_BEGIN
 40
1.5
 40
1.5
 40
1.5
 40
1.5
 40
1.5
 40
1.5
309
CELLMARGIN_END
 94
        6
 95
        1
302
GRIDFORMAT
  1
GRIDFORMAT_BEGIN
 90
        0
 91
        1
 62
     0
 92
       -2
340
14
 93
        0
 40
0.045
309
GRIDFORMAT_END
 95
        2
302
GRIDFORMAT
  1
GRIDFORMAT_BEGIN
 90
        0
 91
        1
 62
     0
 92
       -2
340
14
 93
        0
 40
0.045
309
GRIDFORMAT_END
 95
        4
302
GRIDFORMAT
  1
GRIDFORMAT_BEGIN
 90
        0
 91
        1
 62
     0
 92
       -2
340
14
 93
        0
 40
0.045
309
GRIDFORMAT_END
 95
        8
302
GRIDFORMAT
  1
GRIDFORMAT_BEGIN
 90
        0
 91
        1
 62
     0
 92
       -2
340
14
 93
        0
 40
0.045
309
GRIDFORMAT_END
 95
       16
302
GRIDFORMAT
  1
GRIDFORMAT_BEGIN
 90
        0
 91
        1
 62
     0
 92
       -2
340
14
 93
        0
 40
0.045
309
GRIDFORMAT_END
 95
       32
302
GRIDFORMAT
  1
GRIDFORMAT_BEGIN
 90
        0
 91
        1
 62
     0
 92
       -2
340
14
 93
        0
 40
0.045
309
GRIDFORMAT_END
309
TABLEFORMAT_END
  1
CELLSTYLE_BEGIN
 90
        3
 91
        2
300
_DATA
309
CELLSTYLE_END
  0
ENDSEC
  0
EOF
