  0
SECTION
  2
HEADER
  9
$ACADVER
  1
AC1027
  9
$ACADMAINTVER
 70
   105
  9
$DWGCODEPAGE
  3
ANSI_1252
  9
$LASTSAVEDBY
  1
Nick
  9
$REQUIREDVERSIONS
160
                 0
  9
$INSBASE
 10
0.0
 20
0.0
 30
0.0
  9
$EXTMIN
 10
0.0
 20
0.0
 30
0.0
  9
$EXTMAX
 10
420.0
 20
297.0
 30
0.0
  9
$LIMMIN
 10
0.0
 20
0.0
  9
$LIMMAX
 10
420.0
 20
297.0
  9
$ORTHOMODE
 70
     0
  9
$REGENMODE
 70
     1
  9
$FILLMODE
 70
     1
  9
$QTEXTMODE
 70
     0
  9
$MIRRTEXT
 70
     1
  9
$LTSCALE
 40
1.0
  9
$ATTMODE
 70
     1
  9
$TEXTSIZE
 40
4.2333333333
  9
$TRACEWID
 40
1.0
  9
$TEXTSTYLE
  7
Standard
  9
$CLAYER
  8
0
  9
$CELTYPE
  6
ByLayer
  9
$CECOLOR
 62
   256
  9
$CELTSCALE
 40
1.0
  9
$DISPSILH
 70
     0
  9
$DIMSCALE
 40
1.0
  9
$DIMASZ
 40
3.302
  9
$DIMEXO
 40
1.0
  9
$DIMDLI
 40
3.75
  9
$DIMRND
 40
0.0
  9
$DIMDLE
 40
0.0
  9
$DIMEXE
 40
1.0
  9
$DIMTP
 40
0.0
  9
$DIMTM
 40
0.0
  9
$DIMTXT
 40
4.2333333333
  9
$DIMCEN
 40
2.5
  9
$DIMTSZ
 40
0.0
  9
$DIMTOL
 70
     0
  9
$DIMLIM
 70
     0
  9
$DIMTIH
 70
     1
  9
$DIMTOH
 70
     1
  9
$DIMSE1
 70
     0
  9
$DIMSE2
 70
     0
  9
$DIMTAD
 70
     1
  9
$DIMZIN
 70
     1
  9
$DIMBLK
  1

  9
$DIMASO
 70
     1
  9
$DIMSHO
 70
     1
  9
$DIMPOST
  1

  9
$DIMAPOST
  1

  9
$DIMALT
 70
     0
  9
$DIMALTD
 70
     3
  9
$DIMALTF
 40
0.0393700787
  9
$DIMLFAC
 40
1.0
  9
$DIMTOFL
 70
     1
  9
$DIMTVP
 40
0.0
  9
$DIMTIX
 70
     0
  9
$DIMSOXD
 70
     0
  9
$DIMSAH
 70
     0
  9
$DIMBLK1
  1

  9
$DIMBLK2
  1

  9
$DIMSTYLE
  2
ISO-25
  9
$DIMCLRD
 70
     0
  9
$DIMCLRE
 70
     0
  9
$DIMCLRT
 70
     0
  9
$DIMTFAC
 40
1.0
  9
$DIMGAP
 40
1.524
  9
$DIMJUST
 70
     0
  9
$DIMSD1
 70
     0
  9
$DIMSD2
 70
     0
  9
$DIMTOLJ
 70
     0
  9
$DIMTZIN
 70
     1
  9
$DIMALTZ
 70
     0
  9
$DIMALTTZ
 70
     0
  9
$DIMUPT
 70
     0
  9
$DIMDEC
 70
     0
  9
$DIMTDEC
 70
     0
  9
$DIMALTU
 70
     2
  9
$DIMALTTD
 70
     3
  9
$DIMTXSTY
  7
Standard
  9
$DIMAUNIT
 70
     0
  9
$DIMADEC
 70
     2
  9
$DIMALTRND
 40
0.0
  9
$DIMAZIN
 70
     0
  9
$DIMDSEP
 70
    44
  9
$DIMATFIT
 70
     3
  9
$DIMFRAC
 70
     0
  9
$DIMLDRBLK
  1

  9
$DIMLUNIT
 70
     2
  9
$DIMLWD
 70
    -2
  9
$DIMLWE
 70
    -2
  9
$DIMTMOVE
 70
     0
  9
$DIMFXL
 40
1.0
  9
$DIMFXLON
 70
     0
  9
$DIMJOGANG
 40
0.7853981634
  9
$DIMTFILL
 70
     0
  9
$DIMTFILLCLR
 70
     0
  9
$DIMARCSYM
 70
     0
  9
$DIMLTYPE
  6

  9
$DIMLTEX1
  6

  9
$DIMLTEX2
  6

  9
$DIMTXTDIRECTION
 70
     0
  9
$LUNITS
 70
     2
  9
$LUPREC
 70
     0
  9
$SKETCHINC
 40
1.0
  9
$FILLETRAD
 40
0.0
  9
$AUNITS
 70
     0
  9
$AUPREC
 70
     2
  9
$MENU
  1
.
  9
$ELEVATION
 40
0.0
  9
$PELEVATION
 40
0.0
  9
$THICKNESS
 40
0.0
  9
$LIMCHECK
 70
     0
  9
$CHAMFERA
 40
0.0
  9
$CHAMFERB
 40
0.0
  9
$CHAMFERC
 40
0.0
  9
$CHAMFERD
 40
0.0
  9
$SKPOLY
 70
     0
  9
$TDCREATE
 40
2460934.445462523
  9
$TDUCREATE
 40
2460934.028795857
  9
$TDUPDATE
 40
2460934.445462813
  9
$TDUUPDATE
 40
2460934.028796146
  9
$TDINDWG
 40
0.0000000116
  9
$TDUSRTIMER
 40
0.0000000116
  9
$USRTIMER
 70
     1
  9
$ANGBASE
 50
0.0
  9
$ANGDIR
 70
     0
  9
$PDMODE
 70
     0
  9
$PDSIZE
 40
-1.0
  9
$PLINEWID
 40
0.0
  9
$SPLFRAME
 70
     0
  9
$SPLINETYPE
 70
     6
  9
$SPLINESEGS
 70
     8
  9
$HANDSEED
  5
17B
  9
$SURFTAB1
 70
     6
  9
$SURFTAB2
 70
     6
  9
$SURFTYPE
 70
     6
  9
$SURFU
 70
     6
  9
$SURFV
 70
     6
  9
$UCSBASE
  2

  9
$UCSNAME
  2

  9
$UCSORG
 10
0.0
 20
0.0
 30
0.0
  9
$UCSXDIR
 10
1.0
 20
0.0
 30
0.0
  9
$UCSYDIR
 10
0.0
 20
1.0
 30
0.0
  9
$UCSORTHOREF
  2

  9
$UCSORTHOVIEW
 70
     0
  9
$UCSORGTOP
 10
0.0
 20
0.0
 30
0.0
  9
$UCSORGBOTTOM
 10
0.0
 20
0.0
 30
0.0
  9
$UCSORGLEFT
 10
0.0
 20
0.0
 30
0.0
  9
$UCSORGRIGHT
 10
0.0
 20
0.0
 30
0.0
  9
$UCSORGFRONT
 10
0.0
 20
0.0
 30
0.0
  9
$UCSORGBACK
 10
0.0
 20
0.0
 30
0.0
  9
$PUCSBASE
  2

  9
$PUCSNAME
  2

  9
$PUCSORG
 10
0.0
 20
0.0
 30
0.0
  9
$PUCSXDIR
 10
1.0
 20
0.0
 30
0.0
  9
$PUCSYDIR
 10
0.0
 20
1.0
 30
0.0
  9
$PUCSORTHOREF
  2

  9
$PUCSORTHOVIEW
 70
     0
  9
$PUCSORGTOP
 10
0.0
 20
0.0
 30
0.0
  9
$PUCSORGBOTTOM
 10
0.0
 20
0.0
 30
0.0
  9
$PUCSORGLEFT
 10
0.0
 20
0.0
 30
0.0
  9
$PUCSORGRIGHT
 10
0.0
 20
0.0
 30
0.0
  9
$PUCSORGFRONT
 10
0.0
 20
0.0
 30
0.0
  9
$PUCSORGBACK
 10
0.0
 20
0.0
 30
0.0
  9
$USERI1
 70
     0
  9
$USERI2
 70
     0
  9
$USERI3
 70
     0
  9
$USERI4
 70
     0
  9
$USERI5
 70
     0
  9
$USERR1
 40
0.0
  9
$USERR2
 40
0.0
  9
$USERR3
 40
0.0
  9
$USERR4
 40
0.0
  9
$USERR5
 40
0.0
  9
$WORLDVIEW
 70
     1
  9
$SHADEDGE
 70
     3
  9
$SHADEDIF
 70
    70
  9
$TILEMODE
 70
     1
  9
$MAXACTVP
 70
    64
  9
$PINSBASE
 10
0.0
 20
0.0
 30
0.0
  9
$PLIMCHECK
 70
     0
  9
$PEXTMIN
 10
1.0000000000E+20
 20
1.0000000000E+20
 30
1.0000000000E+20
  9
$PEXTMAX
 10
-1.0000000000E+20
 20
-1.0000000000E+20
 30
-1.0000000000E+20
  9
$PLIMMIN
 10
0.0
 20
0.0
  9
$PLIMMAX
 10
420.0
 20
297.0
  9
$UNITMODE
 70
     0
  9
$VISRETAIN
 70
     1
  9
$PLINEGEN
 70
     0
  9
$PSLTSCALE
 70
     1
  9
$TREEDEPTH
 70
  3020
  9
$CMLSTYLE
  2
Standard
  9
$CMLJUST
 70
     0
  9
$CMLSCALE
 40
20.0
  9
$PROXYGRAPHICS
 70
     1
  9
$MEASUREMENT
 70
     1
  9
$CELWEIGHT
370
    -1
  9
$ENDCAPS
280
     0
  9
$JOINSTYLE
280
     0
  9
$LWDISPLAY
290
     1
  9
$INSUNITS
 70
     4
  9
$HYPERLINKBASE
  1

  9
$STYLESHEET
  1

  9
$XEDIT
290
     1
  9
$CEPSNTYPE
380
     0
  9
$PSTYLEMODE
290
     1
  9
$FINGERPRINTGUID
  2
{9f6a8800-ae44-494c-996d-5021ffe741ca}
  9
$VERSIONGUID
  2
{FAEB1C32-E019-11D5-929B-00C0DF256EC4}
  9
$EXTNAMES
290
     1
  9
$PSVPSCALE
 40
0.0
  9
$OLESTARTUP
290
     0
  9
$SORTENTS
280
   127
  9
$INDEXCTL
280
     0
  9
$HIDETEXT
280
     1
  9
$XCLIPFRAME
280
     2
  9
$HALOGAP
280
     0
  9
$OBSCOLOR
 70
   257
  9
$OBSLTYPE
280
     0
  9
$INTERSECTIONDISPLAY
280
     0
  9
$INTERSECTIONCOLOR
 70
   257
  9
$DIMASSOC
280
     2
  9
$PROJECTNAME
  1

  9
$CAMERADISPLAY
290
     0
  9
$LENSLENGTH
 40
50.0
  9
$CAMERAHEIGHT
 40
0.0
  9
$STEPSPERSEC
 40
2.0
  9
$STEPSIZE
 40
6.0
  9
$3DDWFPREC
 40
2.0
  9
$PSOLWIDTH
 40
5.0
  9
$PSOLHEIGHT
 40
80.0
  9
$LOFTANG1
 40
1.5707963268
  9
$LOFTANG2
 40
1.5707963268
  9
$LOFTMAG1
 40
0.0
  9
$LOFTMAG2
 40
0.0
  9
$LOFTPARAM
 70
     7
  9
$LOFTNORMALS
280
     1
  9
$LATITUDE
 40
37.795
  9
$LONGITUDE
 40
-122.394
  9
$NORTHDIRECTION
 40
0.0
  9
$TIMEZONE
 70
 -8000
  9
$LIGHTGLYPHDISPLAY
280
     1
  9
$TILEMODELIGHTSYNCH
280
     1
  9
$CMATERIAL
347
44
  9
$SOLIDHIST
280
     0
  9
$SHOWHIST
280
     1
  9
$DWFFRAME
280
     2
  9
$DGNFRAME
280
     2
  9
$REALWORLDSCALE
290
     1
  9
$INTERFERECOLOR
 62
   256
  9
$CSHADOW
280
     0
  9
$SHADOWPLANELOCATION
 40
0.0
  0
ENDSEC
  0
SECTION
  2
CLASSES
  0
CLASS
  1
ACDBDICTIONARYWDFLT
  2
AcDbDictionaryWithDefault
  3
ObjectDBX Classes
 90
        0
 91
        3
280
     0
281
     0
  0
CLASS
  1
VISUALSTYLE
  2
AcDbVisualStyle
  3
ObjectDBX Classes
 90
     4095
 91
        3
280
     0
281
     0
  0
CLASS
  1
MATERIAL
  2
AcDbMaterial
  3
ObjectDBX Classes
 90
     1153
 91
        3
280
     0
281
     0
  0
CLASS
  1
SCALE
  2
AcDbScale
  3
ObjectDBX Classes
 90
     1153
 91
        3
280
     0
281
     0
  0
CLASS
  1
TABLESTYLE
  2
AcDbTableStyle
  3
ObjectDBX Classes
 90
     4095
 91
        3
280
     0
281
     0
  0
CLASS
  1
MLEADERSTYLE
  2
AcDbMLeaderStyle
  3
ACDB_MLEADERSTYLE_CLASS
 90
     4095
 91
        3
280
     0
281
     0
  0
CLASS
  1
SUN
  2
AcDbSun
  3
SCENEOE
 90
     1153
 91
        3
280
     0
281
     0
  0
CLASS
  1
DICTIONARYVAR
  2
AcDbDictionaryVar
  3
ObjectDBX Classes
 90
        0
 91
        3
280
     0
281
     0
  0
CLASS
  1
CELLSTYLEMAP
  2
AcDbCellStyleMap
  3
ObjectDBX Classes
 90
     1152
 91
        3
280
     0
281
     0
  0
ENDSEC
  0
SECTION
  2
TABLES
  0
TABLE
  2
VPORT
  5
8
330
0
100
AcDbSymbolTable
 70
     1
  0
VPORT
  5
29
330
8
100
AcDbSymbolTableRecord
100
AcDbViewportTableRecord
  2
*Active
 70
     0
 10
0.0
 20
0.0
 11
1.0
 21
1.0
 12
210.0
 22
148.5
 13
0.0
 23
0.0
 14
10.0
 24
10.0
 15
10.0
 25
10.0
 16
0.0
 26
0.0
 36
1.0
 17
0.0
 27
0.0
 37
0.0
 40
297.0
 41
1.4141414141
 42
50.0
 43
0.0
 44
0.0
 50
0.0
 51
0.0
 71
     0
 72
  2000
 73
     1
 74
     3
 75
     0
 76
     0
 77
     0
 78
     0
281
     0
 65
     1
110
0.0
120
0.0
130
0.0
111
1.0
121
0.0
131
0.0
112
0.0
122
1.0
132
0.0
 79
     0
146
0.0
348
2F
 60
     3
 61
     5
292
     1
282
     1
141
0.0
142
0.0
 63
   250
361
5D
  0
ENDTAB
  0
TABLE
  2
LTYPE
  5
5
330
0
100
AcDbSymbolTable
 70
     6
  0
LTYPE
  5
14
330
5
100
AcDbSymbolTableRecord
100
AcDbLinetypeTableRecord
  2
ByBlock
 70
     0
  3

 72
    65
 73
     0
 40
0.0
  0
LTYPE
  5
15
330
5
100
AcDbSymbolTableRecord
100
AcDbLinetypeTableRecord
  2
ByLayer
 70
     0
  3

 72
    65
 73
     0
 40
0.0
  0
LTYPE
  5
16
330
5
100
AcDbSymbolTableRecord
100
AcDbLinetypeTableRecord
  2
Continuous
 70
     0
  3
Solid line
 72
    65
 73
     0
 40
0.0
  0
LTYPE
  5
5E
330
5
100
AcDbSymbolTableRecord
100
AcDbLinetypeTableRecord
  2
HIDDEN
 70
     0
  3
Hidden __ __ __ __ __ __ __ __ __ __ __ __ __ __
 72
    65
 73
     2
 40
1.905
 49
1.27
 74
     0
 49
-0.635
 74
     0
  0
LTYPE
  5
5F
330
5
100
AcDbSymbolTableRecord
100
AcDbLinetypeTableRecord
  2
PHANTOM
 70
     0
  3
Phantom ______  __  __  ______  __  __  ______
 72
    65
 73
     6
 40
12.7
 49
6.35
 74
     0
 49
-1.27
 74
     0
 49
1.27
 74
     0
 49
-1.27
 74
     0
 49
1.27
 74
     0
 49
-1.27
 74
     0
  0
LTYPE
  5
60
330
5
100
AcDbSymbolTableRecord
100
AcDbLinetypeTableRecord
  2
CENTER
 70
     0
  3
Center ____ _ ____ _ ____ _ ____ _ ____ _ ____
 72
    65
 73
     4
 40
10.16
 49
6.35
 74
     0
 49
-1.27
 74
     0
 49
1.27
 74
     0
 49
-1.27
 74
     0
  0
LTYPE
  5
61
330
5
100
AcDbSymbolTableRecord
100
AcDbLinetypeTableRecord
  2
CENTERX2
 70
     0
  3
Center (2x) ________  __  ________  __  _____
 72
    65
 73
     4
 40
20.32
 49
12.7
 74
     0
 49
-2.54
 74
     0
 49
2.54
 74
     0
 49
-2.54
 74
     0
  0
LTYPE
  5
62
330
5
100
AcDbSymbolTableRecord
100
AcDbLinetypeTableRecord
  2
DOT2
 70
     0
  3
Dot (.5x) ........................................
 72
    65
 73
     2
 40
0.635
 49
0.0
 74
     0
 49
-0.635
 74
     0
  0
ENDTAB
  0
TABLE
  2
LAYER
  5
2
330
0
100
AcDbSymbolTable
 70
    13
  0
LAYER
  5
10
330
2
100
AcDbSymbolTableRecord
100
AcDbLayerTableRecord
  2
0
 70
     0
 62
     7
  6
Continuous
370
    -3
390
F
347
46
348
0
  0
LAYER
  5
63
330
2
100
AcDbSymbolTableRecord
100
AcDbLayerTableRecord
  2
DRAWING-SHEET
 70
     0
 62
   179
  6
Continuous
370
    -3
390
F
347
46
348
0
  0
LAYER
  5
64
330
2
100
AcDbSymbolTableRecord
100
AcDbLayerTableRecord
  2
BORDER
 70
     0
 62
   179
  6
Continuous
370
    -3
390
F
347
46
348
0
  0
LAYER
  5
65
330
2
100
AcDbSymbolTableRecord
100
AcDbLayerTableRecord
  2
DIMENSIONS
 70
     0
 62
     7
  6
Continuous
370
    -3
390
F
347
46
348
0
  0
LAYER
  5
66
330
2
100
AcDbSymbolTableRecord
100
AcDbLayerTableRecord
  2
CENTRE_LINES
 70
     0
 62
     7
  6
Continuous
370
    -3
390
F
347
46
348
0
  0
LAYER
  5
67
330
2
100
AcDbSymbolTableRecord
100
AcDbLayerTableRecord
  2
FORMAT
 70
     0
 62
     7
  6
Continuous
370
    -3
390
F
347
46
348
0
  0
LAYER
  5
68
330
2
100
AcDbSymbolTableRecord
100
AcDbLayerTableRecord
  2
SLD-0
 70
     0
 62
   179
  6
Continuous
370
    -3
390
F
347
46
348
0
  0
LAYER
  5
69
330
2
100
AcDbSymbolTableRecord
100
AcDbLayerTableRecord
  2
OUTLINE
 70
     0
 62
     4
  6
Continuous
370
    -3
390
F
347
46
348
0
  0
LAYER
  5
6A
330
2
100
AcDbSymbolTableRecord
100
AcDbLayerTableRecord
  2
4
 70
     0
 62
     7
  6
Continuous
370
    70
390
F
347
46
348
0
  0
LAYER
  5
6B
330
2
100
AcDbSymbolTableRecord
100
AcDbLayerTableRecord
  2
TEXT25
 70
     0
 62
   179
  6
Continuous
370
    -3
390
F
347
46
348
0
  0
LAYER
  5
6C
330
2
100
AcDbSymbolTableRecord
100
AcDbLayerTableRecord
  2
TEXT35
 70
     0
 62
     7
  6
Continuous
370
    -3
390
F
347
46
348
0
  0
LAYER
  5
6D
330
2
100
AcDbSymbolTableRecord
100
AcDbLayerTableRecord
  2
TEXT5
 70
     0
 62
     7
  6
Continuous
370
    -3
390
F
347
46
348
0
  0
LAYER
  5
6E
330
2
100
AcDbSymbolTableRecord
100
AcDbLayerTableRecord
  2
5
 70
     0
 62
     7
  6
Continuous
370
    35
390
F
347
46
348
0
  0
ENDTAB
  0
TABLE
  2
STYLE
  5
3
330
0
100
AcDbSymbolTable
 70
     3
  0
STYLE
  5
11
330
3
100
AcDbSymbolTableRecord
100
AcDbTextStyleTableRecord
  2
Standard
 70
     0
 40
0.0
 41
1.0
 50
0.0
 71
     0
 42
4.2333333333
  3
txt
  4

  0
STYLE
  5
75
330
3
100
AcDbSymbolTableRecord
100
AcDbTextStyleTableRecord
  2
SLDTEXTSTYLE0
 70
     0
 40
0.0
 41
0.75
 50
0.0
 71
     0
 42
4.2333333333
  3
TXT
  4

  0
STYLE
  5
7B
330
3
100
AcDbSymbolTableRecord
100
AcDbTextStyleTableRecord
  2
SLDTEXTSTYLE1
 70
     0
 40
0.0
 41
0.6
 50
0.0
 71
     0
 42
4.2333333333
  3
TXT
  4

  0
ENDTAB
  0
TABLE
  2
VIEW
  5
6
330
0
100
AcDbSymbolTable
 70
     0
  0
ENDTAB
  0
TABLE
  2
UCS
  5
7
330
0
100
AcDbSymbolTable
 70
     0
  0
ENDTAB
  0
TABLE
  2
APPID
  5
9
330
0
100
AcDbSymbolTable
 70
     1
  0
APPID
  5
12
330
9
100
AcDbSymbolTableRecord
100
AcDbRegAppTableRecord
  2
ACAD
 70
     0
  0
ENDTAB
  0
TABLE
  2
DIMSTYLE
  5
A
330
0
100
AcDbSymbolTable
 70
     1
100
AcDbDimStyleTable
  0
DIMSTYLE
105
27
330
A
100
AcDbSymbolTableRecord
100
AcDbDimStyleTableRecord
  2
ISO-25
 70
     0
 41
2.5
 42
0.625
 43
3.75
 44
1.25
 73
     0
 74
     0
 77
     1
 78
     8
140
2.5
141
2.5
143
0.0393700787
147
0.625
171
     3
172
     1
178
     0
271
     2
272
     2
274
     3
278
    44
283
     0
284
     8
340
11
  0
ENDTAB
  0
TABLE
  2
BLOCK_RECORD
  5
1
330
0
100
AcDbSymbolTable
 70
     6
  0
BLOCK_RECORD
  5
1F
330
1
100
AcDbSymbolTableRecord
100
AcDbBlockTableRecord
  2
*Model_Space
340
22
 70
     0
280
     1
281
     0
  0
BLOCK_RECORD
  5
1B
330
1
100
AcDbSymbolTableRecord
100
AcDbBlockTableRecord
  2
*Paper_Space
340
1E
 70
     0
280
     1
281
     0
  0
BLOCK_RECORD
  5
23
330
1
100
AcDbSymbolTableRecord
100
AcDbBlockTableRecord
  2
*Paper_Space0
340
26
 70
     0
280
     1
281
     0
  0
BLOCK_RECORD
  5
6F
330
1
100
AcDbSymbolTableRecord
100
AcDbBlockTableRecord
  2
Block1
340
0
 70
     0
280
     1
281
     0
  0
BLOCK_RECORD
  5
72
330
1
100
AcDbSymbolTableRecord
100
AcDbBlockTableRecord
  2
SW_NOTE_0
340
0
102
{BLKREFS
331
77
102
}
 70
     0
280
     1
281
     0
  0
BLOCK_RECORD
  5
78
330
1
100
AcDbSymbolTableRecord
100
AcDbBlockTableRecord
  2
SW_NOTE_0_1
340
0
102
{BLKREFS
331
7D
102
}
 70
     0
280
     1
281
     0
  0
BLOCK_RECORD
  5
7E
330
1
100
AcDbSymbolTableRecord
100
AcDbBlockTableRecord
  2
SW_NOTE_0_2
340
0
102
{BLKREFS
331
82
102
}
 70
     0
280
     1
281
     0
  0
BLOCK_RECORD
  5
83
330
1
100
AcDbSymbolTableRecord
100
AcDbBlockTableRecord
  2
SW_NOTE_0_3
340
0
102
{BLKREFS
331
87
102
}
 70
     0
280
     1
281
     0
  0
ENDTAB
  0
ENDSEC
  0
SECTION
  2
BLOCKS
  0
BLOCK
  5
20
330
1F
100
AcDbEntity
  8
0
100
AcDbBlockBegin
  2
*Model_Space
 70
     0
 10
0.0
 20
0.0
 30
0.0
  3
*Model_Space
  1

  0
ENDBLK
  5
21
330
1F
100
AcDbEntity
  8
0
100
AcDbBlockEnd
  0
BLOCK
  5
1C
330
1B
100
AcDbEntity
 67
     1
  8
0
100
AcDbBlockBegin
  2
*Paper_Space
 70
     0
 10
0.0
 20
0.0
 30
0.0
  3
*Paper_Space
  1

  0
ENDBLK
  5
1D
330
1B
100
AcDbEntity
 67
     1
  8
0
100
AcDbBlockEnd
  0
BLOCK
  5
24
330
23
100
AcDbEntity
  8
0
100
AcDbBlockBegin
  2
*Paper_Space0
 70
     0
 10
0.0
 20
0.0
 30
0.0
  3
*Paper_Space0
  1

  0
ENDBLK
  5
25
330
23
100
AcDbEntity
  8
0
100
AcDbBlockEnd
  0
BLOCK
  5
70
330
6F
100
AcDbEntity
  8
0
100
AcDbBlockBegin
  2
Block1
 70
     0
 10
0.0
 20
0.0
 30
0.0
  3
Block1
  1

  0
INSERT
  5
77
330
6F
100
AcDbEntity
  8
0
  6
Continuous
 62
     7
370
     0
100
AcDbBlockReference
  2
SW_NOTE_0
 10
40.5248655077
 20
20.5912386523
 30
0.0
  0
INSERT
  5
7D
330
6F
100
AcDbEntity
  8
DRAWING-SHEET
 62
     7
100
AcDbBlockReference
  2
SW_NOTE_0_1
 10
3.556761253
 20
-0.3611706024
 30
0.0
  0
INSERT
  5
82
330
6F
100
AcDbEntity
  8
DRAWING-SHEET
 62
     7
100
AcDbBlockReference
  2
SW_NOTE_0_2
 10
7.9590819428
 20
3.0109637777
 30
0.0
  0
INSERT
  5
87
330
6F
100
AcDbEntity
  8
DRAWING-SHEET
 62
     7
100
AcDbBlockReference
  2
SW_NOTE_0_3
 10
0.0721004934
 20
6.5234823937
 30
0.0
  0
ENDBLK
  5
71
330
6F
100
AcDbEntity
  8
0
100
AcDbBlockEnd
  0
BLOCK
  5
73
330
72
100
AcDbEntity
  8
0
100
AcDbBlockBegin
  2
SW_NOTE_0
 70
     0
 10
0.0
 20
0.0
 30
0.0
  3
SW_NOTE_0
  1

  0
MTEXT
  5
76
330
72
100
AcDbEntity
  8
0
  6
Continuous
 62
     0
370
     0
100
AcDbMText
 10
0.0
 20
1.9336016097
 30
0.0
 40
1.5
 41
0.0
 46
0.0
 71
     1
 72
     1
  1
TITLE:
  7
SLDTEXTSTYLE0
 73
     1
 44
1.0
  0
ENDBLK
  5
74
330
72
100
AcDbEntity
  8
0
100
AcDbBlockEnd
  0
BLOCK
  5
79
330
78
100
AcDbEntity
  8
0
100
AcDbBlockBegin
  2
SW_NOTE_0_1
 70
     0
 10
0.0
 20
0.0
 30
0.0
  3
SW_NOTE_0_1
  1

  0
MTEXT
  5
7C
330
78
100
AcDbEntity
  8
DRAWING-SHEET
 62
     0
100
AcDbMText
 10
0.0
 20
2.7285267159
 30
0.0
 40
2.1166666667
 41
0.0
 46
0.0
 71
     1
 72
     1
  1
Email: roddyeng.com.au
  7
SLDTEXTSTYLE1
 73
     1
 44
1.0
  0
ENDBLK
  5
7A
330
78
100
AcDbEntity
  8
0
100
AcDbBlockEnd
  0
BLOCK
  5
7F
330
7E
100
AcDbEntity
  8
0
100
AcDbBlockBegin
  2
SW_NOTE_0_2
 70
     0
 10
0.0
 20
0.0
 30
0.0
  3
SW_NOTE_0_2
  1

  0
MTEXT
  5
81
330
7E
100
AcDbEntity
  8
DRAWING-SHEET
 62
     0
100
AcDbMText
 10
0.0
 20
2.7285267159
 30
0.0
 40
2.1166666667
 41
0.0
 46
0.0
 71
     1
 72
     1
  1
Ph: - 02 6947 4039
  7
SLDTEXTSTYLE1
 73
     1
 44
1.0
  0
ENDBLK
  5
80
330
7E
100
AcDbEntity
  8
0
100
AcDbBlockEnd
  0
BLOCK
  5
84
330
83
100
AcDbEntity
  8
0
100
AcDbBlockBegin
  2
SW_NOTE_0_3
 70
     0
 10
0.0
 20
0.0
 30
0.0
  3
SW_NOTE_0_3
  1

  0
MTEXT
  5
86
330
83
100
AcDbEntity
  8
DRAWING-SHEET
 62
     0
100
AcDbMText
 10
0.0
 20
2.7285267159
 30
0.0
 40
2.1166666667
 41
0.0
 46
0.0
 71
     1
 72
     1
  1
14 Waratah St TUMUT NSW 2720
  7
SLDTEXTSTYLE1
 73
     1
 44
1.0
  0
ENDBLK
  5
85
330
83
100
AcDbEntity
  8
0
100
AcDbBlockEnd
  0
ENDSEC
  0
SECTION
  2
ENTITIES
  0
SPLINE
  5
88
330
1F
100
AcDbEntity
  8
0
  6
Continuous
 62
     7
370
    25
100
AcDbSpline
210
0.0
220
0.0
230
1.0
 70
     8
 71
     3
 72
    31
 73
    27
 74
     0
 42
0.00000001
 43
0.00000001
 40
0.0
 40
0.0
 40
0.0
 40
0.0
 40
0.0337881161627101
 40
0.0671939323738785
 40
0.0998624108568231
 40
0.1325666121262573
 40
0.1651511732547859
 40
0.1979131873557908
 40
0.2313190035669602
 40
0.2650832782673721
 40
0.2992553087581151
 40
0.3343985665049788
 40
0.3699428235093068
 40
0.4062835607000605
 40
0.4440638196985093
 40
0.4829977068727743
 40
0.5233544466133033
 40
0.5655365896041498
 40
0.6096129240658184
 40
0.6563908113764167
 40
0.7058854949364557
 40
0.758324500261731
 40
0.8138317829411497
 40
0.8727945590393887
 40
0.9347222295400733
 40
1.0
 40
1.0
 40
1.0
 40
1.0
 10
865.2286112789893
 20
722.677142256366
 30
0.0
 10
865.2922352298106
 20
722.6760272502503
 30
0.0
 10
865.4187632501436
 20
722.6738098538976
 30
0.0
 10
865.6058269649915
 20
722.6524979852471
 30
0.0
 10
865.7885690946248
 20
722.6171354181685
 30
0.0
 10
865.9662105545185
 20
722.567030333408
 30
0.0
 10
866.1402105235877
 20
722.5048687867579
 30
0.0
 10
866.3092080267777
 20
722.4269553762227
 30
0.0
 10
866.4742527848166
 20
722.3362608222924
 30
0.0
 10
866.6327220134335
 20
722.2296919598773
 30
0.0
 10
866.786355419939
 20
722.1108753285704
 30
0.0
 10
866.9313793353037
 20
721.9765606570198
 30
0.0
 10
867.0678069602122
 20
721.8281041558345
 30
0.0
 10
867.1973505153807
 20
721.6670941812364
 30
0.0
 10
867.3163347375504
 20
721.4904425587597
 30
0.0
 10
867.4296454398028
 20
721.3012217363274
 30
0.0
 10
867.5310672361495
 20
721.0961226167987
 30
0.0
 10
867.6287464937005
 20
720.8785672617333
 30
0.0
 10
867.7130596062475
 20
720.6425360416039
 30
0.0
 10
867.7890967382984
 20
720.3893594461339
 30
0.0
 10
867.8505343807554
 20
720.1160470190406
 30
0.0
 10
867.9017098603854
 20
719.8240327440803
 30
0.0
 10
867.9413553368325
 20
719.51224421096
 30
0.0
 10
867.9702299472978
 20
719.1813497755045
 30
0.0
 10
867.9854827131066
 20
718.8311317397543
 30
0.0
 10
867.9883551730076
 20
718.5916852273493
 30
0.0
 10
867.9898292277072
 20
718.4688089230326
 30
0.0
  0
SPLINE
  5
89
330
1F
100
AcDbEntity
  8
0
  6
Continuous
 62
     7
370
    25
100
AcDbSpline
210
0.0
220
0.0
230
1.0
 70
     8
 71
     3
 72
    31
 73
    27
 74
     0
 42
0.00000001
 43
0.00000001
 40
0.0
 40
0.0
 40
0.0
 40
0.0
 40
0.0685946222587426
 40
0.1332460424433
 40
0.1943125864682571
 40
0.2512792231169659
 40
0.3045134392563464
 40
0.3542349066533258
 40
0.40048058877399
 40
0.4434107549384919
 40
0.4840148686163445
 40
0.5232523007732021
 40
0.5610423727283596
 40
0.5979002393643985
 40
0.6335184888561959
 40
0.6683143511696515
 40
0.7024956712863799
 40
0.7366853535134568
 40
0.7702931693607888
 40
0.8034372550192478
 40
0.8359129516660281
 40
0.8684602457892914
 40
0.900846538243181
 40
0.9334665246307063
 40
0.9662575752981226
 40
1.0
 40
1.0
 40
1.0
 40
1.0
 10
862.5539317918099
 20
718.4688089230326
 30
0.0
 10
862.5546815475983
 20
718.5970315235681
 30
0.0
 10
862.5561379590242
 20
718.8461057732766
 30
0.0
 10
862.5723400640351
 20
719.2090420980007
 30
0.0
 10
862.5992551321793
 20
719.5495227585611
 30
0.0
 10
862.6361405558372
 20
719.8675640523633
 30
0.0
 10
862.6810273677769
 20
720.1632480855466
 30
0.0
 10
862.7409484800083
 20
720.4357846732868
 30
0.0
 10
862.8090920288425
 20
720.686435202688
 30
0.0
 10
862.8880690478381
 20
720.916017027776
 30
0.0
 10
862.9771839941657
 20
721.1276232061124
 30
0.0
 10
863.0741765901018
 20
721.3251665233553
 30
0.0
 10
863.1828961202128
 20
721.5083480829891
 30
0.0
 10
863.2971290640463
 20
721.680091603949
 30
0.0
 10
863.4214995134812
 20
721.8375857634743
 30
0.0
 10
863.5524681774064
 20
721.9830547063738
 30
0.0
 10
863.6951467517313
 20
722.1131364217196
 30
0.0
 10
863.8446850563563
 20
722.2316422557426
 30
0.0
 10
864.0024369749659
 20
722.3355267624214
 30
0.0
 10
864.1639059261504
 20
722.4270301649717
 30
0.0
 10
864.330203310964
 20
722.5052012901319
 30
0.0
 10
864.5017831575879
 20
722.5666651435251
 30
0.0
 10
864.6771032899071
 20
722.6174327932912
 30
0.0
 10
864.8567765852015
 20
722.6521503879119
 30
0.0
 10
865.0410997027702
 20
722.6739947501734
 30
0.0
 10
865.1655144108803
 20
722.6760831335795
 30
0.0
 10
865.2286112789893
 20
722.677142256366
 30
0.0
  0
SPLINE
  5
8A
330
1F
100
AcDbEntity
  8
0
  6
Continuous
 62
     7
370
    25
100
AcDbSpline
210
0.0
220
0.0
230
1.0
 70
     8
 71
     3
 72
    31
 73
    27
 74
     0
 42
0.00000001
 43
0.00000001
 40
0.0
 40
0.0
 40
0.0
 40
0.0
 40
0.0337871463469915
 40
0.0666216577242954
 40
0.099284878095974
 40
0.1313611650426511
 40
0.1635851875953436
 40
0.196103926987069
 40
0.2289022543238178
 40
0.2621580559050075
 40
0.2959912222583161
 40
0.3302178457247993
 40
0.3650598258919532
 40
0.400950737340108
 40
0.4376203820767379
 40
0.4757075294370932
 40
0.5153806916250503
 40
0.5564135414931655
 40
0.5997648298727326
 40
0.646424155584088
 40
0.6964314445175677
 40
0.7497815178015588
 40
0.8065733069755331
 40
0.8674355315654004
 40
0.9318867532508747
 40
0.9999999999999999
 40
0.9999999999999999
 40
0.9999999999999999
 40
0.9999999999999999
 10
865.2286112789893
 20
714.2668858461096
 30
0.0
 10
865.1655161613087
 20
714.267951801444
 30
0.0
 10
865.0411049047018
 20
714.270053657301
 30
0.0
 10
864.8567565036973
 20
714.291799329274
 30
0.0
 10
864.6778252044061
 20
714.3267604794736
 30
0.0
 10
864.50342805232
 20
714.3757127173961
 30
0.0
 10
864.3326703035573
 20
714.4356323432601
 30
0.0
 10
864.1678787912012
 20
714.5136979057811
 30
0.0
 10
864.0072212284797
 20
714.6036043491091
 30
0.0
 10
863.8511262432955
 20
714.7059938838252
 30
0.0
 10
863.7025270180616
 20
714.8233005881186
 30
0.0
 10
863.5605873487729
 20
714.9530475336876
 30
0.0
 10
863.4288730194085
 20
715.098472473796
 30
0.0
 10
863.3062808008544
 20
715.2572791551851
 30
0.0
 10
863.1897685992642
 20
715.4280065662315
 30
0.0
 10
863.0825928888202
 20
715.612985704621
 30
0.0
 10
862.9834595080932
 20
715.8114831000258
 30
0.0
 10
862.8928458151366
 20
716.0247811815689
 30
0.0
 10
862.8125060128168
 20
716.2559924452484
 30
0.0
 10
862.7415398228433
 20
716.5077619961112
 30
0.0
 10
862.6855074629116
 20
716.7823120215146
 30
0.0
 10
862.6375464221509
 20
717.0774374320413
 30
0.0
 10
862.5988621180513
 20
717.3944064157804
 30
0.0
 10
862.5724522316094
 20
717.7333910516361
 30
0.0
 10
862.5561292258134
 20
718.0941801006102
 30
0.0
 10
862.5546776362817
 20
718.3416538704768
 30
0.0
 10
862.5539317918099
 20
718.4688089230326
 30
0.0
  0
SPLINE
  5
8B
330
1F
100
AcDbEntity
  8
0
  6
Continuous
 62
     7
370
    25
100
AcDbSpline
210
0.0
220
0.0
230
1.0
 70
     8
 71
     3
 72
    31
 73
    27
 74
     0
 42
0.00000001
 43
0.00000001
 40
0.0
 40
0.0
 40
0.0
 40
0.0
 40
0.0650632896172783
 40
0.1267731664665234
 40
0.1855157632260798
 40
0.2407646791677159
 40
0.2929797960235989
 40
0.3422503727797683
 40
0.3889192861856595
 40
0.4327756640583108
 40
0.4746284326311178
 40
0.5147746906379532
 40
0.5536058934984426
 40
0.5914264064311747
 40
0.6280281199460673
 40
0.6638036341103206
 40
0.6989843361316638
 40
0.7335914893067057
 40
0.7676284691511399
 40
0.8012083477865927
 40
0.8342638397266237
 40
0.8669806947287778
 40
0.8997197415181607
 40
0.9327019124985396
 40
0.9661758834327498
 40
1.0
 40
1.0
 40
1.0
 40
1.0
 10
867.9898292277072
 20
718.4688089230326
 30
0.0
 10
867.9883398916069
 20
718.3464685620249
 30
0.0
 10
867.9854379809519
 20
718.1080933577762
 30
0.0
 10
867.9704009369115
 20
717.7594511284739
 30
0.0
 10
867.9407812085029
 20
717.4303127437913
 30
0.0
 10
867.9037298066543
 20
717.1198888296
 30
0.0
 10
867.852413319858
 20
716.8294714151247
 30
0.0
 10
867.7893157969978
 20
716.5580555329122
 30
0.0
 10
867.7192579162623
 20
716.3044690833913
 30
0.0
 10
867.6327783868685
 20
716.0707895139972
 30
0.0
 10
867.5381253346463
 20
715.853757004592
 30
0.0
 10
867.4351420291025
 20
715.6510892369812
 30
0.0
 10
867.3248109980495
 20
715.4609948537135
 30
0.0
 10
867.2046081523283
 20
715.2849954321565
 30
0.0
 10
867.0764860650223
 20
715.1218442159899
 30
0.0
 10
866.9377025477811
 20
714.9744210785008
 30
0.0
 10
866.7921697818338
 20
714.8391738282993
 30
0.0
 10
866.6380842599276
 20
714.7188272512429
 30
0.0
 10
866.4771435713969
 20
714.6134905549313
 30
0.0
 10
866.312665681283
 20
714.5192874683305
 30
0.0
 10
866.141732233632
 20
714.4433270225022
 30
0.0
 10
865.9682169131073
 20
714.378104071696
 30
0.0
 10
865.7896377905589
 20
714.3282744673847
 30
0.0
 10
865.606217468983
 20
714.2938199404806
 30
0.0
 10
865.4188889297175
 20
714.2696557154411
 30
0.0
 10
865.2922567809603
 20
714.267812332869
 30
0.0
 10
865.2286112789893
 20
714.2668858461096
 30
0.0
  0
LINE
  5
8C
330
1F
100
AcDbEntity
  8
0
  6
Continuous
 62
     7
370
    25
100
AcDbLine
 10
881.5699574328
 20
714.4720140512
 30
0.0
 11
876.2975215354
 21
720.7540653333
 31
0.0
  0
LINE
  5
8D
330
1F
100
AcDbEntity
  8
0
  6
Continuous
 62
     7
370
    25
100
AcDbLine
 10
881.7334189713
 20
714.4720140512
 30
0.0
 11
881.5699574328
 21
714.4720140512
 31
0.0
  0
LINE
  5
8E
330
1F
100
AcDbEntity
  8
0
  6
Continuous
 62
     7
370
    25
100
AcDbLine
 10
881.7334189713
 20
722.4720140512
 30
0.0
 11
881.7334189713
 21
714.4720140512
 31
0.0
  0
LINE
  5
8F
330
1F
100
AcDbEntity
  8
0
  6
Continuous
 62
     7
370
    25
100
AcDbLine
 10
881.0154702533
 20
722.4720140512
 30
0.0
 11
881.7334189713
 21
722.4720140512
 31
0.0
  0
LINE
  5
90
330
1F
100
AcDbEntity
  8
0
  6
Continuous
 62
     7
370
    25
100
AcDbLine
 10
881.0154702533
 20
716.1755396923
 30
0.0
 11
881.0154702533
 21
722.4720140512
 31
0.0
  0
LINE
  5
91
330
1F
100
AcDbEntity
  8
0
  6
Continuous
 62
     7
370
    25
100
AcDbLine
 10
875.7302138431
 20
722.4720140512
 30
0.0
 11
881.0154702533
 21
716.1755396923
 31
0.0
  0
LINE
  5
92
330
1F
100
AcDbEntity
  8
0
  6
Continuous
 62
     7
370
    25
100
AcDbLine
 10
875.5795728175
 20
722.4720140512
 30
0.0
 11
875.7302138431
 21
722.4720140512
 31
0.0
  0
LINE
  5
93
330
1F
100
AcDbEntity
  8
0
  6
Continuous
 62
     7
370
    25
100
AcDbLine
 10
875.5795728175
 20
714.4720140512
 30
0.0
 11
875.5795728175
 21
722.4720140512
 31
0.0
  0
LINE
  5
94
330
1F
100
AcDbEntity
  8
0
  6
Continuous
 62
     7
370
    25
100
AcDbLine
 10
876.2975215354
 20
714.4720140512
 30
0.0
 11
875.5795728175
 21
714.4720140512
 31
0.0
  0
LINE
  5
95
330
1F
100
AcDbEntity
  8
0
  6
Continuous
 62
     7
370
    25
100
AcDbLine
 10
876.2975215354
 20
720.7540653333
 30
0.0
 11
876.2975215354
 21
714.4720140512
 31
0.0
  0
SPLINE
  5
96
330
1F
100
AcDbEntity
  8
0
  6
Continuous
 62
     7
370
    25
100
AcDbSpline
210
0.0
220
0.0
230
1.0
 70
     8
 71
     3
 72
    23
 73
    19
 74
     0
 42
0.00000001
 43
0.00000001
 40
0.0
 40
0.0
 40
0.0
 40
0.0
 40
0.0611602766365183
 40
0.1203345577262035
 40
0.1781802550631274
 40
0.2352351259863653
 40
0.2926829614441813
 40
0.3511862482150811
 40
0.4104566095096931
 40
0.4717198544629945
 40
0.5337612027725904
 40
0.5957390238870962
 40
0.6578875151248859
 40
0.7212951802914637
 40
0.7868225145418914
 40
0.8546861538286868
 40
0.9254779862699997
 40
1.0
 40
1.0
 40
1.0
 40
1.0
 10
888.5026497405278
 20
716.7428473845712
 30
0.0
 10
888.5004169496173
 20
716.6647516768641
 30
0.0
 10
888.4960238709479
 20
716.5110961840495
 30
0.0
 10
888.4636125068411
 20
716.2853701622198
 30
0.0
 10
888.4087345480046
 20
716.0696559985333
 30
0.0
 10
888.3331433563139
 20
715.8625584380665
 30
0.0
 10
888.2344866372321
 20
715.664478130705
 30
0.0
 10
888.1144227187601
 20
715.4751906701644
 30
0.0
 10
887.9712648590508
 20
715.2965979144774
 30
0.0
 10
887.8111211585893
 20
715.1267153473848
 30
0.0
 10
887.6299505403294
 20
714.9739661191796
 30
0.0
 10
887.4344859576494
 20
714.8379302181937
 30
0.0
 10
887.2222657978924
 20
714.7260535047869
 30
0.0
 10
886.9967755258549
 20
714.6320740270662
 30
0.0
 10
886.755485660451
 20
714.5602861448604
 30
0.0
 10
886.4994797007714
 20
714.5100631188049
 30
0.0
 10
886.2289784394343
 20
714.4762230342366
 30
0.0
 10
886.0433561511793
 20
714.4734408516196
 30
0.0
 10
885.9481625610406
 20
714.4720140512378
 30
0.0
  0
SPLINE
  5
97
330
1F
100
AcDbEntity
  8
0
  6
Continuous
 62
     7
370
    25
100
AcDbSpline
210
0.0
220
0.0
230
1.0
 70
     8
 71
     3
 72
    19
 73
    15
 74
     0
 42
0.00000001
 43
0.00000001
 40
0.0
 40
0.0
 40
0.0
 40
0.0
 40
0.1060574933033959
 40
0.2029142570846112
 40
0.2903001653958382
 40
0.3702225656250411
 40
0.44638372077097
 40
0.5213968999648272
 40
0.5982910828464555
 40
0.6761424688569269
 40
0.7555286995560194
 40
0.8348871724576595
 40
0.9166460487466405
 40
1.0
 40
1.0
 40
1.0
 40
1.0
 10
886.9625856379636
 20
718.787719179443
 30
0.0
 10
887.0534666153231
 20
718.752827753293
 30
0.0
 10
887.2273444379045
 20
718.6860718118189
 30
0.0
 10
887.4666267520347
 20
718.5680478941114
 30
0.0
 10
887.6727863977402
 20
718.439677356074
 30
0.0
 10
887.8474084457063
 20
718.2994902700311
 30
0.0
 10
887.9967516569444
 20
718.1483844167966
 30
0.0
 10
888.1271583805394
 20
717.9841441556575
 30
0.0
 10
888.2384300929073
 20
717.8046269947948
 30
0.0
 10
888.3337739182
 20
717.6117046282523
 30
0.0
 10
888.4081710748314
 20
717.4073469862938
 30
0.0
 10
888.4638874276766
 20
717.1934709266426
 30
0.0
 10
888.4958130257013
 20
716.9708433719127
 30
0.0
 10
888.5003562057657
 20
716.8193339334246
 30
0.0
 10
888.5026497405278
 20
716.7428473845712
 30
0.0
  0
SPLINE
  5
98
330
1F
100
AcDbEntity
  8
0
  6
Continuous
 62
     7
370
    25
100
AcDbSpline
210
0.0
220
0.0
230
1.0
 70
     8
 71
     3
 72
    15
 73
    11
 74
     0
 42
0.00000001
 43
0.00000001
 40
0.0
 40
0.0
 40
0.0
 40
0.0
 40
0.1305691070873111
 40
0.2565806086940807
 40
0.380551616803684
 40
0.5036229172007103
 40
0.6257393231697889
 40
0.7475485819596296
 40
0.8717661185648695
 40
1.0
 40
1.0
 40
1.0
 40
1.0
 10
887.8872651251431
 20
720.489642256366
 30
0.0
 10
887.8847663401316
 20
720.4012935576736
 30
0.0
 10
887.879855991937
 20
720.2276800330542
 30
0.0
 10
887.8329011134621
 20
719.9737506404057
 30
0.0
 10
887.7593910141717
 20
719.7320335688005
 30
0.0
 10
887.6572075875113
 20
719.5034109735617
 30
0.0
 10
887.5244030247727
 20
719.2930484292289
 30
0.0
 10
887.3670125821096
 20
719.099248963983
 30
0.0
 10
887.1771227478446
 20
718.9302179765659
 30
0.0
 10
887.034852485015
 20
718.8357199135929
 30
0.0
 10
886.9625856379636
 20
718.787719179443
 30
0.0
  0
SPLINE
  5
99
330
1F
100
AcDbEntity
  8
0
  6
Continuous
 62
     7
370
    25
100
AcDbSpline
210
0.0
220
0.0
230
1.0
 70
     8
 71
     3
 72
    23
 73
    19
 74
     0
 42
0.00000001
 43
0.00000001
 40
0.0
 40
0.0
 40
0.0
 40
0.0
 40
0.0625940971873324
 40
0.1213229386347503
 40
0.1766801421977653
 40
0.2283650957096768
 40
0.276868445836805
 40
0.3218791276660436
 40
0.3640986251098913
 40
0.4033556962426992
 40
0.4779679481633717
 40
0.5505354613647753
 40
0.6235844567403213
 40
0.698174882264204
 40
0.7733536703408735
 40
0.8472811254977314
 40
0.9228183395566674
 40
1.0
 40
1.0
 40
1.0
 40
1.0
 10
885.3455984584765
 20
722.4720140512378
 30
0.0
 10
885.4220064086201
 20
722.4716123360339
 30
0.0
 10
885.5701040322461
 20
722.4708337119904
 30
0.0
 10
885.7854627564261
 20
722.4587579836544
 30
0.0
 10
885.9871743236046
 20
722.4422924525032
 30
0.0
 10
886.1752972318343
 20
722.4161665264594
 30
0.0
 10
886.3497445515853
 20
722.3846424644128
 30
0.0
 10
886.5110420081289
 20
722.3464668847778
 30
0.0
 10
886.6586766875994
 20
722.300691767843
 30
0.0
 10
886.8349343708134
 20
722.227900267883
 30
0.0
 10
887.0358958813937
 20
722.1197330259408
 30
0.0
 10
887.2534922075719
 20
721.9598963056002
 30
0.0
 10
887.4395590403932
 20
721.7643935327536
 30
0.0
 10
887.5999849083724
 20
721.5438617489266
 30
0.0
 10
887.7275303246267
 20
721.30126569921
 30
0.0
 10
887.8198030042054
 20
721.0423875534328
 30
0.0
 10
887.8782210050252
 20
720.7705664290453
 30
0.0
 10
887.8842288546616
 20
720.5839534510363
 30
0.0
 10
887.8872651251431
 20
720.489642256366
 30
0.0
  0
LINE
  5
9A
330
1F
100
AcDbEntity
  8
0
  6
Continuous
 62
     7
370
    25
100
AcDbLine
 10
883.7847010226
 20
722.4720140512
 30
0.0
 11
885.3455984585
 21
722.4720140512
 31
0.0
  0
LINE
  5
9B
330
1F
100
AcDbEntity
  8
0
  6
Continuous
 62
     7
370
    25
100
AcDbLine
 10
883.7847010226
 20
714.4720140512
 30
0.0
 11
883.7847010226
 21
722.4720140512
 31
0.0
  0
LINE
  5
9C
330
1F
100
AcDbEntity
  8
0
  6
Continuous
 62
     7
370
    25
100
AcDbLine
 10
885.948162561
 20
714.4720140512
 30
0.0
 11
883.7847010226
 21
714.4720140512
 31
0.0
  0
LINE
  5
9D
330
1F
100
AcDbEntity
  8
0
  6
Continuous
 62
     7
370
    25
100
AcDbLine
 10
883.7847010226
 20
703.999257641
 30
0.0
 11
883.7847010226
 21
700.1386807179
 31
0.0
  0
LINE
  5
9E
330
1F
100
AcDbEntity
  8
0
  6
Continuous
 62
     7
370
    25
100
AcDbLine
 10
887.49463692
 20
700.1386807179
 30
0.0
 11
883.7847010226
 21
703.999257641
 31
0.0
  0
LINE
  5
9F
330
1F
100
AcDbEntity
  8
0
  6
Continuous
 62
     7
370
    25
100
AcDbLine
 10
888.4513676892
 20
700.1386807179
 30
0.0
 11
887.49463692
 21
700.1386807179
 31
0.0
  0
LINE
  5
A0
330
1F
100
AcDbEntity
  8
0
  6
Continuous
 62
     7
370
    25
100
AcDbLine
 10
884.212585638
 20
704.5489371282
 30
0.0
 11
888.4513676892
 21
700.1386807179
 31
0.0
  0
LINE
  5
A1
330
1F
100
AcDbEntity
  8
0
  6
Continuous
 62
     7
370
    25
100
AcDbLine
 10
888.1436753816
 20
708.1386807179
 30
0.0
 11
884.212585638
 21
704.5489371282
 31
0.0
  0
LINE
  5
A2
330
1F
100
AcDbEntity
  8
0
  6
Continuous
 62
     7
370
    25
100
AcDbLine
 10
887.11963692
 20
708.1386807179
 30
0.0
 11
888.1436753816
 21
708.1386807179
 31
0.0
  0
LINE
  5
A3
330
1F
100
AcDbEntity
  8
0
  6
Continuous
 62
     7
370
    25
100
AcDbLine
 10
883.7847010226
 20
705.0922063589
 30
0.0
 11
887.11963692
 21
708.1386807179
 31
0.0
  0
LINE
  5
A4
330
1F
100
AcDbEntity
  8
0
  6
Continuous
 62
     7
370
    25
100
AcDbLine
 10
883.7847010226
 20
708.1386807179
 30
0.0
 11
883.7847010226
 21
705.0922063589
 31
0.0
  0
LINE
  5
A5
330
1F
100
AcDbEntity
  8
0
  6
Continuous
 62
     7
370
    25
100
AcDbLine
 10
883.0667523046
 20
708.1386807179
 30
0.0
 11
883.7847010226
 21
708.1386807179
 31
0.0
  0
LINE
  5
A6
330
1F
100
AcDbEntity
  8
0
  6
Continuous
 62
     7
370
    25
100
AcDbLine
 10
883.0667523046
 20
700.1386807179
 30
0.0
 11
883.0667523046
 21
708.1386807179
 31
0.0
  0
LINE
  5
A7
330
1F
100
AcDbEntity
  8
0
  6
Continuous
 62
     7
370
    25
100
AcDbLine
 10
883.7847010226
 20
700.1386807179
 30
0.0
 11
883.0667523046
 21
700.1386807179
 31
0.0
  0
SPLINE
  5
A8
330
1F
100
AcDbEntity
  8
0
  6
Continuous
 62
     7
370
    25
100
AcDbSpline
210
0.0
220
0.0
230
1.0
 70
     8
 71
     3
 72
    31
 73
    27
 74
     0
 42
0.00000001
 43
0.00000001
 40
0.0
 40
0.0
 40
0.0
 40
0.0
 40
0.0337881161627101
 40
0.0671939323738809
 40
0.0998624108568255
 40
0.1325666121262597
 40
0.1651511732547859
 40
0.1979131873557931
 40
0.2313190035669624
 40
0.2650832782673722
 40
0.2992553087581152
 40
0.3343985665049789
 40
0.3699428235093068
 40
0.4062835607000604
 40
0.4440638196985071
 40
0.4829977068727754
 40
0.5233544466133044
 40
0.5655365896041475
 40
0.6096129240658184
 40
0.6563908113764169
 40
0.7058854949364561
 40
0.7583245002617315
 40
0.81383178294115
 40
0.872794559039389
 40
0.9347222295400733
 40
1.0
 40
1.0
 40
1.0
 40
1.0
 10
878.8696369200148
 20
708.3438089230327
 30
0.0
 10
878.9332608708362
 20
708.3426939169168
 30
0.0
 10
879.0597888911693
 20
708.3404765205642
 30
0.0
 10
879.2468526060171
 20
708.3191646519136
 30
0.0
 10
879.4295947356504
 20
708.283802084835
 30
0.0
 10
879.6072361955441
 20
708.2336970000747
 30
0.0
 10
879.7812361646133
 20
708.1715354534246
 30
0.0
 10
879.9502336678033
 20
708.0936220428893
 30
0.0
 10
880.1152784258423
 20
708.0029274889591
 30
0.0
 10
880.2737476544593
 20
707.896358626544
 30
0.0
 10
880.4273810609645
 20
707.777541995237
 30
0.0
 10
880.5724049763294
 20
707.6432273236866
 30
0.0
 10
880.7088326012378
 20
707.494770822501
 30
0.0
 10
880.8383761564064
 20
707.3337608479031
 30
0.0
 10
880.957360378576
 20
707.1571092254264
 30
0.0
 10
881.0706710808284
 20
706.9678884029939
 30
0.0
 10
881.1720928771751
 20
706.7627892834654
 30
0.0
 10
881.2697721347263
 20
706.5452339284001
 30
0.0
 10
881.3540852472731
 20
706.3092027082706
 30
0.0
 10
881.4301223793241
 20
706.0560261128006
 30
0.0
 10
881.4915600217811
 20
705.7827136857073
 30
0.0
 10
881.5427355014111
 20
705.4906994107471
 30
0.0
 10
881.5823809778583
 20
705.1789108776267
 30
0.0
 10
881.6112555883234
 20
704.8480164421712
 30
0.0
 10
881.6265083541323
 20
704.4977984064209
 30
0.0
 10
881.6293808140332
 20
704.258351894016
 30
0.0
 10
881.6308548687329
 20
704.1354755896994
 30
0.0
  0
SPLINE
  5
A9
330
1F
100
AcDbEntity
  8
0
  6
Continuous
 62
     7
370
    25
100
AcDbSpline
210
0.0
220
0.0
230
1.0
 70
     8
 71
     3
 72
    31
 73
    27
 74
     0
 42
0.00000001
 43
0.00000001
 40
0.0
 40
0.0
 40
0.0
 40
0.0
 40
0.0685946222587427
 40
0.1332460424433027
 40
0.1943125864682572
 40
0.251279223116966
 40
0.304513439256347
 40
0.3542349066533265
 40
0.4004805887739901
 40
0.443410754938492
 40
0.4840148686163447
 40
0.5232523007732045
 40
0.5610423727283611
 40
0.5979002393644002
 40
0.633518488856196
 40
0.6683143511696533
 40
0.7024956712863833
 40
0.7366853535134587
 40
0.7702931693607886
 40
0.8034372550192498
 40
0.8359129516660302
 40
0.8684602457892912
 40
0.9008465382431832
 40
0.9334665246307086
 40
0.9662575752981225
 40
1.0
 40
1.0
 40
1.0
 40
1.0
 10
876.1949574328354
 20
704.1354755896994
 30
0.0
 10
876.1957071886239
 20
704.2636981902348
 30
0.0
 10
876.1971636000499
 20
704.5127724399432
 30
0.0
 10
876.2133657050607
 20
704.8757087646675
 30
0.0
 10
876.2402807732051
 20
705.2161894252278
 30
0.0
 10
876.2771661968629
 20
705.53423071903
 30
0.0
 10
876.3220530088025
 20
705.8299147522132
 30
0.0
 10
876.3819741210341
 20
706.1024513399534
 30
0.0
 10
876.4501176698683
 20
706.3531018693548
 30
0.0
 10
876.5290946888637
 20
706.5826836944426
 30
0.0
 10
876.6182096351913
 20
706.7942898727791
 30
0.0
 10
876.7152022311275
 20
706.991833190022
 30
0.0
 10
876.8239217612386
 20
707.1750147496557
 30
0.0
 10
876.938154705072
 20
707.3467582706156
 30
0.0
 10
877.062525154507
 20
707.5042524301409
 30
0.0
 10
877.193493818432
 20
707.6497213730405
 30
0.0
 10
877.3361723927569
 20
707.7798030883863
 30
0.0
 10
877.485710697382
 20
707.8983089224093
 30
0.0
 10
877.6434626159916
 20
708.0021934290882
 30
0.0
 10
877.8049315671761
 20
708.0936968316383
 30
0.0
 10
877.9712289519897
 20
708.1718679567986
 30
0.0
 10
878.1428087986135
 20
708.2333318101919
 30
0.0
 10
878.3181289309327
 20
708.2840994599578
 30
0.0
 10
878.4978022262271
 20
708.3188170545785
 30
0.0
 10
878.6821253437959
 20
708.3406614168399
 30
0.0
 10
878.8065400519059
 20
708.3427498002461
 30
0.0
 10
878.8696369200148
 20
708.3438089230327
 30
0.0
  0
SPLINE
  5
AA
330
1F
100
AcDbEntity
  8
0
  6
Continuous
 62
     7
370
    25
100
AcDbSpline
210
0.0
220
0.0
230
1.0
 70
     8
 71
     3
 72
    31
 73
    27
 74
     0
 42
0.00000001
 43
0.00000001
 40
0.0
 40
0.0
 40
0.0
 40
0.0
 40
0.0337871463469916
 40
0.0666216577242934
 40
0.099284878095972
 40
0.1313611650426509
 40
0.1635851875953443
 40
0.1961039269870688
 40
0.2289022543238176
 40
0.2621580559050074
 40
0.2959912222583156
 40
0.3302178457248008
 40
0.3650598258919547
 40
0.4009507373401076
 40
0.4376203820767376
 40
0.4757075294370917
 40
0.5153806916250488
 40
0.5564135414931642
 40
0.5997648298727314
 40
0.6464241555840868
 40
0.6964314445175671
 40
0.749781517801558
 40
0.8065733069755326
 40
0.8674355315654001
 40
0.9318867532508747
 40
1.0
 40
1.0
 40
1.0
 40
1.0
 10
878.8696369200148
 20
699.9335525127764
 30
0.0
 10
878.8065418023343
 20
699.9346184681108
 30
0.0
 10
878.6821305457274
 20
699.9367203239677
 30
0.0
 10
878.497782144723
 20
699.9584659959407
 30
0.0
 10
878.3188508454317
 20
699.9934271461403
 30
0.0
 10
878.1444536933457
 20
700.0423793840628
 30
0.0
 10
877.9736959445829
 20
700.1022990099267
 30
0.0
 10
877.8089044322269
 20
700.1803645724478
 30
0.0
 10
877.6482468695053
 20
700.2702710157757
 30
0.0
 10
877.4921518843212
 20
700.3726605504918
 30
0.0
 10
877.3435526590872
 20
700.4899672547853
 30
0.0
 10
877.2016129897985
 20
700.6197142003543
 30
0.0
 10
877.0698986604341
 20
700.7651391404628
 30
0.0
 10
876.9473064418801
 20
700.9239458218518
 30
0.0
 10
876.8307942402898
 20
701.0946732328981
 30
0.0
 10
876.7236185298458
 20
701.2796523712876
 30
0.0
 10
876.6244851491189
 20
701.4781497666925
 30
0.0
 10
876.5338714561623
 20
701.6914478482356
 30
0.0
 10
876.4535316538424
 20
701.922659111915
 30
0.0
 10
876.3825654638688
 20
702.1744286627779
 30
0.0
 10
876.3265331039373
 20
702.4489786881815
 30
0.0
 10
876.2785720631764
 20
702.744104098708
 30
0.0
 10
876.239887759077
 20
703.061073082447
 30
0.0
 10
876.213477872635
 20
703.4000577183028
 30
0.0
 10
876.197154866839
 20
703.7608467672769
 30
0.0
 10
876.1957032773073
 20
704.0083205371435
 30
0.0
 10
876.1949574328354
 20
704.1354755896994
 30
0.0
  0
SPLINE
  5
AB
330
1F
100
AcDbEntity
  8
0
  6
Continuous
 62
     7
370
    25
100
AcDbSpline
210
0.0
220
0.0
230
1.0
 70
     8
 71
     3
 72
    31
 73
    27
 74
     0
 42
0.00000001
 43
0.00000001
 40
0.0
 40
0.0
 40
0.0
 40
0.0
 40
0.0650632896172782
 40
0.1267731664665232
 40
0.1855157632260795
 40
0.2407646791677159
 40
0.2929797960235989
 40
0.3422503727797677
 40
0.3889192861856595
 40
0.4327756640583108
 40
0.4746284326311178
 40
0.5147746906379521
 40
0.5536058934984427
 40
0.5914264064311727
 40
0.6280281199460672
 40
0.6638036341103204
 40
0.6989843361316637
 40
0.7335914893067036
 40
0.7676284691511377
 40
0.8012083477865926
 40
0.8342638397266235
 40
0.8669806947287754
 40
0.8997197415181608
 40
0.9327019124985372
 40
0.9661758834327498
 40
1.0
 40
1.0
 40
1.0
 40
1.0
 10
881.6308548687329
 20
704.1354755896994
 30
0.0
 10
881.6293655326325
 20
704.0131352286916
 30
0.0
 10
881.6264636219776
 20
703.7747600244428
 30
0.0
 10
881.6114265779371
 20
703.4261177951404
 30
0.0
 10
881.5818068495286
 20
703.0969794104581
 30
0.0
 10
881.54475544768
 20
702.7865554962667
 30
0.0
 10
881.4934389608835
 20
702.4961380817913
 30
0.0
 10
881.4303414380236
 20
702.224722199579
 30
0.0
 10
881.360283557288
 20
701.971135750058
 30
0.0
 10
881.2738040278942
 20
701.7374561806638
 30
0.0
 10
881.1791509756719
 20
701.5204236712586
 30
0.0
 10
881.0761676701281
 20
701.3177559036478
 30
0.0
 10
880.9658366390753
 20
701.1276615203801
 30
0.0
 10
880.845633793354
 20
700.9516620988232
 30
0.0
 10
880.717511706048
 20
700.7885108826566
 30
0.0
 10
880.5787281888067
 20
700.6410877451674
 30
0.0
 10
880.4331954228594
 20
700.5058404949659
 30
0.0
 10
880.2791099009532
 20
700.3854939179096
 30
0.0
 10
880.1181692124226
 20
700.2801572215978
 30
0.0
 10
879.9536913223086
 20
700.1859541349971
 30
0.0
 10
879.7827578746577
 20
700.109993689169
 30
0.0
 10
879.6092425541331
 20
700.0447707383626
 30
0.0
 10
879.4306634315845
 20
699.9949411340515
 30
0.0
 10
879.2472431100086
 20
699.9604866071472
 30
0.0
 10
879.0599145707431
 20
699.9363223821077
 30
0.0
 10
878.933282421986
 20
699.9344789995356
 30
0.0
 10
878.8696369200148
 20
699.9335525127764
 30
0.0
  0
CIRCLE
  5
AC
330
1F
100
AcDbEntity
  8
0
  6
Continuous
 62
     7
370
    25
100
AcDbCircle
 10
951.4872798434
 20
785.6360078278
 30
0.0
 40
70.20000000000005
  0
ARC
  5
AD
330
1F
100
AcDbEntity
  8
0
  6
Continuous
 62
     7
370
    25
100
AcDbCircle
 10
914.1756451878
 20
875.7142622476
 30
0.0
 40
12.50000000000007
100
AcDbArc
 50
340.8943462161
 51
244.1056537839
  0
ARC
  5
AE
330
1F
100
AcDbEntity
  8
0
  6
Continuous
 62
     7
370
    25
100
AcDbCircle
 10
915.1323537688
 20
873.4045634164
 30
0.0
 40
11.0
100
AcDbArc
 50
234.3213685251
 51
350.6786314749
  0
ARC
  5
AF
330
1F
100
AcDbEntity
  8
0
  6
Continuous
 62
     7
370
    25
100
AcDbCircle
 10
861.4090254236
 20
822.9476424834
 30
0.0
 40
12.49999999999997
100
AcDbArc
 50
25.8943462161
 51
289.1056537839
  0
ARC
  5
B0
330
1F
100
AcDbEntity
  8
0
  6
Continuous
 62
     7
370
    25
100
AcDbCircle
 10
863.7187242549
 20
821.9909339025
 30
0.0
 40
11.00000000000001
100
AcDbArc
 50
279.3213685251
 51
35.6786314749
  0
ARC
  5
B1
330
1F
100
AcDbEntity
  8
0
  6
Continuous
 62
     7
370
    25
100
AcDbCircle
 10
861.4090254236
 20
748.3243731722
 30
0.0
 40
12.50000000000004
100
AcDbArc
 50
70.8943462161
 51
334.1056537839
  0
ARC
  5
B2
330
1F
100
AcDbEntity
  8
0
  6
Continuous
 62
     7
370
    25
100
AcDbCircle
 10
863.7187242549
 20
749.2810817531
 30
0.0
 40
11.00000000000004
100
AcDbArc
 50
324.3213685251
 51
80.6786314749
  0
ARC
  5
B3
330
1F
100
AcDbEntity
  8
0
  6
Continuous
 62
     7
370
    25
100
AcDbCircle
 10
914.1756451878
 20
695.5577534079
 30
0.0
 40
12.50000000000007
100
AcDbArc
 50
115.8943462161
 51
19.1056537839
  0
ARC
  5
B4
330
1F
100
AcDbEntity
  8
0
  6
Continuous
 62
     7
370
    25
100
AcDbCircle
 10
915.1323537688
 20
697.8674522392
 30
0.0
 40
11.00000000000004
100
AcDbArc
 50
9.3213685251
 51
125.6786314749
  0
ARC
  5
B5
330
1F
100
AcDbEntity
  8
0
  6
Continuous
 62
     7
370
    25
100
AcDbCircle
 10
988.798914499
 20
695.5577534079
 30
0.0
 40
12.50000000000009
100
AcDbArc
 50
160.8943462161
 51
64.1056537839
  0
ARC
  5
B6
330
1F
100
AcDbEntity
  8
0
  6
Continuous
 62
     7
370
    25
100
AcDbCircle
 10
987.8422059181
 20
697.8674522392
 30
0.0
 40
11.00000000000011
100
AcDbArc
 50
54.3213685251
 51
170.6786314749
  0
ARC
  5
B7
330
1F
100
AcDbEntity
  8
0
  6
Continuous
 62
     7
370
    25
100
AcDbCircle
 10
1041.5655342633
 20
748.3243731722
 30
0.0
 40
12.49999999999997
100
AcDbArc
 50
205.8943462161
 51
109.1056537839
  0
ARC
  5
B8
330
1F
100
AcDbEntity
  8
0
  6
Continuous
 62
     7
370
    25
100
AcDbCircle
 10
1039.255835432
 20
749.2810817531
 30
0.0
 40
11.00000000000001
100
AcDbArc
 50
99.3213685251
 51
215.6786314749
  0
ARC
  5
B9
330
1F
100
AcDbEntity
  8
0
  6
Continuous
 62
     7
370
    25
100
AcDbCircle
 10
1041.5655342633
 20
822.9476424834
 30
0.0
 40
12.5
100
AcDbArc
 50
250.8943462161
 51
154.1056537839
  0
ARC
  5
BA
330
1F
100
AcDbEntity
  8
0
  6
Continuous
 62
     7
370
    25
100
AcDbCircle
 10
1039.255835432
 20
821.9909339025
 30
0.0
 40
11.00000000000013
100
AcDbArc
 50
144.3213685251
 51
260.6786314749
  0
ARC
  5
BB
330
1F
100
AcDbEntity
  8
0
  6
Continuous
 62
     7
370
    25
100
AcDbCircle
 10
988.798914499
 20
875.7142622476
 30
0.0
 40
12.49999999999997
100
AcDbArc
 50
295.8943462161
 51
199.1056537839
  0
ARC
  5
BC
330
1F
100
AcDbEntity
  8
0
  6
Continuous
 62
     7
370
    25
100
AcDbCircle
 10
987.8422059181
 20
873.4045634164
 30
0.0
 40
11.0
100
AcDbArc
 50
189.3213685251
 51
305.6786314749
  0
ARC
  5
BD
330
1F
100
AcDbEntity
  8
0
  6
Continuous
 62
     7
370
    25
100
AcDbCircle
 10
856.4872798434
 20
660.5360078278
 30
0.0
 40
5.0
100
AcDbArc
 50
180.0
 51
270.0
  0
LINE
  5
BE
330
1F
100
AcDbEntity
  8
0
  6
Continuous
 62
     7
370
    25
100
AcDbLine
 10
851.4872798434
 20
717.8127079965
 30
0.0
 11
851.4872798434
 21
660.5360078278
 31
0.0
  0
ARC
  5
BF
330
1F
100
AcDbEntity
  8
0
  6
Continuous
 62
     7
370
    25
100
AcDbCircle
 10
846.4872798434
 20
717.8127079965
 30
0.0
 40
5.0
100
AcDbArc
 50
0.0
 51
32.8598803789
  0
ARC
  5
C0
330
1F
100
AcDbEntity
  8
0
  6
Continuous
 62
     7
370
    25
100
AcDbCircle
 10
951.4872798434
 20
785.6360078278
 30
0.0
 40
120.0000000000001
100
AcDbArc
 50
195.971161409
 51
212.8598803789
  0
ARC
  5
C1
330
1F
100
AcDbEntity
  8
0
  6
Continuous
 62
     7
370
    25
100
AcDbCircle
 10
838.0420432317
 20
753.1678959317
 30
0.0
 40
2.000000000000061
100
AcDbArc
 50
105.0
 51
195.971161409
  0
LINE
  5
C2
330
1F
100
AcDbEntity
  8
0
  6
Continuous
 62
     7
370
    25
100
AcDbLine
 10
837.5244051415
 20
755.0997475843
 30
0.0
 11
838.4904709266
 21
755.3586041312
 31
0.0
  0
ARC
  5
C3
330
1F
100
AcDbEntity
  8
0
  6
Continuous
 62
     7
370
    25
100
AcDbCircle
 10
837.9728328364
 20
757.2904557838
 30
0.0
 40
2.000000000000061
100
AcDbArc
 50
285.0
 51
14.0205372609
  0
ARC
  5
C4
330
1F
100
AcDbEntity
  8
0
  6
Continuous
 62
     7
370
    25
100
AcDbCircle
 10
951.4872798434
 20
785.6360078278
 30
0.0
 40
115.0
100
AcDbArc
 50
165.9794627391
 51
194.0205372609
  0
ARC
  5
C5
330
1F
100
AcDbEntity
  8
0
  6
Continuous
 62
     7
370
    25
100
AcDbCircle
 10
837.9728328364
 20
813.9815598718
 30
0.0
 40
2.00000000000003
100
AcDbArc
 50
345.9794627391
 51
75.0
  0
LINE
  5
C6
330
1F
100
AcDbEntity
  8
0
  6
Continuous
 62
     7
370
    25
100
AcDbLine
 10
838.4904709266
 20
815.9134115244
 30
0.0
 11
837.5244051415
 21
816.1722680713
 31
0.0
  0
ARC
  5
C7
330
1F
100
AcDbEntity
  8
0
  6
Continuous
 62
     7
370
    25
100
AcDbCircle
 10
838.0420432317
 20
818.1041197239
 30
0.0
 40
1.999999999999938
100
AcDbArc
 50
164.028838591
 51
255.0
  0
ARC
  5
C8
330
1F
100
AcDbEntity
  8
0
  6
Continuous
 62
     7
370
    25
100
AcDbCircle
 10
951.4872798434
 20
785.6360078278
 30
0.0
 40
120.0
100
AcDbArc
 50
105.971161409
 51
164.028838591
  0
ARC
  5
C9
330
1F
100
AcDbEntity
  8
0
  6
Continuous
 62
     7
370
    25
100
AcDbCircle
 10
919.0191679473
 20
899.0812444396
 30
0.0
 40
2.000000000000032
100
AcDbArc
 50
15.0
 51
105.971161409
  0
LINE
  5
CA
330
1F
100
AcDbEntity
  8
0
  6
Continuous
 62
     7
370
    25
100
AcDbLine
 10
920.9510195999
 20
899.5988825298
 30
0.0
 11
921.2098761469
 21
898.6328167447
 31
0.0
  0
ARC
  5
CB
330
1F
100
AcDbEntity
  8
0
  6
Continuous
 62
     7
370
    25
100
AcDbCircle
 10
923.1417277995
 20
899.1504548349
 30
0.0
 40
2.000000000000032
100
AcDbArc
 50
195.0
 51
284.0205372609
  0
ARC
  5
CC
330
1F
100
AcDbEntity
  8
0
  6
Continuous
 62
     7
370
    25
100
AcDbCircle
 10
951.4872798434
 20
785.6360078278
 30
0.0
 40
115.0000000000001
100
AcDbArc
 50
75.9794627391
 51
104.0205372609
  0
ARC
  5
CD
330
1F
100
AcDbEntity
  8
0
  6
Continuous
 62
     7
370
    25
100
AcDbCircle
 10
979.8328318874
 20
899.1504548349
 30
0.0
 40
2.000000000000061
100
AcDbArc
 50
255.9794627391
 51
345.0
  0
LINE
  5
CE
330
1F
100
AcDbEntity
  8
0
  6
Continuous
 62
     7
370
    25
100
AcDbLine
 10
981.76468354
 20
898.6328167447
 30
0.0
 11
982.023540087
 21
899.5988825298
 31
0.0
  0
ARC
  5
CF
330
1F
100
AcDbEntity
  8
0
  6
Continuous
 62
     7
370
    25
100
AcDbCircle
 10
983.9553917395
 20
899.0812444396
 30
0.0
 40
2.000000000000032
100
AcDbArc
 50
74.028838591
 51
165.0
  0
ARC
  5
D0
330
1F
100
AcDbEntity
  8
0
  6
Continuous
 62
     7
370
    25
100
AcDbCircle
 10
951.4872798434
 20
785.6360078278
 30
0.0
 40
120.0
100
AcDbArc
 50
15.971161409
 51
74.028838591
  0
ARC
  5
D1
330
1F
100
AcDbEntity
  8
0
  6
Continuous
 62
     7
370
    25
100
AcDbCircle
 10
1064.9325164552
 20
818.1041197239
 30
0.0
 40
2.000000000000061
100
AcDbArc
 50
285.0
 51
15.971161409
  0
LINE
  5
D2
330
1F
100
AcDbEntity
  8
0
  6
Continuous
 62
     7
370
    25
100
AcDbLine
 10
1065.4501545454
 20
816.1722680713
 30
0.0
 11
1064.4840887603
 21
815.9134115244
 31
0.0
  0
ARC
  5
D3
330
1F
100
AcDbEntity
  8
0
  6
Continuous
 62
     7
370
    25
100
AcDbCircle
 10
1065.0017268505
 20
813.9815598718
 30
0.0
 40
2.000000000000002
100
AcDbArc
 50
105.0
 51
194.0205372609
  0
ARC
  5
D4
330
1F
100
AcDbEntity
  8
0
  6
Continuous
 62
     7
370
    25
100
AcDbCircle
 10
951.4872798434
 20
785.6360078278
 30
0.0
 40
115.0000000000001
100
AcDbArc
 50
345.9794627391
 51
14.0205372609
  0
ARC
  5
D5
330
1F
100
AcDbEntity
  8
0
  6
Continuous
 62
     7
370
    25
100
AcDbCircle
 10
1065.0017268505
 20
757.2904557838
 30
0.0
 40
2.000000000000002
100
AcDbArc
 50
165.9794627391
 51
255.0
  0
LINE
  5
D6
330
1F
100
AcDbEntity
  8
0
  6
Continuous
 62
     7
370
    25
100
AcDbLine
 10
1064.4840887603
 20
755.3586041312
 30
0.0
 11
1065.4501545454
 21
755.0997475843
 31
0.0
  0
ARC
  5
D7
330
1F
100
AcDbEntity
  8
0
  6
Continuous
 62
     7
370
    25
100
AcDbCircle
 10
1064.9325164552
 20
753.1678959317
 30
0.0
 40
2.000000000000002
100
AcDbArc
 50
344.028838591
 51
75.0
  0
ARC
  5
D8
330
1F
100
AcDbEntity
  8
0
  6
Continuous
 62
     7
370
    25
100
AcDbCircle
 10
951.4872798434
 20
785.6360078278
 30
0.0
 40
120.0
100
AcDbArc
 50
327.1401196211
 51
344.028838591
  0
ARC
  5
D9
330
1F
100
AcDbEntity
  8
0
  6
Continuous
 62
     7
370
    25
100
AcDbCircle
 10
1056.4872798434
 20
717.8127079965
 30
0.0
 40
5.0
100
AcDbArc
 50
147.1401196211
 51
180.0
  0
LINE
  5
DA
330
1F
100
AcDbEntity
  8
0
  6
Continuous
 62
     7
370
    25
100
AcDbLine
 10
1051.4872798434
 20
660.5360078278
 30
0.0
 11
1051.4872798434
 21
717.8127079965
 31
0.0
  0
ARC
  5
DB
330
1F
100
AcDbEntity
  8
0
  6
Continuous
 62
     7
370
    25
100
AcDbCircle
 10
1046.4872798434
 20
660.5360078278
 30
0.0
 40
5.0
100
AcDbArc
 50
270.0
 51
0.0
  0
LINE
  5
DC
330
1F
100
AcDbEntity
  8
0
  6
Continuous
 62
     7
370
    25
100
AcDbLine
 10
984.5455652557
 20
655.5360078278
 30
0.0
 11
1046.4872798434
 21
655.5360078278
 31
0.0
  0
ARC
  5
DD
330
1F
100
AcDbEntity
  8
0
  6
Continuous
 62
     7
370
    25
100
AcDbCircle
 10
984.5455652557
 20
657.5360078278
 30
0.0
 40
2.0
100
AcDbArc
 50
180.0
 51
270.0
  0
LINE
  5
DE
330
1F
100
AcDbEntity
  8
0
  6
Continuous
 62
     7
370
    25
100
AcDbLine
 10
982.5455652557
 20
657.5360078278
 30
0.0
 11
982.5455652557
 21
669.4616036779
 31
0.0
  0
ARC
  5
DF
330
1F
100
AcDbEntity
  8
0
  6
Continuous
 62
     7
370
    25
100
AcDbCircle
 10
980.5455652557
 20
669.4616036779
 30
0.0
 40
2.000000000000061
100
AcDbArc
 50
0.0
 51
15.0
  0
LINE
  5
E0
330
1F
100
AcDbEntity
  8
0
  6
Continuous
 62
     7
370
    25
100
AcDbLine
 10
982.4774169083
 20
669.9792417681
 30
0.0
 11
981.76468354
 21
672.6391989109
 31
0.0
  0
ARC
  5
E1
330
1F
100
AcDbEntity
  8
0
  6
Continuous
 62
     7
370
    25
100
AcDbCircle
 10
979.8328318874
 20
672.1215608207
 30
0.0
 40
2.000000000000061
100
AcDbArc
 50
15.0
 51
104.0205372609
  0
ARC
  5
E2
330
1F
100
AcDbEntity
  8
0
  6
Continuous
 62
     7
370
    25
100
AcDbCircle
 10
951.4872798434
 20
785.6360078278
 30
0.0
 40
115.0000000000001
100
AcDbArc
 50
255.9794627391
 51
284.0205372609
  0
ARC
  5
E3
330
1F
100
AcDbEntity
  8
0
  6
Continuous
 62
     7
370
    25
100
AcDbCircle
 10
923.1417277995
 20
672.1215608207
 30
0.0
 40
2.00000000000003
100
AcDbArc
 50
75.9794627391
 51
165.0
  0
LINE
  5
E4
330
1F
100
AcDbEntity
  8
0
  6
Continuous
 62
     7
370
    25
100
AcDbLine
 10
921.2098761469
 20
672.6391989109
 30
0.0
 11
920.4971427786
 21
669.9792417681
 31
0.0
  0
ARC
  5
E5
330
1F
100
AcDbEntity
  8
0
  6
Continuous
 62
     7
370
    25
100
AcDbCircle
 10
922.4289944311
 20
669.4616036779
 30
0.0
 40
2.0
100
AcDbArc
 50
165.0
 51
180.0
  0
LINE
  5
E6
330
1F
100
AcDbEntity
  8
0
  6
Continuous
 62
     7
370
    25
100
AcDbLine
 10
920.4289944311
 20
669.4616036779
 30
0.0
 11
920.4289944311
 21
657.5360078278
 31
0.0
  0
ARC
  5
E7
330
1F
100
AcDbEntity
  8
0
  6
Continuous
 62
     7
370
    25
100
AcDbCircle
 10
918.4289944311
 20
657.5360078278
 30
0.0
 40
2.0
100
AcDbArc
 50
270.0
 51
0.0
  0
LINE
  5
E8
330
1F
100
AcDbEntity
  8
0
  6
Continuous
 62
     7
370
    25
100
AcDbLine
 10
856.4872798434
 20
655.5360078278
 30
0.0
 11
918.4289944311
 21
655.5360078278
 31
0.0
  0
LINE
  5
E9
330
1F
100
AcDbEntity
  8
0
  6
Continuous
 62
     7
370
    25
100
AcDbLine
 10
858.8616240995
 20
714.4720140512
 30
0.0
 11
858.8616240995
 21
721.6515012307
 31
0.0
  0
LINE
  5
EA
330
1F
100
AcDbEntity
  8
0
  6
Continuous
 62
     7
370
    25
100
AcDbLine
 10
859.5795728175
 20
714.4720140512
 30
0.0
 11
858.8616240995
 21
714.4720140512
 31
0.0
  0
LINE
  5
EB
330
1F
100
AcDbEntity
  8
0
  6
Continuous
 62
     7
370
    25
100
AcDbLine
 10
859.5795728175
 20
722.4720140512
 30
0.0
 11
859.5795728175
 21
714.4720140512
 31
0.0
  0
LINE
  5
EC
330
1F
100
AcDbEntity
  8
0
  6
Continuous
 62
     7
370
    25
100
AcDbLine
 10
858.1004061508
 20
722.4720140512
 30
0.0
 11
859.5795728175
 21
722.4720140512
 31
0.0
  0
LINE
  5
ED
330
1F
100
AcDbEntity
  8
0
  6
Continuous
 62
     7
370
    25
100
AcDbLine
 10
857.6308548687
 20
721.6515012307
 30
0.0
 11
858.1004061508
 21
722.4720140512
 31
0.0
  0
LINE
  5
EE
330
1F
100
AcDbEntity
  8
0
  6
Continuous
 62
     7
370
    25
100
AcDbLine
 10
858.8616240995
 20
721.6515012307
 30
0.0
 11
857.6308548687
 21
721.6515012307
 31
0.0
  0
LINE
  5
EF
330
1F
100
AcDbEntity
  8
0
  6
Continuous
 62
     7
370
    25
100
AcDbLine
 10
857.8359830739
 20
689.4976550769
 30
0.0
 11
857.8359830739
 21
685.8053473846
 31
0.0
  0
LINE
  5
F0
330
1F
100
AcDbEntity
  8
0
  6
Continuous
 62
     7
370
    25
100
AcDbLine
 10
858.4080984585
 20
689.4976550769
 30
0.0
 11
857.8359830739
 21
689.4976550769
 31
0.0
  0
SPLINE
  5
F1
330
1F
100
AcDbEntity
  8
0
  6
Continuous
 62
     7
370
    25
100
AcDbSpline
210
0.0
220
0.0
230
1.0
 70
     8
 71
     3
 72
    15
 73
    11
 74
     0
 42
0.00000001
 43
0.00000001
 40
0.0
 40
0.0
 40
0.0
 40
0.0
 40
0.0751731173762211
 40
0.1647462575117996
 40
0.2680168809877781
 40
0.385911875652954
 40
0.5177894792733969
 40
0.663690977002284
 40
0.8244132205366393
 40
1.0
 40
1.0
 40
1.0
 40
1.0
 10
860.4449574328354
 20
689.6290653332891
 30
0.0
 10
860.3948378122836
 20
689.6184070908254
 30
0.0
 10
860.2849977497451
 20
689.5950489327652
 30
0.0
 10
860.104100099053
 20
689.5689724599767
 30
0.0
 10
859.8934820740707
 20
689.5467150869815
 30
0.0
 10
859.6534311485493
 20
689.5300267725105
 30
0.0
 10
859.3841627944429
 20
689.515740216026
 30
0.0
 10
859.0855313491178
 20
689.5043845728472
 30
0.0
 10
858.7569506012793
 20
689.4981449069383
 30
0.0
 10
858.527759186244
 20
689.4978230948275
 30
0.0
 10
858.4080984584764
 20
689.4976550768789
 30
0.0
  0
SPLINE
  5
F2
330
1F
100
AcDbEntity
  8
0
  6
Continuous
 62
     7
370
    25
100
AcDbSpline
210
0.0
220
0.0
230
1.0
 70
     8
 71
     3
 72
    23
 73
    19
 74
     0
 42
0.00000001
 43
0.00000001
 40
0.0
 40
0.0
 40
0.0
 40
0.0
 40
0.0701188944197126
 40
0.1371923527859712
 40
0.2020161807247512
 40
0.2646314069747445
 40
0.3261165471458168
 40
0.3860103046676415
 40
0.4458118469576828
 40
0.5052976967309596
 40
0.5646332777264912
 40
0.6242826253338384
 40
0.683902031903748
 40
0.743952770938268
 40
0.8053877310076337
 40
0.8683880308962783
 40
0.9330840282524784
 40
1.0
 40
1.0
 40
1.0
 40
1.0
 10
862.0411112789893
 20
691.6595140512378
 30
0.0
 10
862.0401480224659
 20
691.5937362757236
 30
0.0
 10
862.0382633460194
 20
691.4650376152767
 30
0.0
 10
862.0156432652677
 20
691.2767569565598
 30
0.0
 10
861.9851742558535
 20
691.0968292076875
 30
0.0
 10
861.9383238505342
 20
690.9256533209003
 30
0.0
 10
861.8769623120235
 20
690.7642458455385
 30
0.0
 10
861.8049804769477
 20
690.6101401723483
 30
0.0
 10
861.7181609789596
 20
690.4659580651515
 30
0.0
 10
861.6184013681927
 20
690.331176082199
 30
0.0
 10
861.5074262952947
 20
690.2056677111954
 30
0.0
 10
861.3857052938154
 20
690.0903424666405
 30
0.0
 10
861.2537297681005
 20
689.9858754073891
 30
0.0
 10
861.1119191439258
 20
689.8920323361197
 30
0.0
 10
860.9588909180137
 20
689.8109894115535
 30
0.0
 10
860.7969659955659
 20
689.7384012860095
 30
0.0
 10
860.6247369294587
 20
689.6774388616928
 30
0.0
 10
860.5055540403721
 20
689.6453701498612
 30
0.0
 10
860.4449574328354
 20
689.6290653332892
 30
0.0
  0
SPLINE
  5
F3
330
1F
100
AcDbEntity
  8
0
  6
Continuous
 62
     7
370
    25
100
AcDbSpline
210
0.0
220
0.0
230
1.0
 70
     8
 71
     3
 72
    23
 73
    19
 74
     0
 42
0.00000001
 43
0.00000001
 40
0.0
 40
0.0
 40
0.0
 40
0.0
 40
0.0624813386352058
 40
0.1234903826872945
 40
0.1834110942063109
 40
0.2431532209997811
 40
0.3021267353720882
 40
0.3617096708329096
 40
0.421842291694877
 40
0.4829319014466717
 40
0.5445522544313252
 40
0.6056807199653593
 40
0.6676797383436905
 40
0.7299843875380656
 40
0.7945509212861298
 40
0.8603456197120807
 40
0.9289073562657093
 40
1.0
 40
1.0
 40
1.0
 40
1.0
 10
860.5090599969379
 20
693.6851550768789
 30
0.0
 10
860.5643595027329
 20
693.6700191915493
 30
0.0
 10
860.6736554506465
 20
693.6401040790934
 30
0.0
 10
860.8311435491645
 20
693.5801869968634
 30
0.0
 10
860.9809809102625
 20
693.5091420478908
 30
0.0
 10
861.12368161528
 20
693.4281730425174
 30
0.0
 10
861.2574920908705
 20
693.333806038661
 30
0.0
 10
861.3844087559357
 20
693.2298663409712
 30
0.0
 10
861.5033115680402
 20
693.1139541842342
 30
0.0
 10
861.6135318923468
 20
692.9873696360115
 30
0.0
 10
861.7147542868245
 20
692.852237727711
 30
0.0
 10
861.8019078473437
 20
692.7065412022082
 30
0.0
 10
861.8748843662769
 20
692.5527325086771
 30
0.0
 10
861.9374747010978
 20
692.3909186317461
 30
0.0
 10
861.9825225970275
 20
692.2197407494801
 30
0.0
 10
862.0164583677828
 20
692.0403882640534
 30
0.0
 10
862.0379980880471
 20
691.8528804007357
 30
0.0
 10
862.0400610863446
 20
691.724743560688
 30
0.0
 10
862.0411112789893
 20
691.6595140512378
 30
0.0
  0
SPLINE
  5
F4
330
1F
100
AcDbEntity
  8
0
  6
Continuous
 62
     7
370
    25
100
AcDbSpline
210
0.0
220
0.0
230
1.0
 70
     8
 71
     3
 72
    15
 73
    11
 74
     0
 42
0.00000001
 43
0.00000001
 40
0.0
 40
0.0
 40
0.0
 40
0.0
 40
0.1769557521312458
 40
0.3390550796425822
 40
0.4863182249420797
 40
0.6187809228353778
 40
0.7356188277673846
 40
0.838742476720111
 40
0.926457067876319
 40
1.0
 40
1.0
 40
1.0
 40
1.0
 10
858.6869446123227
 20
693.8053473845711
 30
0.0
 10
858.7948552549549
 20
693.805228764592
 30
0.0
 10
859.0016168385223
 20
693.8050014834442
 30
0.0
 10
859.2981083944284
 20
693.7981106358428
 30
0.0
 10
859.5673877810028
 20
693.7889067682023
 30
0.0
 10
859.8088743659782
 20
693.7761481551894
 30
0.0
 10
860.0233111616047
 20
693.7610702346236
 30
0.0
 10
860.2097278462825
 20
693.7399227160466
 30
0.0
 10
860.3695896893313
 20
693.7178420404963
 30
0.0
 10
860.4653758594947
 20
693.695393111309
 30
0.0
 10
860.5090599969379
 20
693.6851550768789
 30
0.0
  0
LINE
  5
F5
330
1F
100
AcDbEntity
  8
0
  6
Continuous
 62
     7
370
    25
100
AcDbLine
 10
857.1180343559
 20
693.8053473846
 30
0.0
 11
858.6869446123
 21
693.8053473846
 31
0.0
  0
LINE
  5
F6
330
1F
100
AcDbEntity
  8
0
  6
Continuous
 62
     7
370
    25
100
AcDbLine
 10
857.1180343559
 20
685.8053473846
 30
0.0
 11
857.1180343559
 21
693.8053473846
 31
0.0
  0
LINE
  5
F7
330
1F
100
AcDbEntity
  8
0
  6
Continuous
 62
     7
370
    25
100
AcDbLine
 10
857.8359830739
 20
685.8053473846
 30
0.0
 11
857.1180343559
 21
685.8053473846
 31
0.0
  0
LINE
  5
F8
330
1F
100
AcDbEntity
  8
0
  6
Continuous
 62
     7
370
    25
100
AcDbLine
 10
869.6725215354
 20
685.8053473846
 30
0.0
 11
864.400085638
 21
692.0873986666
 31
0.0
  0
LINE
  5
F9
330
1F
100
AcDbEntity
  8
0
  6
Continuous
 62
     7
370
    25
100
AcDbLine
 10
869.8359830739
 20
685.8053473846
 30
0.0
 11
869.6725215354
 21
685.8053473846
 31
0.0
  0
LINE
  5
FA
330
1F
100
AcDbEntity
  8
0
  6
Continuous
 62
     7
370
    25
100
AcDbLine
 10
869.8359830739
 20
693.8053473846
 30
0.0
 11
869.8359830739
 21
685.8053473846
 31
0.0
  0
LINE
  5
FB
330
1F
100
AcDbEntity
  8
0
  6
Continuous
 62
     7
370
    25
100
AcDbLine
 10
869.1180343559
 20
693.8053473846
 30
0.0
 11
869.8359830739
 21
693.8053473846
 31
0.0
  0
LINE
  5
FC
330
1F
100
AcDbEntity
  8
0
  6
Continuous
 62
     7
370
    25
100
AcDbLine
 10
869.1180343559
 20
687.5088730256
 30
0.0
 11
869.1180343559
 21
693.8053473846
 31
0.0
  0
LINE
  5
FD
330
1F
100
AcDbEntity
  8
0
  6
Continuous
 62
     7
370
    25
100
AcDbLine
 10
863.8327779457
 20
693.8053473846
 30
0.0
 11
869.1180343559
 21
687.5088730256
 31
0.0
  0
LINE
  5
FE
330
1F
100
AcDbEntity
  8
0
  6
Continuous
 62
     7
370
    25
100
AcDbLine
 10
863.68213692
 20
693.8053473846
 30
0.0
 11
863.8327779457
 21
693.8053473846
 31
0.0
  0
LINE
  5
FF
330
1F
100
AcDbEntity
  8
0
  6
Continuous
 62
     7
370
    25
100
AcDbLine
 10
863.68213692
 20
685.8053473846
 30
0.0
 11
863.68213692
 21
693.8053473846
 31
0.0
  0
LINE
  5
100
330
1F
100
AcDbEntity
  8
0
  6
Continuous
 62
     7
370
    25
100
AcDbLine
 10
864.400085638
 20
685.8053473846
 30
0.0
 11
863.68213692
 21
685.8053473846
 31
0.0
  0
LINE
  5
101
330
1F
100
AcDbEntity
  8
0
  6
Continuous
 62
     7
370
    25
100
AcDbLine
 10
864.400085638
 20
692.0873986666
 30
0.0
 11
864.400085638
 21
685.8053473846
 31
0.0
  0
SPLINE
  5
102
330
1F
100
AcDbEntity
  8
0
  6
Continuous
 62
     7
370
    25
100
AcDbSpline
210
0.0
220
0.0
230
1.0
 70
     8
 71
     3
 72
    19
 73
    15
 74
     0
 42
0.00000001
 43
0.00000001
 40
0.0
 40
0.0
 40
0.0
 40
0.0
 40
0.1108026438013204
 40
0.2128292023477714
 40
0.3061013098231129
 40
0.3906473211160109
 40
0.4669244693608542
 40
0.5344810392840326
 40
0.5935869409656761
 40
0.6445570045087192
 40
0.7362004526293747
 40
0.8250240256188647
 40
0.9119855848297626
 40
1.0
 40
1.0
 40
1.0
 40
1.0
 10
874.2718805097585
 20
689.1162448204686
 30
0.0
 10
874.3474185367479
 20
689.1950980925798
 30
0.0
 10
874.4925116273054
 20
689.3465590905321
 30
0.0
 10
874.6977289457263
 20
689.5676858565528
 30
0.0
 10
874.8820466332976
 20
689.7728276639862
 30
0.0
 10
875.046657816776
 20
689.9615969175735
 30
0.0
 10
875.1879915433265
 20
690.1367547868205
 30
0.0
 10
875.3134137877786
 20
690.292628395021
 30
0.0
 10
875.4139065671662
 20
690.436067138582
 30
0.0
 10
875.522970328738
 20
690.6023313989534
 30
0.0
 10
875.6286022862197
 20
690.8053309810656
 30
0.0
 10
875.7193733857406
 20
691.0534079850909
 30
0.0
 10
875.7747216107659
 20
691.308784562636
 30
0.0
 10
875.7813612347792
 20
691.4813606473155
 30
0.0
 10
875.784701022579
 20
691.5681678973917
 30
0.0
  0
LINE
  5
103
330
1F
100
AcDbEntity
  8
0
  6
Continuous
 62
     7
370
    25
100
AcDbLine
 10
871.1693164072
 20
685.8053473846
 30
0.0
 11
874.2718805098
 21
689.1162448205
 31
0.0
  0
LINE
  5
104
330
1F
100
AcDbEntity
  8
0
  6
Continuous
 62
     7
370
    25
100
AcDbLine
 10
876.6052138431
 20
685.8053473846
 30
0.0
 11
871.1693164072
 21
685.8053473846
 31
0.0
  0
LINE
  5
105
330
1F
100
AcDbEntity
  8
0
  6
Continuous
 62
     7
370
    25
100
AcDbLine
 10
876.6052138431
 20
686.6258602051
 30
0.0
 11
876.6052138431
 21
685.8053473846
 31
0.0
  0
LINE
  5
106
330
1F
100
AcDbEntity
  8
0
  6
Continuous
 62
     7
370
    25
100
AcDbLine
 10
872.8824574328
 20
686.6258602051
 30
0.0
 11
876.6052138431
 21
686.6258602051
 31
0.0
  0
LINE
  5
107
330
1F
100
AcDbEntity
  8
0
  6
Continuous
 62
     7
370
    25
100
AcDbLine
 10
874.8840599969
 20
688.7620781538
 30
0.0
 11
872.8824574328
 21
686.6258602051
 31
0.0
  0
SPLINE
  5
108
330
1F
100
AcDbEntity
  8
0
  6
Continuous
 62
     7
370
    25
100
AcDbSpline
210
0.0
220
0.0
230
1.0
 70
     8
 71
     3
 72
    19
 73
    15
 74
     0
 42
0.00000001
 43
0.00000001
 40
0.0
 40
0.0
 40
0.0
 40
0.0
 40
0.0987021963061536
 40
0.1956723088106679
 40
0.2924224265079565
 40
0.3913425437998275
 40
0.4444624406718942
 40
0.504228775449315
 40
0.5703523379946814
 40
0.6425457530977492
 40
0.72228750534402
 40
0.8079211226827141
 40
0.9004695379850156
 40
1.0
 40
1.0
 40
1.0
 40
1.0
 10
876.5026497405278
 20
691.6322704614943
 30
0.0
 10
876.4987794254272
 20
691.5208468396089
 30
0.0
 10
876.4911067137765
 20
691.2999549226478
 30
0.0
 10
876.425473853051
 20
690.9753495220782
 30
0.0
 10
876.3229675419757
 20
690.6608502784514
 30
0.0
 10
876.1995450120344
 20
690.4077364451156
 30
0.0
 10
876.0750365684647
 20
690.2037741736709
 30
0.0
 10
875.9628365511079
 20
690.035845705283
 30
0.0
 10
875.8314884116294
 20
689.8550332061072
 30
0.0
 10
875.6790804162862
 20
689.6619421492525
 30
0.0
 10
875.5087652799416
 20
689.4550600804556
 30
0.0
 10
875.3190003351265
 20
689.2345119766879
 30
0.0
 10
875.1084323762204
 20
689.0025765028136
 30
0.0
 10
874.9606415173533
 20
688.8441636996414
 30
0.0
 10
874.8840599969379
 20
688.762078153802
 30
0.0
  0
SPLINE
  5
109
330
1F
100
AcDbEntity
  8
0
  6
Continuous
 62
     7
370
    25
100
AcDbSpline
210
0.0
220
0.0
230
1.0
 70
     8
 71
     3
 72
    23
 73
    19
 74
     0
 42
0.00000001
 43
0.00000001
 40
0.0
 40
0.0
 40
0.0
 40
0.0
 40
0.0694754602496686
 40
0.1365167976177964
 40
0.2007888236092607
 40
0.2638296728558249
 40
0.3257350229654211
 40
0.3872906922152914
 40
0.4495092187626057
 40
0.5129678195454422
 40
0.5762752154930629
 40
0.6375801002639271
 40
0.6979026059171036
 40
0.7571720884269881
 40
0.8165985284886593
 40
0.8766531708928225
 40
0.9372896424102413
 40
1.0
 40
1.0
 40
1.0
 40
1.0
 10
874.0859830738611
 20
694.0104755896995
 30
0.0
 10
874.1737043860606
 20
694.008421974967
 30
0.0
 10
874.3460736309897
 20
694.0043866953762
 30
0.0
 10
874.597643949739
 20
693.9697329141939
 30
0.0
 10
874.8371349085126
 20
693.9154572761703
 30
0.0
 10
875.0640783748483
 20
693.8393077531686
 30
0.0
 10
875.2766636652968
 20
693.7369433476999
 30
0.0
 10
875.4764877671399
 20
693.6139775450528
 30
0.0
 10
875.6659296203766
 20
693.4717607876306
 30
0.0
 10
875.8364594114901
 20
693.3043234997485
 30
0.0
 10
875.9930493068873
 20
693.1255751923877
 30
0.0
 10
876.1281401757884
 20
692.9347456984171
 30
0.0
 10
876.2438274065846
 20
692.7376501882114
 30
0.0
 10
876.3402563891701
 20
692.5327857274535
 30
0.0
 10
876.4112418496024
 20
692.318223376796
 30
0.0
 10
876.4651348965267
 20
692.0970869132723
 30
0.0
 10
876.4955975563852
 20
691.8670873452573
 30
0.0
 10
876.5002728100945
 20
691.7114152180625
 30
0.0
 10
876.5026497405278
 20
691.6322704614943
 30
0.0
  0
SPLINE
  5
10A
330
1F
100
AcDbEntity
  8
0
  6
Continuous
 62
     7
370
    25
100
AcDbSpline
210
0.0
220
0.0
230
1.0
 70
     8
 71
     3
 72
    23
 73
    19
 74
     0
 42
0.00000001
 43
0.00000001
 40
0.0
 40
0.0
 40
0.0
 40
0.0
 40
0.0687907943906179
 40
0.1351032894311258
 40
0.1989786743106513
 40
0.2619042997808547
 40
0.3234949693679672
 40
0.3851953779660514
 40
0.4469692387407727
 40
0.5097647767031315
 40
0.5722505688473667
 40
0.6334051756611512
 40
0.6932511629217499
 40
0.75258316278567
 40
0.8125792661534204
 40
0.873275084920191
 40
0.9355499428950275
 40
0.9999999999999999
 40
0.9999999999999999
 40
0.9999999999999999
 40
0.9999999999999999
 10
871.4770087148867
 20
691.3438089230327
 30
0.0
 10
871.4816879217619
 20
691.439056666502
 30
0.0
 10
871.4908777595357
 20
691.6261206998159
 30
0.0
 10
871.5339138492768
 20
691.8988610572995
 30
0.0
 10
871.5954929971738
 20
692.1595577400994
 30
0.0
 10
871.6825591777789
 20
692.4061175434584
 30
0.0
 10
871.7906878126813
 20
692.6407205314135
 30
0.0
 10
871.9203564466948
 20
692.8624348529937
 30
0.0
 10
872.0739423907254
 20
693.0704147129128
 30
0.0
 10
872.2481292114007
 20
693.2627320690167
 30
0.0
 10
872.4373146720978
 20
693.4391608022723
 30
0.0
 10
872.6414425337459
 20
693.5915156429721
 30
0.0
 10
872.8559454532575
 20
693.7202417489423
 30
0.0
 10
873.0801726508927
 20
693.8278560159683
 30
0.0
 10
873.3166539390286
 20
693.9086328066484
 30
0.0
 10
873.5632433283758
 20
693.9685679828874
 30
0.0
 10
873.8210242115974
 20
694.0046282016797
 30
0.0
 10
873.9966585477047
 20
694.0085042830608
 30
0.0
 10
874.0859830738611
 20
694.0104755896995
 30
0.0
  0
LINE
  5
10B
330
1F
100
AcDbEntity
  8
0
  6
Continuous
 62
     7
370
    25
100
AcDbLine
 10
872.1949574328
 20
691.343808923
 30
0.0
 11
871.4770087149
 21
691.343808923
 31
0.0
  0
SPLINE
  5
10C
330
1F
100
AcDbEntity
  8
0
  6
Continuous
 62
     7
370
    25
100
AcDbSpline
210
0.0
220
0.0
230
1.0
 70
     8
 71
     3
 72
    23
 73
    19
 74
     0
 42
0.00000001
 43
0.00000001
 40
0.0
 40
0.0
 40
0.0
 40
0.0
 40
0.0644386715952408
 40
0.1265469112716761
 40
0.1868871534365682
 40
0.2458775355894554
 40
0.3040408846912658
 40
0.3621912180726586
 40
0.4209759327916437
 40
0.4806602832796657
 40
0.54060027495376
 40
0.6006890983494558
 40
0.661935789757195
 40
0.7244425059139793
 40
0.7890383938817456
 40
0.8563137570509972
 40
0.9263520282058666
 40
1.0
 40
1.0
 40
1.0
 40
1.0
 10
874.0491240995021
 20
693.1899627691865
 30
0.0
 10
873.986562196059
 20
693.1883284097261
 30
0.0
 10
873.8637009475572
 20
693.185118797602
 30
0.0
 10
873.6833145865595
 20
693.1626669941916
 30
0.0
 10
873.511232809362
 20
693.1239336447128
 30
0.0
 10
873.3470227454696
 20
693.0709583889711
 30
0.0
 10
873.1904065493262
 20
693.0036245630915
 30
0.0
 10
873.042145877241
 20
692.9197577181114
 30
0.0
 10
872.9025735589325
 20
692.8196811623342
 30
0.0
 10
872.7714272198572
 20
692.7062170335935
 30
0.0
 10
872.650595267712
 20
692.5798910879571
 30
0.0
 10
872.5444309800207
 20
692.4390683152326
 30
0.0
 10
872.451667519121
 20
692.2863199372415
 30
0.0
 10
872.37073212831
 20
692.1220581073688
 30
0.0
 10
872.3050048366922
 20
691.944792324547
 30
0.0
 10
872.2547804928497
 20
691.755151856322
 30
0.0
 10
872.2150391289146
 20
691.5539601273197
 30
0.0
 10
872.2017625103891
 20
691.4150227905046
 30
0.0
 10
872.1949574328354
 20
691.3438089230327
 30
0.0
  0
SPLINE
  5
10D
330
1F
100
AcDbEntity
  8
0
  6
Continuous
 62
     7
370
    25
100
AcDbSpline
210
0.0
220
0.0
230
1.0
 70
     8
 71
     3
 72
    23
 73
    19
 74
     0
 42
0.00000001
 43
0.00000001
 40
0.0
 40
0.0
 40
0.0
 40
0.0
 40
0.0619654006870636
 40
0.1221219056382998
 40
0.1809884968498453
 40
0.2399332164519056
 40
0.2999058311065249
 40
0.3599888474769914
 40
0.4217757417416469
 40
0.4865758264211256
 40
0.5515348046197422
 40
0.6150175427599779
 40
0.6772586166616561
 40
0.7397299623627129
 40
0.8030501026629507
 40
0.8664951320156999
 40
0.9319734741771484
 40
1.0
 40
1.0
 40
1.0
 40
1.0
 10
875.784701022579
 20
691.5681678973917
 30
0.0
 10
875.7832478973232
 20
691.6227539509022
 30
0.0
 10
875.7803840664853
 20
691.7303325802993
 30
0.0
 10
875.7551093293565
 20
691.8880600294848
 30
0.0
 10
875.7169138868549
 20
692.0402081753494
 30
0.0
 10
875.6621818684596
 20
692.1872450190474
 30
0.0
 10
875.5899378911216
 20
692.3276922237701
 30
0.0
 10
875.5019987370242
 20
692.4617207499497
 30
0.0
 10
875.4005357349263
 20
692.5912955275498
 30
0.0
 10
875.2831614050273
 20
692.7127887802541
 30
0.0
 10
875.1542207883264
 20
692.8240601070711
 30
0.0
 10
875.0180053607031
 20
692.9226294451612
 30
0.0
 10
874.8738908366804
 20
693.0050045555585
 30
0.0
 10
874.7224848431356
 20
693.0725325491137
 30
0.0
 10
874.564209484488
 20
693.125504848991
 30
0.0
 10
874.3987586384941
 20
693.1622101733867
 30
0.0
 10
874.2265894584197
 20
693.185255850979
 30
0.0
 10
874.1090271825553
 20
693.1883739581981
 30
0.0
 10
874.0491240995021
 20
693.1899627691865
 30
0.0
  0
SPLINE
  5
10E
330
1F
100
AcDbEntity
  8
0
  6
Continuous
 62
     7
370
    25
100
AcDbSpline
210
0.0
220
0.0
230
1.0
 70
     8
 71
     3
 72
    15
 73
    11
 74
     0
 42
0.00000001
 43
0.00000001
 40
0.0
 40
0.0
 40
0.0
 40
0.0
 40
0.1022030370352187
 40
0.2110233423738796
 40
0.325099661565213
 40
0.4465020971348914
 40
0.5737877176488597
 40
0.7089007097660696
 40
0.8503578712934076
 40
0.9999999999999999
 40
0.9999999999999999
 40
0.9999999999999999
 40
0.9999999999999999
 10
880.009059996938
 20
690.2156037948276
 30
0.0
 10
879.947051016809
 20
690.2142767293245
 30
0.0
 10
879.8190182046383
 20
690.2115366757398
 30
0.0
 10
879.6226231721142
 20
690.191361825851
 30
0.0
 10
879.4162420910245
 20
690.1588148671582
 30
0.0
 10
879.2006661011818
 20
690.1140463015143
 30
0.0
 10
878.9752477969464
 20
690.0554609832088
 30
0.0
 10
878.7404628809983
 20
689.9852564103503
 30
0.0
 10
878.4958177002001
 20
689.9013204132908
 30
0.0
 10
878.3309771872886
 20
689.8379324961555
 30
0.0
 10
878.2462394841175
 20
689.8053473845711
 30
0.0
  0
SPLINE
  5
10F
330
1F
100
AcDbEntity
  8
0
  6
Continuous
 62
     7
370
    25
100
AcDbSpline
210
0.0
220
0.0
230
1.0
 70
     8
 71
     3
 72
    23
 73
    19
 74
     0
 42
0.00000001
 43
0.00000001
 40
0.0
 40
0.0
 40
0.0
 40
0.0
 40
0.0653513820265962
 40
0.1279160318306129
 40
0.188360205571697
 40
0.24721607726545
 40
0.3056301291974092
 40
0.3637698398318208
 40
0.422660913912782
 40
0.482687294090391
 40
0.5433002212395568
 40
0.6041179553231021
 40
0.6649648912652851
 40
0.7274134941125661
 40
0.7914676251494226
 40
0.8580554427291017
 40
0.9270368146149471
 40
1.0
 40
1.0
 40
1.0
 40
1.0
 10
881.9385471764251
 20
688.4495781538019
 30
0.0
 10
881.9370420805133
 20
688.5137513003648
 30
0.0
 10
881.9340960694175
 20
688.6393611039194
 30
0.0
 10
881.9100261944393
 20
688.8231307186422
 30
0.0
 10
881.8681588290594
 20
688.9970119581888
 30
0.0
 10
881.8100471034664
 20
689.1618444929818
 30
0.0
 10
881.7362653715039
 20
689.3177837897773
 30
0.0
 10
881.646102371918
 20
689.4649907845206
 30
0.0
 10
881.5378660337614
 20
689.60152526046
 30
0.0
 10
881.414227431273
 20
689.7274510972817
 30
0.0
 10
881.278780480546
 20
689.8436679541345
 30
0.0
 10
881.1291947831812
 20
689.9427401517389
 30
0.0
 10
880.9686006647922
 20
690.0260862492289
 30
0.0
 10
880.7989330088635
 20
690.0980131025838
 30
0.0
 10
880.6161560978065
 20
690.1496719492109
 30
0.0
 10
880.4238895095107
 20
690.1884556873642
 30
0.0
 10
880.2200570342034
 20
690.2108908020573
 30
0.0
 10
880.0806954613258
 20
690.2140036897733
 30
0.0
 10
880.009059996938
 20
690.2156037948276
 30
0.0
  0
SPLINE
  5
110
330
1F
100
AcDbEntity
  8
0
  6
Continuous
 62
     7
370
    25
100
AcDbSpline
210
0.0
220
0.0
230
1.0
 70
     8
 71
     3
 72
    23
 73
    19
 74
     0
 42
0.00000001
 43
0.00000001
 40
0.0
 40
0.0
 40
0.0
 40
0.0
 40
0.0642072952829855
 40
0.1264246897797409
 40
0.1876802842649202
 40
0.2482164244552118
 40
0.3083050600086121
 40
0.3696609913251456
 40
0.4316985517867817
 40
0.4959468922087623
 40
0.5597580239721188
 40
0.6222954078261579
 40
0.6839106352841717
 40
0.7450924080566254
 40
0.8067402253892929
 40
0.8690866181212029
 40
0.9332900029747976
 40
1.0
 40
1.0
 40
1.0
 40
1.0
 10
879.9080984584764
 20
686.4207319999558
 30
0.0
 10
879.9765749028588
 20
686.422608063739
 30
0.0
 10
880.111405582147
 20
686.4263020486784
 30
0.0
 10
880.3098316088739
 20
686.4547340763123
 30
0.0
 10
880.5014038927644
 20
686.4985228107299
 30
0.0
 10
880.6842321367849
 20
686.5640539078356
 30
0.0
 10
880.8615156558456
 20
686.643698978523
 30
0.0
 10
881.0287699882413
 20
686.7459048661024
 30
0.0
 10
881.1908337074199
 20
686.8635277654051
 30
0.0
 10
881.3426694411824
 20
686.9982857769329
 30
0.0
 10
881.4817310394899
 20
687.1467879360627
 30
0.0
 10
881.6046021735103
 20
687.3055934067481
 30
0.0
 10
881.7069494041986
 20
687.4750033417032
 30
0.0
 10
881.7931987959008
 20
687.6520848339339
 30
0.0
 10
881.8586920503525
 20
687.8387786789133
 30
0.0
 10
881.9054142931475
 20
688.0342099364501
 30
0.0
 10
881.9328498561612
 20
688.2388613197792
 30
0.0
 10
881.9366239818114
 20
688.3784483135535
 30
0.0
 10
881.9385471764251
 20
688.4495781538019
 30
0.0
  0
SPLINE
  5
111
330
1F
100
AcDbEntity
  8
0
  6
Continuous
 62
     7
370
    25
100
AcDbSpline
210
0.0
220
0.0
230
1.0
 70
     8
 71
     3
 72
    19
 73
    15
 74
     0
 42
0.00000001
 43
0.00000001
 40
0.0
 40
0.0
 40
0.0
 40
0.0
 40
0.0946872518675507
 40
0.1819941557072737
 40
0.2643769486105108
 40
0.3421798619477692
 40
0.4186176108621419
 40
0.4965090753719106
 40
0.5773690916117268
 40
0.6615105924541947
 40
0.7467325508291934
 40
0.8312579843277423
 40
0.9152056162136545
 40
1.0
 40
1.0
 40
1.0
 40
1.0
 10
878.1436753815534
 20
687.8566294358533
 30
0.0
 10
878.161340655588
 20
687.780340401685
 30
0.0
 10
878.1952942931671
 20
687.6337086419775
 30
0.0
 10
878.269821718886
 20
687.4276941475019
 30
0.0
 10
878.3609437199665
 20
687.2441073505282
 30
0.0
 10
878.4692965163489
 20
687.0805197316172
 30
0.0
 10
878.5985537288888
 20
686.9378705949948
 30
0.0
 10
878.7460495664674
 20
686.8107458819942
 30
0.0
 10
878.9114157909228
 20
686.6960598721026
 30
0.0
 10
879.0951717441111
 20
686.6004649756517
 30
0.0
 10
879.2890302111291
 20
686.5189363964516
 30
0.0
 10
879.491926691151
 20
686.4646468079907
 30
0.0
 10
879.6983366259421
 20
686.4264733386357
 30
0.0
 10
879.8379443292483
 20
686.422652171089
 30
0.0
 10
879.9080984584764
 20
686.4207319999558
 30
0.0
  0
LINE
  5
112
330
1F
100
AcDbEntity
  8
0
  6
Continuous
 62
     7
370
    25
100
AcDbLine
 10
877.4257266636
 20
687.8566294359
 30
0.0
 11
878.1436753816
 21
687.8566294359
 31
0.0
  0
SPLINE
  5
113
330
1F
100
AcDbEntity
  8
0
  6
Continuous
 62
     7
370
    25
100
AcDbSpline
210
0.0
220
0.0
230
1.0
 70
     8
 71
     3
 72
    23
 73
    19
 74
     0
 42
0.00000001
 43
0.00000001
 40
0.0
 40
0.0
 40
0.0
 40
0.0
 40
0.0654211437588935
 40
0.1287083718818842
 40
0.1902361418635406
 40
0.2507244020335411
 40
0.3106371794134452
 40
0.370766408289728
 40
0.4316147444123569
 40
0.4935229735663562
 40
0.5558834553775371
 40
0.6173423673185103
 40
0.6786680390972784
 40
0.7407113595451521
 40
0.8029853625127464
 40
0.8668025802655189
 40
0.9323471713458903
 40
0.9999999999999999
 40
0.9999999999999999
 40
0.9999999999999999
 40
0.9999999999999999
 10
879.8664317918098
 20
685.6002191794429
 30
0.0
 10
879.7867193787762
 20
685.6017982376925
 30
0.0
 10
879.6298946228816
 20
685.6049048482579
 30
0.0
 10
879.400133326718
 20
685.6374042431244
 30
0.0
 10
879.1790713708472
 20
685.6839503377357
 30
0.0
 10
878.9684882824874
 20
685.7539760973892
 30
0.0
 10
878.7664968225897
 20
685.8417184852525
 30
0.0
 10
878.5758163247866
 20
685.9526125915279
 30
0.0
 10
878.3915745509629
 20
686.0782791143782
 30
0.0
 10
878.221261324107
 20
686.2265770640121
 30
0.0
 10
878.0631902076049
 20
686.388670051515
 30
0.0
 10
877.9216896159012
 20
686.5645732313224
 30
0.0
 10
877.7956700119317
 20
686.7513833846621
 30
0.0
 10
877.6871494473858
 20
686.950007736835
 30
0.0
 10
877.5945825415198
 20
687.1599243789782
 30
0.0
 10
877.5218625683159
 20
687.3819198095885
 30
0.0
 10
877.4631691855888
 20
687.614834104307
 30
0.0
 10
877.4383385102143
 20
687.7751849852453
 30
0.0
 10
877.4257266636047
 20
687.8566294358533
 30
0.0
  0
SPLINE
  5
114
330
1F
100
AcDbEntity
  8
0
  6
Continuous
 62
     7
370
    25
100
AcDbSpline
210
0.0
220
0.0
230
1.0
 70
     8
 71
     3
 72
    31
 73
    27
 74
     0
 42
0.00000001
 43
0.00000001
 40
0.0
 40
0.0
 40
0.0
 40
0.0
 40
0.0440144705761397
 40
0.087434123667704
 40
0.1301183986578983
 40
0.1725536945581831
 40
0.2145547559681401
 40
0.2562980920971327
 40
0.2984382251332509
 40
0.3408490025880976
 40
0.3827151889670291
 40
0.4239240454075339
 40
0.464246243250419
 40
0.5040736714617954
 40
0.5438619058684931
 40
0.5835667249796542
 40
0.6230943188523362
 40
0.6632290607685852
 40
0.7035512586114722
 40
0.7439378946861864
 40
0.7845412548000942
 40
0.8257501112405984
 40
0.8677573633885094
 40
0.910745164032313
 40
0.954914446891478
 40
1.0
 40
1.0
 40
1.0
 40
1.0
 10
882.6564958943738
 20
688.4191294358533
 30
0.0
 10
882.6549757223204
 20
688.3539357893345
 30
0.0
 10
882.6519559220236
 20
688.2244295320183
 30
0.0
 10
882.6365991502572
 20
688.0320999304517
 30
0.0
 10
882.6070317992534
 20
687.8438420262636
 30
0.0
 10
882.5673341441583
 20
687.6596308449181
 30
0.0
 10
882.5158086173801
 20
687.47981513708
 30
0.0
 10
882.4534336370319
 20
687.3038802161045
 30
0.0
 10
882.3770998598665
 20
687.1329211149773
 30
0.0
 10
882.293371002132
 20
686.9653202120658
 30
0.0
 10
882.1990933380512
 20
686.8048664813351
 30
0.0
 10
882.0944567498477
 20
686.6548116549517
 30
0.0
 10
881.9839070556253
 20
686.5129047258548
 30
0.0
 10
881.8649553174349
 20
686.3806676218337
 30
0.0
 10
881.7364959000347
 20
686.2589692952212
 30
0.0
 10
881.600084547208
 20
686.1470875089219
 30
0.0
 10
881.4568097608558
 20
686.0431301825148
 30
0.0
 10
881.304454921265
 20
685.9513171649709
 30
0.0
 10
881.1464149602053
 20
685.8668304080502
 30
0.0
 10
880.9804076067413
 20
685.7975194655694
 30
0.0
 10
880.8102117199813
 20
685.7355525442324
 30
0.0
 10
880.6333777186217
 20
685.686159338263
 30
0.0
 10
880.4503061469286
 20
685.6474563565046
 30
0.0
 10
880.2606952315409
 20
685.6211692694131
 30
0.0
 10
880.0655394143438
 20
685.602023126624
 30
0.0
 10
879.933253671304
 20
685.6008245964512
 30
0.0
 10
879.8664317918098
 20
685.6002191794429
 30
0.0
  0
SPLINE
  5
115
330
1F
100
AcDbEntity
  8
0
  6
Continuous
 62
     7
370
    25
100
AcDbSpline
210
0.0
220
0.0
230
1.0
 70
     8
 71
     3
 72
    23
 73
    19
 74
     0
 42
0.00000001
 43
0.00000001
 40
0.0
 40
0.0
 40
0.0
 40
0.0
 40
0.0658076458106965
 40
0.1293942736680564
 40
0.1908940606321891
 40
0.2512810689298363
 40
0.3108149644652735
 40
0.3703709874482439
 40
0.4307682625897258
 40
0.4928812506175028
 40
0.5551039481552493
 40
0.6160670509938442
 40
0.6772560331746551
 40
0.7382598051991165
 40
0.800762134376295
 40
0.8647775815744865
 40
0.9310452949994039
 40
1.0
 40
1.0
 40
1.0
 40
1.0
 10
880.1388676892457
 20
691.0361166153403
 30
0.0
 10
880.228201951445
 20
691.0341830480384
 30
0.0
 10
880.4038554310453
 20
691.0303811716219
 30
0.0
 10
880.6608587384593
 20
690.9938740871777
 30
0.0
 10
880.906191065815
 20
690.9364114251657
 30
0.0
 10
881.1393393405039
 20
690.8561359469104
 30
0.0
 10
881.3607348848176
 20
690.7534851281805
 30
0.0
 10
881.5683407396302
 20
690.625256693077
 30
0.0
 10
881.7652731121716
 20
690.4754662218777
 30
0.0
 10
881.9479990412095
 20
690.3032490516842
 30
0.0
 10
882.1137688884448
 20
690.1137139276794
 30
0.0
 10
882.2595197219694
 20
689.9099245081513
 30
0.0
 10
882.3833199283793
 20
689.6938612804153
 30
0.0
 10
882.4828873680966
 20
689.4634598890136
 30
0.0
 10
882.5623944178703
 20
689.2212675383613
 30
0.0
 10
882.6153132632276
 20
688.964735921099
 30
0.0
 10
882.6505514551392
 20
688.6962830753541
 30
0.0
 10
882.6544883381553
 20
688.5127297723205
 30
0.0
 10
882.6564958943738
 20
688.4191294358533
 30
0.0
  0
SPLINE
  5
116
330
1F
100
AcDbEntity
  8
0
  6
Continuous
 62
     7
370
    25
100
AcDbSpline
210
0.0
220
0.0
230
1.0
 70
     8
 71
     3
 72
    11
 73
     7
 74
     0
 42
0.00000001
 43
0.00000001
 40
0.0
 40
0.0
 40
0.0
 40
0.0
 40
0.2750683690187301
 40
0.5329014600899338
 40
0.773973459592447
 40
1.0
 40
1.0
 40
1.0
 40
1.0
 10
879.196559996938
 20
690.8806678973916
 30
0.0
 10
879.2812591383636
 20
690.9040513758151
 30
0.0
 10
879.4453503288375
 20
690.9493531669236
 30
0.0
 10
879.6875442967546
 20
690.9996520707624
 30
0.0
 10
879.9174693332598
 20
691.029973085751
 30
0.0
 10
880.0666701799122
 20
691.0341132240645
 30
0.0
 10
880.1388676892457
 20
691.0361166153403
 30
0.0
  0
LINE
  5
117
330
1F
100
AcDbEntity
  8
0
  6
Continuous
 62
     7
370
    25
100
AcDbLine
 10
879.6276497405
 20
692.9848345641
 30
0.0
 11
879.1965599969
 21
690.8806678974
 31
0.0
  0
LINE
  5
118
330
1F
100
AcDbEntity
  8
0
  6
Continuous
 62
     7
370
    25
100
AcDbLine
 10
882.3488035867
 20
692.9848345641
 30
0.0
 11
879.6276497405
 21
692.9848345641
 31
0.0
  0
LINE
  5
119
330
1F
100
AcDbEntity
  8
0
  6
Continuous
 62
     7
370
    25
100
AcDbLine
 10
882.3488035867
 20
693.8053473846
 30
0.0
 11
882.3488035867
 21
692.9848345641
 31
0.0
  0
LINE
  5
11A
330
1F
100
AcDbEntity
  8
0
  6
Continuous
 62
     7
370
    25
100
AcDbLine
 10
879.0667523046
 20
693.8053473846
 30
0.0
 11
882.3488035867
 21
693.8053473846
 31
0.0
  0
LINE
  5
11B
330
1F
100
AcDbEntity
  8
0
  6
Continuous
 62
     7
370
    25
100
AcDbLine
 10
878.2462394841
 20
689.8053473846
 30
0.0
 11
879.0667523046
 21
693.8053473846
 31
0.0
  0
SPLINE
  5
11C
330
1F
100
AcDbEntity
  8
0
  6
Continuous
 62
     7
370
    25
100
AcDbSpline
210
0.0
220
0.0
230
1.0
 70
     8
 71
     3
 72
    19
 73
    15
 74
     0
 42
0.00000001
 43
0.00000001
 40
0.0
 40
0.0
 40
0.0
 40
0.0
 40
0.1101655532114422
 40
0.2157872561749737
 40
0.3180274349094189
 40
0.4175739541655064
 40
0.5116504876474464
 40
0.596162097102761
 40
0.6729345334849955
 40
0.7436695573498562
 40
0.8106770010653606
 40
0.8740589623137349
 40
0.9366963019193724
 40
1.0
 40
1.0
 40
1.0
 40
1.0
 10
872.2975215353995
 20
704.9591935384173
 30
0.0
 10
872.3964956284744
 20
704.9608730897802
 30
0.0
 10
872.5903615634645
 20
704.964162918312
 30
0.0
 10
872.8735485457727
 20
705.0039526563578
 30
0.0
 10
873.1443446877961
 20
705.0589940919137
 30
0.0
 10
873.3967486695126
 20
705.1433031028174
 30
0.0
 10
873.626802871457
 20
705.241223781353
 30
0.0
 10
873.8263905333586
 20
705.3551716888176
 30
0.0
 10
873.9927154414132
 20
705.48183397281
 30
0.0
 10
874.1249693191075
 20
705.6231656513067
 30
0.0
 10
874.2244646988734
 20
705.7747429026974
 30
0.0
 10
874.2972116644187
 20
705.9327238345545
 30
0.0
 10
874.3401838386932
 20
706.0984931166947
 30
0.0
 10
874.3459202202197
 20
706.2116237862514
 30
0.0
 10
874.3488035866816
 20
706.2684884102122
 30
0.0
  0
LINE
  5
11D
330
1F
100
AcDbEntity
  8
0
  6
Continuous
 62
     7
370
    25
100
AcDbLine
 10
872.2975215354
 20
704.1386807179
 30
0.0
 11
872.2975215354
 21
704.9591935384
 31
0.0
  0
SPLINE
  5
11E
330
1F
100
AcDbEntity
  8
0
  6
Continuous
 62
     7
370
    25
100
AcDbSpline
210
0.0
220
0.0
230
1.0
 70
     8
 71
     3
 72
    23
 73
    19
 74
     0
 42
0.00000001
 43
0.00000001
 40
0.0
 40
0.0
 40
0.0
 40
0.0
 40
0.0669091856056542
 40
0.1334854404229628
 40
0.20103511657008
 40
0.2712343400187615
 40
0.3428799841615812
 40
0.4138361296100205
 40
0.4859766219744207
 40
0.5602295572555477
 40
0.5998841807523879
 40
0.644054839642596
 40
0.6918919315842543
 40
0.7446875244737698
 40
0.8014917751698758
 40
0.8628576982200888
 40
0.9293283793947432
 40
0.9999999999999999
 40
0.9999999999999999
 40
0.9999999999999999
 40
0.9999999999999999
 10
874.7590599969379
 20
702.4463730255968
 30
0.0
 10
874.755562164879
 20
702.5209132287283
 30
0.0
 10
874.7485839054862
 20
702.6696227333226
 30
0.0
 10
874.6953071524772
 20
702.8884057602313
 30
0.0
 10
874.6076754628601
 20
703.0992021315207
 30
0.0
 10
874.484995437013
 20
703.2984153659388
 30
0.0
 10
874.3356566286808
 20
703.4830459980176
 30
0.0
 10
874.1611082701461
 20
703.6477808151103
 30
0.0
 10
873.959900891007
 20
703.7837124518443
 30
0.0
 10
873.7747126189312
 20
703.8776293807554
 30
0.0
 10
873.610677975475
 20
703.9417141240326
 30
0.0
 10
873.4702999539032
 20
703.9843997570595
 30
0.0
 10
873.3131420033353
 20
704.0205452557477
 30
0.0
 10
873.1411046344734
 20
704.0541733049471
 30
0.0
 10
872.9528915683181
 20
704.082793529294
 30
0.0
 10
872.7487077100823
 20
704.1066605367076
 30
0.0
 10
872.5285116835569
 20
704.1257577731524
 30
0.0
 10
872.3760747330235
 20
704.1342859909385
 30
0.0
 10
872.2975215353995
 20
704.1386807179045
 30
0.0
  0
SPLINE
  5
11F
330
1F
100
AcDbEntity
  8
0
  6
Continuous
 62
     7
370
    25
100
AcDbSpline
210
0.0
220
0.0
230
1.0
 70
     8
 71
     3
 72
    23
 73
    19
 74
     0
 42
0.00000001
 43
0.00000001
 40
0.0
 40
0.0
 40
0.0
 40
0.0
 40
0.0760717369555652
 40
0.1487517145745092
 40
0.218402793845845
 40
0.2857595810623845
 40
0.3505980236748764
 40
0.4149640445981259
 40
0.4780693385717802
 40
0.541760676006903
 40
0.6043498585387158
 40
0.6640750210708954
 40
0.7214636230801975
 40
0.7775871282364413
 40
0.8326444469271268
 40
0.8878435110684583
 40
0.9434603426519442
 40
1.0
 40
1.0
 40
1.0
 40
1.0
 10
872.722201022579
 20
700.7540653332891
 30
0.0
 10
872.7970661714894
 20
700.7554731167112
 30
0.0
 10
872.9434585073029
 20
700.7582259156632
 30
0.0
 10
873.1570696143446
 20
700.7835418170258
 30
0.0
 10
873.3602866373523
 20
700.8204113334702
 30
0.0
 10
873.5508533248237
 20
700.8773552941972
 30
0.0
 10
873.7312659130547
 20
700.9477115260988
 30
0.0
 10
873.8989953979074
 20
701.0360507385253
 30
0.0
 10
874.0562436406352
 20
701.1396958165533
 30
0.0
 10
874.2009965673241
 20
701.2574996077329
 30
0.0
 10
874.3311577273535
 20
701.386463025061
 30
0.0
 10
874.4457623290482
 20
701.5213500447419
 30
0.0
 10
874.5431901267153
 20
701.6615919407641
 30
0.0
 10
874.6217811625759
 20
701.8079647885737
 30
0.0
 10
874.683839563263
 20
701.9598624545853
 30
0.0
 10
874.726086878849
 20
702.1177112073955
 30
0.0
 10
874.7554617705631
 20
702.2802192444333
 30
0.0
 10
874.7578540269691
 20
702.3906854591571
 30
0.0
 10
874.7590599969379
 20
702.4463730255968
 30
0.0
  0
SPLINE
  5
120
330
1F
100
AcDbEntity
  8
0
  6
Continuous
 62
     7
370
    25
100
AcDbSpline
210
0.0
220
0.0
230
1.0
 70
     8
 71
     3
 72
    15
 73
    11
 74
     0
 42
0.00000001
 43
0.00000001
 40
0.0
 40
0.0
 40
0.0
 40
0.0
 40
0.1182713048357227
 40
0.2361775330837636
 40
0.3556629329485026
 40
0.4759041646706827
 40
0.6001273417110812
 40
0.7286081161551241
 40
0.8613134756739398
 40
0.9999999999999999
 40
0.9999999999999999
 40
0.9999999999999999
 40
0.9999999999999999
 10
871.3856625610406
 20
701.1867576409813
 30
0.0
 10
871.4304547359551
 20
701.152224306386
 30
0.0
 10
871.5199008225396
 20
701.0832642337357
 30
0.0
 10
871.665656779336
 20
700.9952605113638
 30
0.0
 10
871.818947947532
 20
700.91900673917
 30
0.0
 10
871.9830957743227
 20
700.8607582918183
 30
0.0
 10
872.1545581067891
 20
700.8114379243002
 30
0.0
 10
872.3361063701761
 20
700.7791624519974
 30
0.0
 10
872.5261388664314
 20
700.7570180603559
 30
0.0
 10
872.6558937543928
 20
700.7550639312304
 30
0.0
 10
872.722201022579
 20
700.7540653332891
 30
0.0
  0
SPLINE
  5
121
330
1F
100
AcDbEntity
  8
0
  6
Continuous
 62
     7
370
    25
100
AcDbSpline
210
0.0
220
0.0
230
1.0
 70
     8
 71
     3
 72
    15
 73
    11
 74
     0
 42
0.00000001
 43
0.00000001
 40
0.0
 40
0.0
 40
0.0
 40
0.0
 40
0.1497703860319705
 40
0.2913164099952418
 40
0.4259663731047463
 40
0.5521595739695327
 40
0.6715274135235944
 40
0.7861216286916585
 40
0.8953250730704457
 40
1.0
 40
1.0
 40
1.0
 40
1.0
 10
870.7590599969379
 20
702.2925268717507
 30
0.0
 10
870.7777646630872
 20
702.2309291271367
 30
0.0
 10
870.8141468634482
 20
702.1111161634382
 30
0.0
 10
870.8760766875283
 20
701.9386811790383
 30
0.0
 10
870.9466327379752
 20
701.7806056288102
 30
0.0
 10
871.0223231577147
 20
701.635729921432
 30
0.0
 10
871.1018167486238
 20
701.5026272872283
 30
0.0
 10
871.1907651489356
 20
701.3848173008646
 30
0.0
 10
871.2825803378437
 20
701.2771254100993
 30
0.0
 10
871.351790288361
 20
701.2164520113788
 30
0.0
 10
871.3856625610406
 20
701.1867576409813
 30
0.0
  0
LINE
  5
122
330
1F
100
AcDbEntity
  8
0
  6
Continuous
 62
     7
370
    25
100
AcDbLine
 10
870.041111279
 20
702.2925268718
 30
0.0
 11
870.7590599969
 21
702.2925268718
 31
0.0
  0
SPLINE
  5
123
330
1F
100
AcDbEntity
  8
0
  6
Continuous
 62
     7
370
    25
100
AcDbSpline
210
0.0
220
0.0
230
1.0
 70
     8
 71
     3
 72
    23
 73
    19
 74
     0
 42
0.00000001
 43
0.00000001
 40
0.0
 40
0.0
 40
0.0
 40
0.0
 40
0.0655411703374025
 40
0.1289631677825911
 40
0.1903771361885587
 40
0.2500923616690508
 40
0.3085484324592009
 40
0.3663979630552939
 40
0.4245421892666808
 40
0.4831699964229055
 40
0.5422433998311189
 40
0.6017393520173296
 40
0.662506002249606
 40
0.7248555134488465
 40
0.7891278292811784
 40
0.8563463998785104
 40
0.9262952349869035
 40
1.0
 40
1.0
 40
1.0
 40
1.0
 10
872.7093805097586
 20
699.9335525127764
 30
0.0
 10
872.6238506805399
 20
699.9355370002243
 30
0.0
 10
872.4555564975226
 20
699.9394418097722
 30
0.0
 10
872.2081427869252
 20
699.9661357553643
 30
0.0
 10
871.9719789026635
 20
700.0148900530507
 30
0.0
 10
871.746745536134
 20
700.0804976081732
 30
0.0
 10
871.5322425958059
 20
700.1636787329287
 30
0.0
 10
871.3291246411139
 20
700.267264328406
 30
0.0
 10
871.1361420273537
 20
700.3891191902388
 30
0.0
 10
870.9551158533089
 20
700.5306816766538
 30
0.0
 10
870.7860676985518
 20
700.6890390246691
 30
0.0
 10
870.6334900431686
 20
700.8670024760239
 30
0.0
 10
870.4948390878725
 20
701.061282256415
 30
0.0
 10
870.3738273422462
 20
701.2741349562976
 30
0.0
 10
870.2649428791243
 20
701.5028098300755
 30
0.0
 10
870.1753864067875
 20
701.7502349692335
 30
0.0
 10
870.0965622499047
 20
702.0141984480656
 30
0.0
 10
870.0599143316279
 20
702.1981475684674
 30
0.0
 10
870.0411112789893
 20
702.2925268717507
 30
0.0
  0
SPLINE
  5
124
330
1F
100
AcDbEntity
  8
0
  6
Continuous
 62
     7
370
    25
100
AcDbSpline
210
0.0
220
0.0
230
1.0
 70
     8
 71
     3
 72
    19
 73
    15
 74
     0
 42
0.00000001
 43
0.00000001
 40
0.0
 40
0.0
 40
0.0
 40
0.0
 40
0.0796482511802281
 40
0.1589216764181109
 40
0.2396194947370302
 40
0.3226094298185587
 40
0.4060346366179226
 40
0.487602095492386
 40
0.569684626595928
 40
0.6530361450088333
 40
0.7374357177222877
 40
0.8224778158555078
 40
0.9097476551184072
 40
1.0
 40
1.0
 40
1.0
 40
1.0
 10
875.4770087148867
 20
702.5152832820071
 30
0.0
 10
875.4729069697017
 20
702.4032610621505
 30
0.0
 10
875.46472278221
 20
702.1797438007934
 30
0.0
 10
875.391570612364
 20
701.8495158656314
 30
0.0
 10
875.278168919349
 20
701.5267147175715
 30
0.0
 10
875.1171244942802
 20
701.2179722278671
 30
0.0
 10
874.9208559026723
 20
700.9291027855808
 30
0.0
 10
874.6873534474078
 20
700.6706426506371
 30
0.0
 10
874.4192702281844
 20
700.4484744121546
 30
0.0
 10
874.1202858879541
 20
700.2628510337436
 30
0.0
 10
873.7963610228472
 20
700.1144672115872
 30
0.0
 10
873.4499025268541
 20
700.0114787707952
 30
0.0
 10
873.0859024035053
 20
699.944402200118
 30
0.0
 10
872.8362857233855
 20
699.9372093569406
 30
0.0
 10
872.7093805097586
 20
699.9335525127764
 30
0.0
  0
SPLINE
  5
125
330
1F
100
AcDbEntity
  8
0
  6
Continuous
 62
     7
370
    25
100
AcDbSpline
210
0.0
220
0.0
230
1.0
 70
     8
 71
     3
 72
    15
 73
    11
 74
     0
 42
0.00000001
 43
0.00000001
 40
0.0
 40
0.0
 40
0.0
 40
0.0
 40
0.1281355097972564
 40
0.2541727119019845
 40
0.3781116451390034
 40
0.5017122630072849
 40
0.6239863093684844
 40
0.7470956136177425
 40
0.8728746366500608
 40
0.9999999999999999
 40
0.9999999999999999
 40
0.9999999999999999
 40
0.9999999999999999
 10
874.9994446123226
 20
703.9367576409815
 30
0.0
 10
875.0379391091288
 20
703.8840542087331
 30
0.0
 10
875.1142977287028
 20
703.7795103994307
 30
0.0
 10
875.2085503772784
 20
703.6114271402672
 30
0.0
 10
875.294056924264
 20
703.4414808790509
 30
0.0
 10
875.3606859970112
 20
703.26511652242
 30
0.0
 10
875.4122834069237
 20
703.0843782053958
 30
0.0
 10
875.4491657663291
 20
702.8989555858337
 30
0.0
 10
875.4720780883424
 20
702.7086972488638
 30
0.0
 10
875.4753593500898
 20
702.5799830083599
 30
0.0
 10
875.4770087148867
 20
702.5152832820071
 30
0.0
  0
SPLINE
  5
126
330
1F
100
AcDbEntity
  8
0
  6
Continuous
 62
     7
370
    25
100
AcDbSpline
210
0.0
220
0.0
230
1.0
 70
     8
 71
     3
 72
    11
 73
     7
 74
     0
 42
0.00000001
 43
0.00000001
 40
0.0
 40
0.0
 40
0.0
 40
0.0
 40
0.2538796003266549
 40
0.5030089172783632
 40
0.7502910806899759
 40
1.0
 40
1.0
 40
1.0
 40
1.0
 10
874.1324574328354
 20
704.6194499486737
 30
0.0
 10
874.217558586146
 20
704.5783569851503
 30
0.0
 10
874.386168584471
 20
704.4969399391841
 30
0.0
 10
874.6159983662604
 20
704.3372696362876
 30
0.0
 10
874.8246335099334
 20
704.1529122709072
 30
0.0
 10
874.9409848676564
 20
704.009043349962
 30
0.0
 10
874.9994446123226
 20
703.9367576409815
 30
0.0
  0
SPLINE
  5
127
330
1F
100
AcDbEntity
  8
0
  6
Continuous
 62
     7
370
    25
100
AcDbSpline
210
0.0
220
0.0
230
1.0
 70
     8
 71
     3
 72
    15
 73
    11
 74
     0
 42
0.00000001
 43
0.00000001
 40
0.0
 40
0.0
 40
0.0
 40
0.0
 40
0.1280675485958933
 40
0.2506083188676667
 40
0.3706301659144985
 40
0.4900722467299481
 40
0.6103747641546198
 40
0.7343130699115243
 40
0.8632165042449879
 40
1.0
 40
1.0
 40
1.0
 40
1.0
 10
875.0667523046303
 20
706.2652832820071
 30
0.0
 10
875.0640926679513
 20
706.18069632268
 30
0.0
 10
875.0588881716973
 20
706.0151727696215
 30
0.0
 10
875.0146968446977
 20
705.7735236333057
 30
0.0
 10
874.9403282438377
 20
705.5457714040891
 30
0.0
 10
874.8373116436597
 20
705.3309573192356
 30
0.0
 10
874.7039595288248
 20
705.1304433996398
 30
0.0
 10
874.5424219359327
 20
704.9437785062444
 30
0.0
 10
874.3515587090172
 20
704.770134716237
 30
0.0
 10
874.2069211363926
 20
704.6706616351502
 30
0.0
 10
874.1324574328354
 20
704.6194499486737
 30
0.0
  0
SPLINE
  5
128
330
1F
100
AcDbEntity
  8
0
  6
Continuous
 62
     7
370
    25
100
AcDbSpline
210
0.0
220
0.0
230
1.0
 70
     8
 71
     3
 72
    19
 73
    15
 74
     0
 42
0.00000001
 43
0.00000001
 40
0.0
 40
0.0
 40
0.0
 40
0.0
 40
0.0902542493426785
 40
0.1785397915286853
 40
0.2660930338538204
 40
0.3546309779571771
 40
0.4418861533505629
 40
0.5257469151636495
 40
0.6081136336036354
 40
0.6901972728278821
 40
0.7708214843303363
 40
0.8483261812554109
 40
0.9240117400247418
 40
1.0
 40
1.0
 40
1.0
 40
1.0
 10
872.7302138430917
 20
708.3438089230327
 30
0.0
 10
872.8346315392635
 20
708.3406563967585
 30
0.0
 10
873.0411892785628
 20
708.334420109959
 30
0.0
 10
873.3446476715925
 20
708.2774728265781
 30
0.0
 10
873.6372804009687
 20
708.18735823834
 30
0.0
 10
873.9158843959775
 20
708.062846862027
 30
0.0
 10
874.174669384769
 20
707.9092758605135
 30
0.0
 10
874.4049235259052
 20
707.7264993190397
 30
0.0
 10
874.6035258363142
 20
707.5180437727829
 30
0.0
 10
874.7701415566803
 20
707.2877979114835
 30
0.0
 10
874.9005986973743
 20
707.0417281757417
 30
0.0
 10
874.996796122471
 20
706.7884706736909
 30
0.0
 10
875.0553599647536
 20
706.5286261676591
 30
0.0
 10
875.0629498088912
 20
706.3531809581158
 30
0.0
 10
875.0667523046303
 20
706.2652832820071
 30
0.0
  0
SPLINE
  5
129
330
1F
100
AcDbEntity
  8
0
  6
Continuous
 62
     7
370
    25
100
AcDbSpline
210
0.0
220
0.0
230
1.0
 70
     8
 71
     3
 72
    23
 73
    19
 74
     0
 42
0.00000001
 43
0.00000001
 40
0.0
 40
0.0
 40
0.0
 40
0.0
 40
0.0726253460834363
 40
0.1419766113262354
 40
0.2089849284189394
 40
0.2739568703644433
 40
0.3368893473968416
 40
0.3987449534945902
 40
0.4601158852788609
 40
0.5208249225900299
 40
0.5809944586324842
 40
0.6401519276014673
 40
0.6986224507562548
 40
0.7572710809271677
 40
0.8164266940046613
 40
0.8762540482034712
 40
0.9371652930625409
 40
1.0
 40
1.0
 40
1.0
 40
1.0
 10
870.3488035866816
 20
706.2925268717507
 30
0.0
 10
870.3682539882382
 20
706.3730582636944
 30
0.0
 10
870.4062779323687
 20
706.5304905480159
 30
0.0
 10
870.4855866717262
 20
706.7554214299527
 30
0.0
 10
870.5719849693139
 20
706.9682751931315
 30
0.0
 10
870.6757314940334
 20
707.1650662187209
 30
0.0
 10
870.7888943608358
 20
707.349749424967
 30
0.0
 10
870.918546295775
 20
707.5181359951798
 30
0.0
 10
871.0587056616399
 20
707.6745084876762
 30
0.0
 10
871.2137341171868
 20
707.8132816020925
 30
0.0
 10
871.376313915223
 20
707.9389449831365
 30
0.0
 10
871.5487359032246
 20
708.0460879713476
 30
0.0
 10
871.7275310887575
 20
708.1382574636094
 30
0.0
 10
871.9139382497829
 20
708.2141894221816
 30
0.0
 10
872.1085123565073
 20
708.2713906191327
 30
0.0
 10
872.3094943526693
 20
708.3128918890544
 30
0.0
 10
872.5174109243599
 20
708.339843007259
 30
0.0
 10
872.6585482742988
 20
708.3424733228849
 30
0.0
 10
872.7302138430917
 20
708.3438089230327
 30
0.0
  0
LINE
  5
12A
330
1F
100
AcDbEntity
  8
0
  6
Continuous
 62
     7
370
    25
100
AcDbLine
 10
871.0667523046
 20
706.2925268718
 30
0.0
 11
870.3488035867
 21
706.2925268718
 31
0.0
  0
SPLINE
  5
12B
330
1F
100
AcDbEntity
  8
0
  6
Continuous
 62
     7
370
    25
100
AcDbSpline
210
0.0
220
0.0
230
1.0
 70
     8
 71
     3
 72
    19
 73
    15
 74
     0
 42
0.00000001
 43
0.00000001
 40
0.0
 40
0.0
 40
0.0
 40
0.0
 40
0.1227119423657767
 40
0.2396849640167715
 40
0.3518158552560962
 40
0.4637661328620805
 40
0.5208177931608309
 40
0.5794482914480008
 40
0.6406041451203187
 40
0.705297511805982
 40
0.7736338807131368
 40
0.8446693818863791
 40
0.9200565080211465
 40
1.0
 40
1.0
 40
1.0
 40
1.0
 10
872.7398292277072
 20
707.5232961025198
 30
0.0
 10
872.6487397008432
 20
707.5201158465128
 30
0.0
 10
872.4708206691029
 20
707.5139040668608
 30
0.0
 10
872.2143294304622
 20
707.4594971789751
 30
0.0
 10
871.9758852384609
 20
707.3726901309901
 30
0.0
 10
871.7936254291138
 20
707.2690718008603
 30
0.0
 10
871.6590366881801
 20
707.166785094915
 30
0.0
 10
871.5628608294298
 20
707.0774539260667
 30
0.0
 10
871.4684139485045
 20
706.9781789005547
 30
0.0
 10
871.3819095442777
 20
706.8628454713489
 30
0.0
 10
871.2944261690214
 20
706.7392642366272
 30
0.0
 10
871.2147814569561
 20
706.6011529645319
 30
0.0
 10
871.1373878746671
 20
706.4521143489847
 30
0.0
 10
871.0907534755388
 20
706.3467528985802
 30
0.0
 10
871.0667523046303
 20
706.2925268717507
 30
0.0
  0
SPLINE
  5
12C
330
1F
100
AcDbEntity
  8
0
  6
Continuous
 62
     7
370
    25
100
AcDbSpline
210
0.0
220
0.0
230
1.0
 70
     8
 71
     3
 72
    23
 73
    19
 74
     0
 42
0.00000001
 43
0.00000001
 40
0.0
 40
0.0
 40
0.0
 40
0.0
 40
0.0552745490875263
 40
0.1099660938819816
 40
0.1632474428518023
 40
0.2180761854823577
 40
0.2733008743735884
 40
0.3309093000114318
 40
0.3909945233652098
 40
0.4541759534308219
 40
0.5188615408488225
 40
0.5833105320111692
 40
0.6485166818638243
 40
0.7150308870971793
 40
0.7825020728543316
 40
0.852322685076854
 40
0.9249284897844289
 40
1.0
 40
1.0
 40
1.0
 40
1.0
 10
874.3488035866816
 20
706.2684884102122
 30
0.0
 10
874.3478563616262
 20
706.3102661133952
 30
0.0
 10
874.3459719023031
 20
706.3933808724702
 30
0.0
 10
874.3222066959407
 20
706.5148096009009
 30
0.0
 10
874.2864946022661
 20
706.6325260487321
 30
0.0
 10
874.2373980781358
 20
706.7460296150272
 30
0.0
 10
874.1716833382349
 20
706.8545330982228
 30
0.0
 10
874.0930410833221
 20
706.9589615529433
 30
0.0
 10
873.9993997112546
 20
707.0587187621002
 30
0.0
 10
873.8920958323779
 20
707.1517023496536
 30
0.0
 10
873.7768688495917
 20
707.2403177488892
 30
0.0
 10
873.650583649482
 20
707.3155489191278
 30
0.0
 10
873.5170479358547
 20
707.3798804895881
 30
0.0
 10
873.3761138676264
 20
707.4329307801113
 30
0.0
 10
873.2273240840415
 20
707.4728377246066
 30
0.0
 10
873.0713776665358
 20
707.5014910763823
 30
0.0
 10
872.9079772470787
 20
707.5194057157688
 30
0.0
 10
872.796499002491
 20
707.5219849521309
 30
0.0
 10
872.7398292277072
 20
707.5232961025198
 30
0.0
  0
SPLINE
  5
12D
330
1F
100
AcDbEntity
  8
0
  6
Continuous
 62
     7
370
    25
100
AcDbSpline
210
0.0
220
0.0
230
1.0
 70
     8
 71
     3
 72
    19
 73
    15
 74
     0
 42
0.00000001
 43
0.00000001
 40
0.0
 40
0.0
 40
0.0
 40
0.0
 40
0.0969723103815162
 40
0.1877734389628667
 40
0.2723961390136915
 40
0.3513209973752904
 40
0.4243347744514641
 40
0.4919087840005257
 40
0.5542332197968012
 40
0.6112676582441532
 40
0.7163478449915544
 40
0.8145400858216157
 40
0.9084954561491835
 40
0.9999999999999999
 40
0.9999999999999999
 40
0.9999999999999999
 40
0.9999999999999999
 10
867.2334189712969
 20
704.6803473845712
 30
0.0
 10
867.3202439159996
 20
704.6171671341717
 30
0.0
 10
867.488368387722
 20
704.4948273358794
 30
0.0
 10
867.7275857132338
 20
704.3110200672452
 30
0.0
 10
867.9444858460221
 20
704.1312537390755
 30
0.0
 10
868.1398303113253
 20
703.9566763514273
 30
0.0
 10
868.3155489591877
 20
703.7886121388475
 30
0.0
 10
868.4696923207301
 20
703.6250391552356
 30
0.0
 10
868.6038310186666
 20
703.4671292748192
 30
0.0
 10
868.7482406608611
 20
703.2646776732392
 30
0.0
 10
868.8958013911936
 20
703.016035194898
 30
0.0
 10
869.0225248367392
 20
702.7113992210801
 30
0.0
 10
869.1024296309209
 20
702.4055790599443
 30
0.0
 10
869.1128788090512
 20
702.2000320051442
 30
0.0
 10
869.1180343559124
 20
702.0986166153405
 30
0.0
  0
SPLINE
  5
12E
330
1F
100
AcDbEntity
  8
0
  6
Continuous
 62
     7
370
    25
100
AcDbSpline
210
0.0
220
0.0
230
1.0
 70
     8
 71
     3
 72
    15
 73
    11
 74
     0
 42
0.00000001
 43
0.00000001
 40
0.0
 40
0.0
 40
0.0
 40
0.0
 40
0.0525942815291441
 40
0.124951973975044
 40
0.2180938989285983
 40
0.3335024107325271
 40
0.4687891785044491
 40
0.6249375859646015
 40
0.801683047928222
 40
0.9999999999999999
 40
0.9999999999999999
 40
0.9999999999999999
 40
0.9999999999999999
 10
866.1580984584765
 20
705.4768217435455
 30
0.0
 10
866.1756101668369
 20
705.4611942559666
 30
0.0
 10
866.2172139774356
 20
705.4240669226425
 30
0.0
 10
866.2932732362691
 20
705.3632845668853
 30
0.0
 10
866.3937139179375
 20
705.288306801639
 30
0.0
 10
866.5159132349131
 20
705.1955357925538
 30
0.0
 10
866.6621243474322
 20
705.087921022
 30
0.0
 10
866.8323633329055
 20
704.9668384799114
 30
0.0
 10
867.0247325508141
 20
704.8283574307528
 30
0.0
 10
867.1612397871559
 20
704.7315401950729
 30
0.0
 10
867.2334189712969
 20
704.6803473845712
 30
0.0
  0
SPLINE
  5
12F
330
1F
100
AcDbEntity
  8
0
  6
Continuous
 62
     7
370
    25
100
AcDbSpline
210
0.0
220
0.0
230
1.0
 70
     8
 71
     3
 72
    15
 73
    11
 74
     0
 42
0.00000001
 43
0.00000001
 40
0.0
 40
0.0
 40
0.0
 40
0.0
 40
0.1072852142689613
 40
0.2147458609696439
 40
0.3229385595552925
 40
0.4341161625174666
 40
0.5534123109628022
 40
0.6860729848107352
 40
0.8342559920595911
 40
0.9999999999999999
 40
0.9999999999999999
 40
0.9999999999999999
 40
0.9999999999999999
 10
865.6308548687329
 20
706.5104755896994
 30
0.0
 10
865.6317534438983
 20
706.4676150673212
 30
0.0
 10
865.6335520635765
 20
706.3818239371786
 30
0.0
 10
865.6586373154312
 20
706.2550778298553
 30
0.0
 10
865.690864353049
 20
706.1286519111842
 30
0.0
 10
865.7419332256283
 20
706.0031145789918
 30
0.0
 10
865.8124367767501
 20
705.8762703297294
 30
0.0
 10
865.9050200359646
 20
705.7459349295957
 30
0.0
 10
866.0216218920789
 20
705.610959595488
 30
0.0
 10
866.1109407774535
 20
705.5231713125739
 30
0.0
 10
866.1580984584765
 20
705.4768217435455
 30
0.0
  0
SPLINE
  5
130
330
1F
100
AcDbEntity
  8
0
  6
Continuous
 62
     7
370
    25
100
AcDbSpline
210
0.0
220
0.0
230
1.0
 70
     8
 71
     3
 72
    15
 73
    11
 74
     0
 42
0.00000001
 43
0.00000001
 40
0.0
 40
0.0
 40
0.0
 40
0.0
 40
0.1430730837303683
 40
0.2759029640930095
 40
0.4023708562739973
 40
0.5284136450935955
 40
0.6503563791869531
 40
0.7658950861246914
 40
0.880774130844022
 40
1.0
 40
1.0
 40
1.0
 40
1.0
 10
866.8039317918098
 20
707.5232961025198
 30
0.0
 10
866.7212883120259
 20
707.5205265026299
 30
0.0
 10
866.5619181465073
 20
707.515185590146
 30
0.0
 10
866.3356547496901
 20
707.4568541951935
 30
0.0
 10
866.1320114924026
 20
707.365009943066
 30
0.0
 10
865.9570342008456
 20
707.2362899931329
 30
0.0
 10
865.8113496818901
 20
707.0837848669955
 30
0.0
 10
865.7059657761417
 20
706.90829034111
 30
0.0
 10
865.6425368285942
 20
706.7145019922997
 30
0.0
 10
865.6347967608204
 20
706.5793210635414
 30
0.0
 10
865.6308548687329
 20
706.5104755896994
 30
0.0
  0
SPLINE
  5
131
330
1F
100
AcDbEntity
  8
0
  6
Continuous
 62
     7
370
    25
100
AcDbSpline
210
0.0
220
0.0
230
1.0
 70
     8
 71
     3
 72
    19
 73
    15
 74
     0
 42
0.00000001
 43
0.00000001
 40
0.0
 40
0.0
 40
0.0
 40
0.0
 40
0.0984694310255588
 40
0.1896291011376289
 40
0.2741840894379703
 40
0.3521831609671498
 40
0.4231988731834703
 40
0.4885509460005293
 40
0.5484733460279364
 40
0.6014401636178723
 40
0.7011980824257671
 40
0.7995918021381857
 40
0.8985450984822301
 40
1.0
 40
1.0
 40
1.0
 40
1.0
 10
868.3664317918098
 20
706.4976550768789
 30
0.0
 10
868.327241089016
 20
706.5481435121305
 30
0.0
 10
868.2517689585653
 20
706.6453724337858
 30
0.0
 10
868.1371872743127
 20
706.7815354408859
 30
0.0
 10
868.0291903647807
 20
706.9059159655303
 30
0.0
 10
867.9227894509883
 20
707.0139505438847
 30
0.0
 10
867.8236040076375
 20
707.1115554200857
 30
0.0
 10
867.7273364825016
 20
707.1951205785415
 30
0.0
 10
867.6353722511019
 20
707.2654647966674
 30
0.0
 10
867.5194478839109
 20
707.3405357908598
 30
0.0
 10
867.3738073848865
 20
707.4149506561278
 30
0.0
 10
867.190985587768
 20
707.4779199774483
 30
0.0
 10
866.9999312448309
 20
707.515760118977
 30
0.0
 10
866.8698063728522
 20
707.5207632905606
 30
0.0
 10
866.8039317918098
 20
707.5232961025198
 30
0.0
  0
LINE
  5
132
330
1F
100
AcDbEntity
  8
0
  6
Continuous
 62
     7
370
    25
100
AcDbLine
 10
869.0154702533
 20
706.9896422564
 30
0.0
 11
868.3664317918
 21
706.4976550769
 31
0.0
  0
SPLINE
  5
133
330
1F
100
AcDbEntity
  8
0
  6
Continuous
 62
     7
370
    25
100
AcDbSpline
210
0.0
220
0.0
230
1.0
 70
     8
 71
     3
 72
    19
 73
    15
 74
     0
 42
0.00000001
 43
0.00000001
 40
0.0
 40
0.0
 40
0.0
 40
0.0
 40
0.107232799360087
 40
0.2132518127818486
 40
0.3188304473075887
 40
0.4267935306342717
 40
0.4836459507827179
 40
0.5436038220211407
 40
0.6083076495640818
 40
0.6771267602600382
 40
0.7506856360204979
 40
0.8287134184432897
 40
0.9121903482234519
 40
0.9999999999999999
 40
0.9999999999999999
 40
0.9999999999999999
 40
0.9999999999999999
 10
866.8840599969379
 20
708.3438089230327
 30
0.0
 10
866.9783322261906
 20
708.3405573765202
 30
0.0
 10
867.1658096016118
 20
708.3340910882927
 30
0.0
 10
867.4415792371993
 20
708.2778681595619
 30
0.0
 10
867.7070894461151
 20
708.1848380526179
 30
0.0
 10
867.9206740514167
 20
708.0792639772405
 30
0.0
 10
868.0878346490438
 20
707.9738207413245
 30
0.0
 10
868.2153151809041
 20
707.8777754286871
 30
0.0
 10
868.3444979255593
 20
707.7672037518777
 30
0.0
 10
868.4764249080249
 20
707.6418111894071
 30
0.0
 10
868.6088607010287
 20
707.5004471869166
 30
0.0
 10
868.7437714490154
 20
707.3440798979813
 30
0.0
 10
868.8814726348684
 20
707.1736649131484
 30
0.0
 10
868.9700574580087
 20
707.0520089114239
 30
0.0
 10
869.0154702533482
 20
706.9896422563661
 30
0.0
  0
SPLINE
  5
134
330
1F
100
AcDbEntity
  8
0
  6
Continuous
 62
     7
370
    25
100
AcDbSpline
210
0.0
220
0.0
230
1.0
 70
     8
 71
     3
 72
    19
 73
    15
 74
     0
 42
0.00000001
 43
0.00000001
 40
0.0
 40
0.0
 40
0.0
 40
0.0
 40
0.0837853706537113
 40
0.1657798879221434
 40
0.2462800078932638
 40
0.3274609277363909
 40
0.4087969540320667
 40
0.489715241230986
 40
0.5713760321300516
 40
0.6555233211112749
 40
0.7410194827999712
 40
0.8265467605037619
 40
0.9119888516548297
 40
0.9999999999999999
 40
0.9999999999999999
 40
0.9999999999999999
 40
0.9999999999999999
 10
864.9129061507841
 20
706.4768217435455
 30
0.0
 10
864.9158894856262
 20
706.5614612282648
 30
0.0
 10
864.9217923886256
 20
706.7289310882305
 30
0.0
 10
864.971713570958
 20
706.9735729863839
 30
0.0
 10
865.050508756454
 20
707.2071419400241
 30
0.0
 10
865.1608970715661
 20
707.4273255599663
 30
0.0
 10
865.303199592522
 20
707.6283906591394
 30
0.0
 10
865.4678761053568
 20
707.8126500579555
 30
0.0
 10
865.6640166453282
 20
707.9675496744604
 30
0.0
 10
865.8792226413588
 20
708.1028915222072
 30
0.0
 10
866.1147800632622
 20
708.2088250655377
 30
0.0
 10
866.3616164138853
 20
708.288735877333
 30
0.0
 10
866.6201240070857
 20
708.3340141806266
 30
0.0
 10
866.7952168862249
 20
708.3405119289984
 30
0.0
 10
866.8840599969379
 20
708.3438089230327
 30
0.0
  0
SPLINE
  5
135
330
1F
100
AcDbEntity
  8
0
  6
Continuous
 62
     7
370
    25
100
AcDbSpline
210
0.0
220
0.0
230
1.0
 70
     8
 71
     3
 72
    15
 73
    11
 74
     0
 42
0.00000001
 43
0.00000001
 40
0.0
 40
0.0
 40
0.0
 40
0.0
 40
0.1335067689985155
 40
0.2625589787303678
 40
0.3882644471488849
 40
0.5126673546814283
 40
0.633722269965767
 40
0.7553938601370978
 40
0.8775529450912812
 40
1.0
 40
1.0
 40
1.0
 40
1.0
 10
865.3600215353995
 20
705.2588730255968
 30
0.0
 10
865.3246557177283
 20
705.305961109835
 30
0.0
 10
865.2551040909505
 20
705.3985661470228
 30
0.0
 10
865.1632960784588
 20
705.5433086790633
 30
0.0
 10
865.0852637063481
 20
705.6914761428559
 30
0.0
 10
865.0240926614654
 20
705.843466690432
 30
0.0
 10
864.9725813041177
 20
705.9971465278734
 30
0.0
 10
864.9379346053342
 20
706.1545208037583
 30
0.0
 10
864.9162399838125
 20
706.3148833602485
 30
0.0
 10
864.9140183003083
 20
706.4227999331
 30
0.0
 10
864.9129061507841
 20
706.4768217435455
 30
0.0
  0
SPLINE
  5
136
330
1F
100
AcDbEntity
  8
0
  6
Continuous
 62
     7
370
    25
100
AcDbSpline
210
0.0
220
0.0
230
1.0
 70
     8
 71
     3
 72
    15
 73
    11
 74
     0
 42
0.00000001
 43
0.00000001
 40
0.0
 40
0.0
 40
0.0
 40
0.0
 40
0.1815353013762816
 40
0.3470816724816241
 40
0.4955678164315533
 40
0.6283573018772152
 40
0.7455196699921545
 40
0.8458307507576536
 40
0.9307818073847599
 40
1.0
 40
1.0
 40
1.0
 40
1.0
 10
866.670918971297
 20
704.1707319999557
 30
0.0
 10
866.5867498371734
 20
704.2306830573714
 30
0.0
 10
866.425824862133
 20
704.345304913931
 30
0.0
 10
866.2007766739127
 20
704.515417563105
 30
0.0
 10
865.999532187033
 20
704.6709464077721
 30
0.0
 10
865.822985863551
 20
704.8133555782922
 30
0.0
 10
865.6712153564744
 20
704.9426643891035
 30
0.0
 10
865.5430247027277
 20
705.0576311071426
 30
0.0
 10
865.4416794293664
 20
705.161364960556
 30
0.0
 10
865.3853238164327
 20
705.2286594559735
 30
0.0
 10
865.3600215353995
 20
705.2588730255968
 30
0.0
  0
SPLINE
  5
137
330
1F
100
AcDbEntity
  8
0
  6
Continuous
 62
     7
370
    25
100
AcDbSpline
210
0.0
220
0.0
230
1.0
 70
     8
 71
     3
 72
    15
 73
    11
 74
     0
 42
0.00000001
 43
0.00000001
 40
0.0
 40
0.0
 40
0.0
 40
0.0
 40
0.0902792146500146
 40
0.189529918446962
 40
0.2991978724002915
 40
0.4189258867738207
 40
0.548376285401251
 40
0.6881363695386838
 40
0.8390835016589243
 40
0.9999999999999999
 40
0.9999999999999999
 40
0.9999999999999999
 40
0.9999999999999999
 10
868.1132266636047
 20
702.8950909743148
 30
0.0
 10
868.0774081169061
 20
702.9409122854081
 30
0.0
 10
868.0022115585292
 20
703.0371083964213
 30
0.0
 10
867.8729372440308
 20
703.1802975060795
 30
0.0
 10
867.7212432684756
 20
703.3279967493984
 30
0.0
 10
867.552320857249
 20
703.4858460224254
 30
0.0
 10
867.3600166541847
 20
703.6465038434268
 30
0.0
 10
867.1503537641204
 20
703.8176313358587
 30
0.0
 10
866.9179792293406
 20
703.9927206548224
 30
0.0
 10
866.7550089513567
 20
704.110143661786
 30
0.0
 10
866.670918971297
 20
704.1707319999557
 30
0.0
  0
SPLINE
  5
138
330
1F
100
AcDbEntity
  8
0
  6
Continuous
 62
     7
370
    25
100
AcDbSpline
210
0.0
220
0.0
230
1.0
 70
     8
 71
     3
 72
    11
 73
     7
 74
     0
 42
0.00000001
 43
0.00000001
 40
0.0
 40
0.0
 40
0.0
 40
0.0
 40
0.2347233736739085
 40
0.4771583189290007
 40
0.7285562842030581
 40
0.9999999999999999
 40
0.9999999999999999
 40
0.9999999999999999
 40
0.9999999999999999
 10
868.4000856379637
 20
702.1098345640584
 30
0.0
 10
868.3967157849366
 20
702.1764422205325
 30
0.0
 10
868.389865366164
 20
702.3118458528746
 30
0.0
 10
868.3319648402842
 20
702.5116164881979
 30
0.0
 10
868.240880847499
 20
702.7093137911105
 30
0.0
 10
868.156851947602
 20
702.8316023981455
 30
0.0
 10
868.1132266636047
 20
702.8950909743148
 30
0.0
  0
SPLINE
  5
139
330
1F
100
AcDbEntity
  8
0
  6
Continuous
 62
     7
370
    25
100
AcDbSpline
210
0.0
220
0.0
230
1.0
 70
     8
 71
     3
 72
    19
 73
    15
 74
     0
 42
0.00000001
 43
0.00000001
 40
0.0
 40
0.0
 40
0.0
 40
0.0
 40
0.0912636048966211
 40
0.1809303110850779
 40
0.2700882198317234
 40
0.3601561333877264
 40
0.4483425324981547
 40
0.5326658421383305
 40
0.6138337041070491
 40
0.6939815272835617
 40
0.7727159770890075
 40
0.8493351720622492
 40
0.9239673265752312
 40
1.0
 40
1.0
 40
1.0
 40
1.0
 10
866.832777945656
 20
700.7540653332891
 30
0.0
 10
866.9029193411108
 20
700.7560188704599
 30
0.0
 10
867.0419748223616
 20
700.7598917624898
 30
0.0
 10
867.2466885205585
 20
700.797105024317
 30
0.0
 10
867.4455040685951
 20
700.8542756046907
 30
0.0
 10
867.6343238119792
 20
700.9361520195672
 30
0.0
 10
867.8105423594799
 20
701.03521141551
 30
0.0
 10
867.9650719488208
 20
701.1548598212411
 30
0.0
 10
868.0986630646596
 20
701.2888168628723
 30
0.0
 10
868.207941040813
 20
701.4382629306252
 30
0.0
 10
868.2917811214722
 20
701.5989878417276
 30
0.0
 10
868.356220134988
 20
701.7639614447866
 30
0.0
 10
868.3919803033456
 20
701.9357753151386
 30
0.0
 10
868.3973671683893
 20
702.0514563730765
 30
0.0
 10
868.4000856379637
 20
702.1098345640584
 30
0.0
  0
SPLINE
  5
13A
330
1F
100
AcDbEntity
  8
0
  6
Continuous
 62
     7
370
    25
100
AcDbSpline
210
0.0
220
0.0
230
1.0
 70
     8
 71
     3
 72
    15
 73
    11
 74
     0
 42
0.00000001
 43
0.00000001
 40
0.0
 40
0.0
 40
0.0
 40
0.0
 40
0.1590042985173799
 40
0.3046460998968151
 40
0.4385469045795942
 40
0.562322298775926
 40
0.6774325425257256
 40
0.7868973929387534
 40
0.8936108891042619
 40
1.0
 40
1.0
 40
1.0
 40
1.0
 10
865.0763676892457
 20
702.0873986666226
 30
0.0
 10
865.1392665172469
 20
701.9821086438862
 30
0.0
 10
865.2597782443971
 20
701.7803770235229
 30
0.0
 10
865.46080992246
 20
701.5077872168285
 30
0.0
 10
865.6691137194107
 20
701.2761022870937
 30
0.0
 10
865.8862321960952
 20
701.0866700412884
 30
0.0
 10
866.1108400775177
 20
700.9375297287223
 30
0.0
 10
866.3444036289159
 20
700.8319246276515
 30
0.0
 10
866.5861357676849
 20
700.7660595410883
 30
0.0
 10
866.7506473596378
 20
700.7580593432491
 30
0.0
 10
866.832777945656
 20
700.7540653332891
 30
0.0
  0
LINE
  5
13B
330
1F
100
AcDbEntity
  8
0
  6
Continuous
 62
     7
370
    25
100
AcDbLine
 10
864.400085638
 20
701.6819499487
 30
0.0
 11
865.0763676892
 21
702.0873986666
 31
0.0
  0
SPLINE
  5
13C
330
1F
100
AcDbEntity
  8
0
  6
Continuous
 62
     7
370
    25
100
AcDbSpline
210
0.0
220
0.0
230
1.0
 70
     8
 71
     3
 72
    23
 73
    19
 74
     0
 42
0.00000001
 43
0.00000001
 40
0.0
 40
0.0
 40
0.0
 40
0.0
 40
0.0572082694335125
 40
0.1136960596574911
 40
0.169177916417197
 40
0.2241592165805461
 40
0.2787198783810435
 40
0.3337942174469887
 40
0.3892414593400035
 40
0.4458220733936241
 40
0.503704281109019
 40
0.5642938918193645
 40
0.6279754158952245
 40
0.6950382596840519
 40
0.7653727258510113
 40
0.8396114430907331
 40
0.9175377500777866
 40
0.9999999999999999
 40
0.9999999999999999
 40
0.9999999999999999
 40
0.9999999999999999
 10
866.832777945656
 20
699.9335525127764
 30
0.0
 10
866.7723543045565
 20
699.9347209278561
 30
0.0
 10
866.6522679958606
 20
699.9370430430316
 30
0.0
 10
866.4746463230075
 20
699.9575716839965
 30
0.0
 10
866.3006129762691
 20
699.986616492205
 30
0.0
 10
866.1323517601911
 20
700.0327286521523
 30
0.0
 10
865.9676948192957
 20
700.0886760282485
 30
0.0
 10
865.8073582832365
 20
700.1575636456157
 30
0.0
 10
865.6512644458517
 20
700.2401172489241
 30
0.0
 10
865.4985385421525
 20
700.3345058766467
 30
0.0
 10
865.3495690002413
 20
700.444352149935
 30
0.0
 10
865.2057530735468
 20
700.572291570365
 30
0.0
 10
865.0623720780878
 20
700.7147955817737
 30
0.0
 10
864.9236580293527
 20
700.8757340123149
 30
0.0
 10
864.7868051280824
 20
701.0525067731326
 30
0.0
 10
864.6545116205704
 20
701.2467677637553
 30
0.0
 10
864.5240391230183
 20
701.4574588580614
 30
0.0
 10
864.4421751965558
 20
701.6057219111353
 30
0.0
 10
864.4000856379637
 20
701.6819499486737
 30
0.0
  0
SPLINE
  5
13D
330
1F
100
AcDbEntity
  8
0
  6
Continuous
 62
     7
370
    25
100
AcDbSpline
210
0.0
220
0.0
230
1.0
 70
     8
 71
     3
 72
    23
 73
    19
 74
     0
 42
0.00000001
 43
0.00000001
 40
0.0
 40
0.0
 40
0.0
 40
0.0
 40
0.061484255196891
 40
0.1217745277022083
 40
0.1809195598139334
 40
0.2402561150782704
 40
0.3001144444023535
 40
0.361145947612614
 40
0.4235005824125876
 40
0.4886693612807201
 40
0.5539541046535622
 40
0.6175812610152618
 40
0.6802384268167401
 40
0.7421873887724529
 40
0.8046632117692963
 40
0.868258989312665
 40
0.9330202571803787
 40
1.0
 40
1.0
 40
1.0
 40
1.0
 10
869.1180343559124
 20
702.0986166153405
 30
0.0
 10
869.1165323259147
 20
702.0268946379791
 30
0.0
 10
869.1135574343272
 20
701.8848434755947
 30
0.0
 10
869.079361059976
 20
701.6762604427215
 30
0.0
 10
869.0292589681759
 20
701.4736755977295
 30
0.0
 10
868.9537452905746
 20
701.2795930549981
 30
0.0
 10
868.8615780716948
 20
701.0904621688644
 30
0.0
 10
868.7446266480011
 20
700.9112441107824
 30
0.0
 10
868.6090662257434
 20
700.7379723425836
 30
0.0
 10
868.4535604773906
 20
700.5752672194861
 30
0.0
 10
868.2833984149528
 20
700.4259044858052
 30
0.0
 10
868.1035499700093
 20
700.2930380595824
 30
0.0
 10
867.9137207747314
 20
700.1822533203932
 30
0.0
 10
867.7149406223125
 20
700.0918513957075
 30
0.0
 10
867.5071638526963
 20
700.0211462127904
 30
0.0
 10
867.2904603467889
 20
699.9699167976341
 30
0.0
 10
867.0644728925728
 20
699.9384751726889
 30
0.0
 10
866.9108717918357
 20
699.9352117179127
 30
0.0
 10
866.832777945656
 20
699.9335525127764
 30
0.0
  0
LINE
  5
13E
330
1F
100
AcDbEntity
  8
0
  6
Continuous
 62
     7
370
    25
100
AcDbLine
 10
863.1693164072
 20
708.1386807179
 30
0.0
 11
863.1693164072
 21
700.1386807179
 31
0.0
  0
LINE
  5
13F
330
1F
100
AcDbEntity
  8
0
  6
Continuous
 62
     7
370
    25
100
AcDbLine
 10
862.4513676892
 20
708.1386807179
 30
0.0
 11
863.1693164072
 21
708.1386807179
 31
0.0
  0
LINE
  5
140
330
1F
100
AcDbEntity
  8
0
  6
Continuous
 62
     7
370
    25
100
AcDbLine
 10
862.4513676892
 20
700.1386807179
 30
0.0
 11
862.4513676892
 21
708.1386807179
 31
0.0
  0
LINE
  5
141
330
1F
100
AcDbEntity
  8
0
  6
Continuous
 62
     7
370
    25
100
AcDbLine
 10
863.1693164072
 20
700.1386807179
 30
0.0
 11
862.4513676892
 21
700.1386807179
 31
0.0
  0
SPLINE
  5
142
330
1F
100
AcDbEntity
  8
0
  6
Continuous
 62
     7
370
    25
100
AcDbSpline
210
0.0
220
0.0
230
1.0
 70
     8
 71
     3
 72
    11
 73
     7
 74
     0
 42
0.00000001
 43
0.00000001
 40
0.0
 40
0.0
 40
0.0
 40
0.0
 40
0.26295162556748
 40
0.5157066923583496
 40
0.7621092269531187
 40
0.9999999999999999
 40
0.9999999999999999
 40
0.9999999999999999
 40
0.9999999999999999
 10
858.0507266636046
 20
700.8694499486737
 30
0.0
 10
858.0948050900256
 20
700.85217118904
 30
0.0
 10
858.1812526997135
 20
700.8182836937277
 30
0.0
 10
858.3134243103821
 20
700.780464497588
 30
0.0
 10
858.444841537722
 20
700.7597961320563
 30
0.0
 10
858.5319676951317
 20
700.7559530848822
 30
0.0
 10
858.5747651251431
 20
700.7540653332891
 30
0.0
  0
SPLINE
  5
143
330
1F
100
AcDbEntity
  8
0
  6
Continuous
 62
     7
370
    25
100
AcDbSpline
210
0.0
220
0.0
230
1.0
 70
     8
 71
     3
 72
    11
 73
     7
 74
     0
 42
0.00000001
 43
0.00000001
 40
0.0
 40
0.0
 40
0.0
 40
0.0
 40
0.2991842876765367
 40
0.5648989463568078
 40
0.7985478688426111
 40
1.0
 40
1.0
 40
1.0
 40
1.0
 10
857.0282907661688
 20
701.4720140512378
 30
0.0
 10
857.1258968896487
 20
701.4047057170876
 30
0.0
 10
857.3101899778321
 20
701.2776188057467
 30
0.0
 10
857.5810572712861
 20
701.1141294333099
 30
0.0
 10
857.8210507638712
 20
700.9739576263216
 30
0.0
 10
857.97804035776
 20
700.9025238455407
 30
0.0
 10
858.0507266636046
 20
700.8694499486737
 30
0.0
  0
LINE
  5
144
330
1F
100
AcDbEntity
  8
0
  6
Continuous
 62
     7
370
    25
100
AcDbLine
 10
856.6052138431
 20
700.8566294359
 30
0.0
 11
857.0282907662
 21
701.4720140512
 31
0.0
  0
SPLINE
  5
145
330
1F
100
AcDbEntity
  8
0
  6
Continuous
 62
     7
370
    25
100
AcDbSpline
210
0.0
220
0.0
230
1.0
 70
     8
 71
     3
 72
    15
 73
    11
 74
     0
 42
0.00000001
 43
0.00000001
 40
0.0
 40
0.0
 40
0.0
 40
0.0
 40
0.106070902105127
 40
0.2134216804124516
 40
0.3216854881303218
 40
0.433857939098156
 40
0.5540812827743539
 40
0.6875870439665607
 40
0.8364658500651146
 40
1.0
 40
1.0
 40
1.0
 40
1.0
 10
858.534701022579
 20
699.9335525127764
 30
0.0
 10
858.4570819179768
 20
699.9360224764998
 30
0.0
 10
858.3009071385833
 20
699.9409922071046
 30
0.0
 10
858.0684712328411
 20
699.9814989797895
 30
0.0
 10
857.8366952880255
 20
700.0439356502956
 30
0.0
 10
857.6043491192477
 20
700.1353701540642
 30
0.0
 10
857.3668422818807
 20
700.2597258077432
 30
0.0
 10
857.1209580608669
 20
700.4224339599239
 30
0.0
 10
856.8635336243893
 20
700.6231917345463
 30
0.0
 10
856.693971827574
 20
700.7764208673645
 30
0.0
 10
856.6052138430919
 20
700.8566294358533
 30
0.0
  0
SPLINE
  5
146
330
1F
100
AcDbEntity
  8
0
  6
Continuous
 62
     7
370
    25
100
AcDbSpline
210
0.0
220
0.0
230
1.0
 70
     8
 71
     3
 72
    23
 73
    19
 74
     0
 42
0.00000001
 43
0.00000001
 40
0.0
 40
0.0
 40
0.0
 40
0.0
 40
0.0773606839426995
 40
0.1485419530250462
 40
0.2140077372521345
 40
0.2729945033606898
 40
0.3264091957674697
 40
0.3738804007298096
 40
0.4160199382657584
 40
0.4521255195126324
 40
0.5180017107054554
 40
0.5823669297335154
 40
0.647043782341806
 40
0.713330421064475
 40
0.7809119703509664
 40
0.8503949591306437
 40
0.9229229735922754
 40
1.0
 40
1.0
 40
1.0
 40
1.0
 10
860.4000856379637
 20
702.7364371281609
 30
0.0
 10
860.3993681096623
 20
702.6365395946849
 30
0.0
 10
860.3979903677681
 20
702.4447241405207
 30
0.0
 10
860.3904145722585
 20
702.1684409499113
 30
0.0
 10
860.3763951941867
 20
701.9161650957319
 30
0.0
 10
860.3559723084963
 20
701.687322931177
 30
0.0
 10
860.3287260620424
 20
701.4826313762336
 30
0.0
 10
860.2975465691967
 20
701.3005088212283
 30
0.0
 10
860.2598030291375
 20
701.1424752616217
 30
0.0
 10
860.2029653918092
 20
700.9650230199351
 30
0.0
 10
860.1097677951325
 20
700.770408609116
 30
0.0
 10
859.9695002793726
 20
700.5602254077312
 30
0.0
 10
859.7952538875219
 20
700.3763776119591
 30
0.0
 10
859.5934229545526
 20
700.2167142407233
 30
0.0
 10
859.3622434709416
 20
700.0894977123202
 30
0.0
 10
859.1064761129436
 20
699.9981715902406
 30
0.0
 10
858.8276953416338
 20
699.9424667750995
 30
0.0
 10
858.6343257133998
 20
699.936583563449
 30
0.0
 10
858.534701022579
 20
699.9335525127764
 30
0.0
  0
LINE
  5
147
330
1F
100
AcDbEntity
  8
0
  6
Continuous
 62
     7
370
    25
100
AcDbLine
 10
860.400085638
 20
708.1386807179
 30
0.0
 11
860.400085638
 21
702.7364371282
 31
0.0
  0
LINE
  5
148
330
1F
100
AcDbEntity
  8
0
  6
Continuous
 62
     7
370
    25
100
AcDbLine
 10
859.68213692
 20
708.1386807179
 30
0.0
 11
860.400085638
 21
708.1386807179
 31
0.0
  0
LINE
  5
149
330
1F
100
AcDbEntity
  8
0
  6
Continuous
 62
     7
370
    25
100
AcDbLine
 10
859.68213692
 20
702.8165653333
 30
0.0
 11
859.68213692
 21
708.1386807179
 31
0.0
  0
SPLINE
  5
14A
330
1F
100
AcDbEntity
  8
0
  6
Continuous
 62
     7
370
    25
100
AcDbSpline
210
0.0
220
0.0
230
1.0
 70
     8
 71
     3
 72
    23
 73
    19
 74
     0
 42
0.00000001
 43
0.00000001
 40
0.0
 40
0.0
 40
0.0
 40
0.0
 40
0.0623263659914399
 40
0.1231962451944498
 40
0.1840362202545542
 40
0.2469640854288941
 40
0.3106993957895696
 40
0.3732676370734458
 40
0.4365875799673865
 40
0.5021247910366496
 40
0.5390047220341642
 40
0.5832553755259854
 40
0.6344465152828124
 40
0.692676046102112
 40
0.7585704862865248
 40
0.8316586747921119
 40
0.9119171022748336
 40
1.0
 40
1.0
 40
1.0
 40
1.0
 10
858.5747651251431
 20
700.7540653332891
 30
0.0
 10
858.6300400701201
 20
700.7564030131382
 30
0.0
 10
858.7392982559002
 20
700.7610237442733
 30
0.0
 10
858.8980730993474
 20
700.8018220877506
 30
0.0
 10
859.049977170684
 20
700.8640950089249
 30
0.0
 10
859.1895649596693
 20
700.9552751089626
 30
0.0
 10
859.3182172729992
 20
701.0636897848474
 30
0.0
 10
859.4243723029132
 20
701.1947892332275
 30
0.0
 10
859.5128688617359
 20
701.3400829109565
 30
0.0
 10
859.5661253036799
 20
701.4776176625955
 30
0.0
 10
859.6000562111337
 20
701.6030499603627
 30
0.0
 10
859.6215913582357
 20
701.7183256995104
 30
0.0
 10
859.6404225819872
 20
701.8530947932269
 30
0.0
 10
859.6568375577621
 20
702.0075181082213
 30
0.0
 10
859.6664477761834
 20
702.181904810237
 30
0.0
 10
859.6772301140688
 20
702.3757428512187
 30
0.0
 10
859.6811278532452
 20
702.5895209362383
 30
0.0
 10
859.6817903009472
 20
702.7385745406262
 30
0.0
 10
859.682136920015
 20
702.8165653332891
 30
0.0
  0
SPLINE
  5
14B
330
1F
100
AcDbEntity
  8
0
  6
Continuous
 62
     7
370
    25
100
AcDbSpline
210
0.0
220
0.0
230
1.0
 70
     8
 71
     3
 72
    31
 73
    27
 74
     0
 42
0.00000001
 43
0.00000001
 40
0.0
 40
0.0
 40
0.0
 40
0.0
 40
0.03378811616271
 40
0.0671939323738809
 40
0.0998624108568255
 40
0.1325666121262573
 40
0.1651511732547858
 40
0.197913187355793
 40
0.2313190035669623
 40
0.2650832782673742
 40
0.2992553087581152
 40
0.3343985665049789
 40
0.3699428235093068
 40
0.4062835607000605
 40
0.4440638196985093
 40
0.4829977068727742
 40
0.5233544466133043
 40
0.5655365896041497
 40
0.6096129240658182
 40
0.6563908113764166
 40
0.705885494936456
 40
0.7583245002617314
 40
0.81383178294115
 40
0.872794559039389
 40
0.9347222295400733
 40
1.0
 40
1.0
 40
1.0
 40
1.0
 10
871.3824574328354
 20
722.677142256366
 30
0.0
 10
871.4460813836567
 20
722.6760272502503
 30
0.0
 10
871.5726094039898
 20
722.6738098538976
 30
0.0
 10
871.7596731188377
 20
722.6524979852471
 30
0.0
 10
871.942415248471
 20
722.6171354181683
 30
0.0
 10
872.1200567083646
 20
722.567030333408
 30
0.0
 10
872.2940566774339
 20
722.5048687867579
 30
0.0
 10
872.4630541806239
 20
722.4269553762226
 30
0.0
 10
872.6280989386628
 20
722.3362608222924
 30
0.0
 10
872.7865681672797
 20
722.2296919598773
 30
0.0
 10
872.9402015737851
 20
722.1108753285704
 30
0.0
 10
873.0852254891499
 20
721.9765606570198
 30
0.0
 10
873.2216531140584
 20
721.8281041558345
 30
0.0
 10
873.3511966692269
 20
721.6670941812364
 30
0.0
 10
873.4701808913966
 20
721.4904425587597
 30
0.0
 10
873.583491593649
 20
721.3012217363274
 30
0.0
 10
873.6849133899957
 20
721.0961226167987
 30
0.0
 10
873.7825926475467
 20
720.8785672617333
 30
0.0
 10
873.8669057600936
 20
720.6425360416039
 30
0.0
 10
873.9429428921446
 20
720.3893594461339
 30
0.0
 10
874.0043805346016
 20
720.1160470190406
 30
0.0
 10
874.0555560142316
 20
719.8240327440803
 30
0.0
 10
874.0952014906787
 20
719.51224421096
 30
0.0
 10
874.1240761011439
 20
719.1813497755045
 30
0.0
 10
874.1393288669527
 20
718.8311317397543
 30
0.0
 10
874.1422013268538
 20
718.5916852273493
 30
0.0
 10
874.1436753815534
 20
718.4688089230326
 30
0.0
  0
SPLINE
  5
14C
330
1F
100
AcDbEntity
  8
0
  6
Continuous
 62
     7
370
    25
100
AcDbSpline
210
0.0
220
0.0
230
1.0
 70
     8
 71
     3
 72
    31
 73
    27
 74
     0
 42
0.00000001
 43
0.00000001
 40
0.0
 40
0.0
 40
0.0
 40
0.0
 40
0.0685946222587427
 40
0.1332460424433002
 40
0.1943125864682574
 40
0.2512792231169662
 40
0.3045134392563472
 40
0.3542349066533261
 40
0.4004805887739903
 40
0.4434107549384923
 40
0.4840148686163459
 40
0.5232523007732025
 40
0.5610423727283612
 40
0.5979002393644003
 40
0.6335184888561961
 40
0.6683143511696535
 40
0.7024956712863818
 40
0.7366853535134588
 40
0.7702931693607887
 40
0.8034372550192499
 40
0.8359129516660303
 40
0.8684602457892913
 40
0.9008465382431833
 40
0.9334665246307088
 40
0.9662575752981226
 40
1.0
 40
1.0
 40
1.0
 40
1.0
 10
868.707777945656
 20
718.4688089230326
 30
0.0
 10
868.7085277014445
 20
718.5970315235681
 30
0.0
 10
868.7099841128704
 20
718.8461057732767
 30
0.0
 10
868.7261862178813
 20
719.2090420980007
 30
0.0
 10
868.7531012860255
 20
719.5495227585611
 30
0.0
 10
868.7899867096834
 20
719.8675640523633
 30
0.0
 10
868.8348735216231
 20
720.1632480855466
 30
0.0
 10
868.8947946338545
 20
720.4357846732868
 30
0.0
 10
868.9629381826887
 20
720.686435202688
 30
0.0
 10
869.0419152016843
 20
720.9160170277761
 30
0.0
 10
869.1310301480119
 20
721.1276232061124
 30
0.0
 10
869.228022743948
 20
721.3251665233553
 30
0.0
 10
869.336742274059
 20
721.5083480829892
 30
0.0
 10
869.4509752178925
 20
721.680091603949
 30
0.0
 10
869.5753456673274
 20
721.8375857634743
 30
0.0
 10
869.7063143312525
 20
721.9830547063738
 30
0.0
 10
869.8489929055775
 20
722.1131364217197
 30
0.0
 10
869.9985312102025
 20
722.2316422557426
 30
0.0
 10
870.1562831288121
 20
722.3355267624214
 30
0.0
 10
870.3177520799965
 20
722.4270301649717
 30
0.0
 10
870.48404946481
 20
722.5052012901319
 30
0.0
 10
870.655629311434
 20
722.5666651435251
 30
0.0
 10
870.8309494437533
 20
722.6174327932912
 30
0.0
 10
871.0106227390476
 20
722.6521503879119
 30
0.0
 10
871.1949458566164
 20
722.6739947501734
 30
0.0
 10
871.3193605647265
 20
722.6760831335795
 30
0.0
 10
871.3824574328354
 20
722.677142256366
 30
0.0
  0
SPLINE
  5
14D
330
1F
100
AcDbEntity
  8
0
  6
Continuous
 62
     7
370
    25
100
AcDbSpline
210
0.0
220
0.0
230
1.0
 70
     8
 71
     3
 72
    31
 73
    27
 74
     0
 42
0.00000001
 43
0.00000001
 40
0.0
 40
0.0
 40
0.0
 40
0.0
 40
0.0337871463469916
 40
0.066621657724293
 40
0.0992848780959716
 40
0.1313611650426511
 40
0.1635851875953437
 40
0.1961039269870691
 40
0.2289022543238179
 40
0.2621580559050077
 40
0.2959912222583163
 40
0.3302178457247996
 40
0.3650598258919535
 40
0.4009507373401083
 40
0.4376203820767383
 40
0.4757075294370924
 40
0.5153806916250494
 40
0.5564135414931647
 40
0.5997648298727319
 40
0.6464241555840873
 40
0.6964314445175676
 40
0.7497815178015582
 40
0.8065733069755329
 40
0.8674355315654003
 40
0.9318867532508747
 40
0.9999999999999999
 40
0.9999999999999999
 40
0.9999999999999999
 40
0.9999999999999999
 10
871.3824574328354
 20
714.2668858461096
 30
0.0
 10
871.3193623151549
 20
714.267951801444
 30
0.0
 10
871.194951058548
 20
714.270053657301
 30
0.0
 10
871.0106026575435
 20
714.291799329274
 30
0.0
 10
870.8316713582523
 20
714.3267604794736
 30
0.0
 10
870.6572742061662
 20
714.3757127173961
 30
0.0
 10
870.4865164574035
 20
714.4356323432601
 30
0.0
 10
870.3217249450474
 20
714.5136979057811
 30
0.0
 10
870.1610673823259
 20
714.6036043491091
 30
0.0
 10
870.0049723971417
 20
714.7059938838252
 30
0.0
 10
869.8563731719078
 20
714.8233005881186
 30
0.0
 10
869.714433502619
 20
714.9530475336877
 30
0.0
 10
869.5827191732545
 20
715.098472473796
 30
0.0
 10
869.4601269547006
 20
715.2572791551851
 30
0.0
 10
869.3436147531104
 20
715.4280065662314
 30
0.0
 10
869.2364390426663
 20
715.612985704621
 30
0.0
 10
869.1373056619393
 20
715.8114831000258
 30
0.0
 10
869.0466919689827
 20
716.0247811815689
 30
0.0
 10
868.966352166663
 20
716.2559924452484
 30
0.0
 10
868.8953859766895
 20
716.5077619961112
 30
0.0
 10
868.8393536167578
 20
716.7823120215146
 30
0.0
 10
868.7913925759971
 20
717.0774374320413
 30
0.0
 10
868.7527082718975
 20
717.3944064157804
 30
0.0
 10
868.7262983854556
 20
717.7333910516361
 30
0.0
 10
868.7099753796596
 20
718.0941801006102
 30
0.0
 10
868.7085237901277
 20
718.3416538704768
 30
0.0
 10
868.707777945656
 20
718.4688089230326
 30
0.0
  0
SPLINE
  5
14E
330
1F
100
AcDbEntity
  8
0
  6
Continuous
 62
     7
370
    25
100
AcDbSpline
210
0.0
220
0.0
230
1.0
 70
     8
 71
     3
 72
    31
 73
    27
 74
     0
 42
0.00000001
 43
0.00000001
 40
0.0
 40
0.0
 40
0.0
 40
0.0
 40
0.0650632896172782
 40
0.1267731664665232
 40
0.1855157632260794
 40
0.2407646791677158
 40
0.2929797960235989
 40
0.3422503727797681
 40
0.3889192861856592
 40
0.4327756640583105
 40
0.4746284326311174
 40
0.5147746906379519
 40
0.5536058934984411
 40
0.5914264064311732
 40
0.6280281199460673
 40
0.6638036341103205
 40
0.6989843361316638
 40
0.7335914893067057
 40
0.7676284691511398
 40
0.8012083477865903
 40
0.8342638397266213
 40
0.8669806947287755
 40
0.8997197415181608
 40
0.9327019124985372
 40
0.9661758834327498
 40
0.9999999999999999
 40
0.9999999999999999
 40
0.9999999999999999
 40
0.9999999999999999
 10
874.1436753815534
 20
718.4688089230326
 30
0.0
 10
874.1421860454531
 20
718.3464685620249
 30
0.0
 10
874.1392841347981
 20
718.1080933577762
 30
0.0
 10
874.1242470907576
 20
717.7594511284739
 30
0.0
 10
874.0946273623491
 20
717.4303127437913
 30
0.0
 10
874.0575759605005
 20
717.1198888296
 30
0.0
 10
874.0062594737042
 20
716.8294714151247
 30
0.0
 10
873.943161950844
 20
716.5580555329122
 30
0.0
 10
873.8731040701085
 20
716.3044690833914
 30
0.0
 10
873.7866245407147
 20
716.0707895139972
 30
0.0
 10
873.6919714884924
 20
715.853757004592
 30
0.0
 10
873.5889881829487
 20
715.6510892369812
 30
0.0
 10
873.4786571518957
 20
715.4609948537135
 30
0.0
 10
873.3584543061745
 20
715.2849954321565
 30
0.0
 10
873.2303322188685
 20
715.12184421599
 30
0.0
 10
873.0915487016273
 20
714.9744210785008
 30
0.0
 10
872.9460159356798
 20
714.8391738282992
 30
0.0
 10
872.7919304137737
 20
714.7188272512429
 30
0.0
 10
872.6309897252431
 20
714.6134905549313
 30
0.0
 10
872.4665118351292
 20
714.5192874683305
 30
0.0
 10
872.2955783874781
 20
714.4433270225022
 30
0.0
 10
872.1220630669535
 20
714.378104071696
 30
0.0
 10
871.9434839444051
 20
714.3282744673847
 30
0.0
 10
871.7600636228292
 20
714.2938199404806
 30
0.0
 10
871.5727350835635
 20
714.2696557154411
 30
0.0
 10
871.4461029348065
 20
714.267812332869
 30
0.0
 10
871.3824574328354
 20
714.2668858461096
 30
0.0
  0
SPLINE
  5
14F
330
1F
100
AcDbEntity
  8
0
  6
Continuous
 62
     7
370
    25
100
AcDbSpline
210
0.0
220
0.0
230
1.0
 70
     8
 71
     3
 72
    19
 73
    15
 74
     0
 42
0.00000001
 43
0.00000001
 40
0.0
 40
0.0
 40
0.0
 40
0.0
 40
0.060287397927969
 40
0.119602354707522
 40
0.177503371018544
 40
0.23514266373233
 40
0.292132593226935
 40
0.350871208641567
 40
0.4100978625665973
 40
0.4707315215304489
 40
0.5948287040804157
 40
0.7225788240942898
 40
0.8566913895440215
 40
1.0
 40
1.0
 40
1.0
 40
1.0
 10
887.784701022579
 20
716.7428473845712
 30
0.0
 10
887.7840699269506
 20
716.7851178771771
 30
0.0
 10
887.7828179153231
 20
716.868977035543
 30
0.0
 10
887.7639365097832
 20
716.9922131936868
 30
0.0
 10
887.736476235969
 20
717.1115866183937
 30
0.0
 10
887.700975815666
 20
717.2274214537874
 30
0.0
 10
887.6492741766008
 20
717.3376234568682
 30
0.0
 10
887.5889163594188
 20
717.4443721643806
 30
0.0
 10
887.5181474413739
 20
717.5478086887779
 30
0.0
 10
887.407875062248
 20
717.678579553805
 30
0.0
 10
887.2474819547737
 20
717.8292470118699
 30
0.0
 10
887.0195807537613
 20
717.9767613027651
 30
0.0
 10
886.7604440726886
 20
718.0957277189651
 30
0.0
 10
886.5724955174977
 20
718.1462408077386
 30
0.0
 10
886.4754061507841
 20
718.1723345640584
 30
0.0
  0
LINE
  5
150
330
1F
100
AcDbEntity
  8
0
  6
Continuous
 62
     7
370
    25
100
AcDbLine
 10
884.5026497405
 20
715.2925268718
 30
0.0
 11
885.525085638
 21
715.2925268718
 31
0.0
  0
LINE
  5
151
330
1F
100
AcDbEntity
  8
0
  6
Continuous
 62
     7
370
    25
100
AcDbLine
 10
884.5026497405
 20
718.2668858461
 30
0.0
 11
884.5026497405
 21
715.2925268718
 31
0.0
  0
LINE
  5
152
330
1F
100
AcDbEntity
  8
0
  6
Continuous
 62
     7
370
    25
100
AcDbLine
 10
884.978611279
 20
718.2668858461
 30
0.0
 11
884.5026497405
 21
718.2668858461
 31
0.0
  0
SPLINE
  5
153
330
1F
100
AcDbEntity
  8
0
  6
Continuous
 62
     7
370
    25
100
AcDbSpline
210
0.0
220
0.0
230
1.0
 70
     8
 71
     3
 72
    15
 73
    11
 74
     0
 42
0.00000001
 43
0.00000001
 40
0.0
 40
0.0
 40
0.0
 40
0.0
 40
0.0793064855229951
 40
0.1719528189279322
 40
0.277056507391596
 40
0.3947305758644802
 40
0.5261773212767594
 40
0.6713447665976174
 40
0.8292852571892532
 40
1.0
 40
1.0
 40
1.0
 40
1.0
 10
886.4754061507841
 20
718.1723345640584
 30
0.0
 10
886.4364825031217
 20
718.1802318988136
 30
0.0
 10
886.3520880063242
 20
718.1973549495228
 30
0.0
 10
886.2144706796298
 20
718.2154297001272
 30
0.0
 10
886.0573601221389
 20
718.2315326941663
 30
0.0
 10
885.880393545622
 20
718.2434439116834
 30
0.0
 10
885.683347051648
 20
718.2557560112217
 30
0.0
 10
885.465799808938
 20
718.2605441737869
 30
0.0
 10
885.2286402325741
 20
718.2662567682861
 30
0.0
 10
885.0640862385176
 20
718.2666707894103
 30
0.0
 10
884.9786112789892
 20
718.2668858461096
 30
0.0
  0
SPLINE
  5
154
330
1F
100
AcDbEntity
  8
0
  6
Continuous
 62
     7
370
    25
100
AcDbSpline
210
0.0
220
0.0
230
1.0
 70
     8
 71
     3
 72
    23
 73
    19
 74
     0
 42
0.00000001
 43
0.00000001
 40
0.0
 40
0.0
 40
0.0
 40
0.0
 40
0.0725024889330346
 40
0.1397389892678962
 40
0.2017951348259222
 40
0.2598219344148622
 40
0.3122059893845955
 40
0.3607734341243373
 40
0.4045403426007491
 40
0.4436980985527617
 40
0.5168407942439683
 40
0.5878743359442811
 40
0.6579654175616311
 40
0.7289693886473133
 40
0.7993077199548834
 40
0.8666357778344732
 40
0.9331163290572762
 40
1.0
 40
1.0
 40
1.0
 40
1.0
 10
885.5250856379636
 20
715.2925268717507
 30
0.0
 10
885.5982717543362
 20
715.2934040086575
 30
0.0
 10
885.7393283453698
 20
715.2950945744108
 30
0.0
 10
885.942988299932
 20
715.300613556264
 30
0.0
 10
886.1317496800489
 20
715.3131673292905
 30
0.0
 10
886.3047511331447
 20
715.332929271379
 30
0.0
 10
886.4638607391577
 20
715.3543657266296
 30
0.0
 10
886.6071697746522
 20
715.3831915115935
 30
0.0
 10
886.7358399311356
 20
715.4162177070802
 30
0.0
 10
886.8850383488256
 20
715.4672672436175
 30
0.0
 10
887.0530463677535
 20
715.5465734628568
 30
0.0
 10
887.2340997537777
 20
715.6661488375271
 30
0.0
 10
887.3950739666784
 20
715.8086021124365
 30
0.0
 10
887.5317717020079
 20
715.9734727734049
 30
0.0
 10
887.6438013901129
 20
716.1527443778122
 30
0.0
 10
887.725299573161
 20
716.3427908919898
 30
0.0
 10
887.775564388519
 20
716.5404720975176
 30
0.0
 10
887.781649346896
 20
716.6752531547587
 30
0.0
 10
887.784701022579
 20
716.7428473845712
 30
0.0
  0
LINE
  5
155
330
1F
100
AcDbEntity
  8
0
  6
Continuous
 62
     7
370
    25
100
AcDbLine
 10
884.5026497405
 20
719.0873986666
 30
0.0
 11
884.9850215354
 21
719.0873986666
 31
0.0
  0
SPLINE
  5
156
330
1F
100
AcDbEntity
  8
0
  6
Continuous
 62
     7
370
    25
100
AcDbSpline
210
0.0
220
0.0
230
1.0
 70
     8
 71
     3
 72
    23
 73
    19
 74
     0
 42
0.00000001
 43
0.00000001
 40
0.0
 40
0.0
 40
0.0
 40
0.0
 40
0.0723010339955038
 40
0.139700331739383
 40
0.2022885114847721
 40
0.2605995332222003
 40
0.313190329155335
 40
0.3617389329854261
 40
0.4057064756322211
 40
0.4455399848948701
 40
0.5188319558616106
 40
0.5897782395835752
 40
0.6588674786561478
 40
0.7284304780610649
 40
0.797282703608099
 40
0.8648153774014442
 40
0.9313637528792686
 40
1.0
 40
1.0
 40
1.0
 40
1.0
 10
884.9850215353995
 20
719.0873986666224
 30
0.0
 10
885.0555330676657
 20
719.0883127763516
 30
0.0
 10
885.1917757173856
 20
719.0900790226326
 30
0.0
 10
885.3890783380913
 20
719.0951384902028
 30
0.0
 10
885.5722212368254
 20
719.1093054465845
 30
0.0
 10
885.7408882838516
 20
719.1234683312807
 30
0.0
 10
885.8948138700611
 20
719.1464959602266
 30
0.0
 10
886.033656982066
 20
719.1739065268835
 30
0.0
 10
886.1595966322111
 20
719.2028960242467
 30
0.0
 10
886.3048298791516
 20
719.2521977085905
 30
0.0
 10
886.4695680470558
 20
719.3250609661536
 30
0.0
 10
886.6451865708374
 20
719.4381394487136
 30
0.0
 10
886.8000082156119
 20
719.5728236845973
 30
0.0
 10
886.9307446446844
 20
719.7282315971802
 30
0.0
 10
887.0377422916071
 20
719.899354307713
 30
0.0
 10
887.1120593548168
 20
720.0834614629924
 30
0.0
 10
887.162453147234
 20
720.2759646219308
 30
0.0
 10
887.1670052189077
 20
720.4081206283075
 30
0.0
 10
887.1693164071944
 20
720.4752191794429
 30
0.0
  0
SPLINE
  5
157
330
1F
100
AcDbEntity
  8
0
  6
Continuous
 62
     7
370
    25
100
AcDbSpline
210
0.0
220
0.0
230
1.0
 70
     8
 71
     3
 72
    23
 73
    19
 74
     0
 42
0.00000001
 43
0.00000001
 40
0.0
 40
0.0
 40
0.0
 40
0.0
 40
0.0570031325129266
 40
0.1118178691207247
 40
0.1644023722182127
 40
0.2158698048987929
 40
0.2668411100818673
 40
0.3174789632053571
 40
0.3699021362727564
 40
0.4234004494436395
 40
0.4797183982994482
 40
0.5392414966442962
 40
0.6024306889434251
 40
0.6710295461473335
 40
0.744484797560847
 40
0.8234539713786809
 40
0.9087403127306637
 40
1.0
 40
1.0
 40
1.0
 40
1.0
 10
887.1693164071944
 20
720.4752191794429
 30
0.0
 10
887.1681137096315
 20
720.5196209429024
 30
0.0
 10
887.165754487028
 20
720.6067198505656
 30
0.0
 10
887.1464326525024
 20
720.7336898029231
 30
0.0
 10
887.113592482364
 20
720.8531040943795
 30
0.0
 10
887.0714112406722
 20
720.9665992036921
 30
0.0
 10
887.0124656664635
 20
721.0706262899099
 30
0.0
 10
886.9430634646303
 20
721.1687821657837
 30
0.0
 10
886.8592104582538
 20
721.2577241509196
 30
0.0
 10
886.7637651721831
 20
721.3408544327831
 30
0.0
 10
886.6540311770782
 20
721.4145562106072
 30
0.0
 10
886.530073938634
 20
721.4791065264326
 30
0.0
 10
886.3902163910528
 20
721.5310854445579
 30
0.0
 10
886.2368155796668
 20
721.5766080787926
 30
0.0
 10
886.0675102368127
 20
721.6085813218056
 30
0.0
 10
885.8842541147359
 20
721.6352176364504
 30
0.0
 10
885.6855461855314
 20
721.6487781896037
 30
0.0
 10
885.5480716654727
 20
721.6505733047458
 30
0.0
 10
885.4770087148867
 20
721.651501230725
 30
0.0
  0
LINE
  5
158
330
1F
100
AcDbEntity
  8
0
  6
Continuous
 62
     7
370
    25
100
AcDbLine
 10
885.4770087149
 20
721.6515012307
 30
0.0
 11
884.5026497405
 21
721.6515012307
 31
0.0
  0
LINE
  5
159
330
1F
100
AcDbEntity
  8
0
  6
Continuous
 62
     7
370
    25
100
AcDbLine
 10
884.5026497405
 20
721.6515012307
 30
0.0
 11
884.5026497405
 21
719.0873986666
 31
0.0
  0
SPLINE
  5
15A
330
1F
100
AcDbEntity
  8
0
  6
Continuous
 62
     7
370
    25
100
AcDbSpline
210
0.0
220
0.0
230
1.0
 70
     8
 71
     3
 72
    15
 73
    11
 74
     0
 42
0.00000001
 43
0.00000001
 40
0.0
 40
0.0
 40
0.0
 40
0.0
 40
0.1105883385953364
 40
0.2245417540535914
 40
0.3425034940501052
 40
0.4643240984173584
 40
0.5907560327017655
 40
0.7222274753555102
 40
0.8588428362087218
 40
1.0
 40
1.0
 40
1.0
 40
1.0
 10
873.12284204822
 20
716.4607961025199
 30
0.0
 10
873.1469603746058
 20
716.5321783641572
 30
0.0
 10
873.1959309205085
 20
716.6771149681423
 30
0.0
 10
873.2590435474132
 20
716.9019461728977
 30
0.0
 10
873.3087473170216
 20
717.1378382047559
 30
0.0
 10
873.3534635815917
 20
717.3833813286836
 30
0.0
 10
873.3839848522142
 20
717.6403863595659
 30
0.0
 10
873.4085512825759
 20
717.9080580942306
 30
0.0
 10
873.4230214241514
 20
718.1865983507687
 30
0.0
 10
873.4248151408858
 20
718.3758440449293
 30
0.0
 10
873.4257266636047
 20
718.4720140512378
 30
0.0
  0
SPLINE
  5
15B
330
1F
100
AcDbEntity
  8
0
  6
Continuous
 62
     7
370
    25
100
AcDbSpline
210
0.0
220
0.0
230
1.0
 70
     8
 71
     3
 72
    27
 73
    23
 74
     0
 42
0.00000001
 43
0.00000001
 40
0.0
 40
0.0
 40
0.0
 40
0.0
 40
0.0603866193110626
 40
0.1208832485859949
 40
0.1827546186251393
 40
0.2478110297583517
 40
0.2812991000432508
 40
0.3150876241506567
 40
0.3497023955502752
 40
0.3848565811185573
 40
0.420966197226102
 40
0.4585111882611391
 40
0.4971747221273137
 40
0.5376020478662709
 40
0.5805030184200128
 40
0.6274675400267059
 40
0.6783882095592452
 40
0.7339832205925612
 40
0.7937467045508348
 40
0.8577136721607319
 40
0.9266978643613873
 40
1.0
 40
1.0
 40
1.0
 40
1.0
 10
871.406495894374
 20
721.8566294358533
 30
0.0
 10
871.3180145410327
 20
721.8519861292309
 30
0.0
 10
871.1408906425066
 20
721.8426910569933
 30
0.0
 10
870.8792953174169
 20
721.7771064773553
 30
0.0
 10
870.6285425136631
 20
721.6627911266407
 30
0.0
 10
870.4291300001115
 20
721.5371857038638
 30
0.0
 10
870.2762984880941
 20
721.4175552777115
 30
0.0
 10
870.1686809032328
 20
721.3138148112921
 30
0.0
 10
870.0677753667353
 20
721.2003376584576
 30
0.0
 10
869.9748206235636
 20
721.0759904245139
 30
0.0
 10
869.8877594048384
 20
720.942355299213
 30
0.0
 10
869.8078028046654
 20
720.7983809798411
 30
0.0
 10
869.7357631939773
 20
720.6433378616115
 30
0.0
 10
869.6692842541369
 20
720.4773574377965
 30
0.0
 10
869.6108321672198
 20
720.2954581362295
 30
0.0
 10
869.5626173941226
 20
720.0948432937302
 30
0.0
 10
869.51807555842
 20
719.8743589696406
 30
0.0
 10
869.4865435152187
 20
719.6327143800517
 30
0.0
 10
869.4585120734777
 20
719.3714980294934
 30
0.0
 10
869.4404975638726
 20
719.0897213021121
 30
0.0
 10
869.4264832610858
 20
718.7878598611924
 30
0.0
 10
869.4259839139709
 20
718.5794046417577
 30
0.0
 10
869.4257266636047
 20
718.4720140512378
 30
0.0
  0
SPLINE
  5
15C
330
1F
100
AcDbEntity
  8
0
  6
Continuous
 62
     7
370
    25
100
AcDbSpline
210
0.0
220
0.0
230
1.0
 70
     8
 71
     3
 72
    27
 73
    23
 74
     0
 42
0.00000001
 43
0.00000001
 40
0.0
 40
0.0
 40
0.0
 40
0.0
 40
0.0729510658758662
 40
0.1415836941865471
 40
0.2059264601708678
 40
0.2653013571846063
 40
0.3205972327139289
 40
0.3718165030988107
 40
0.4187897697094515
 40
0.4616987286157648
 40
0.5021335821035655
 40
0.540804315292648
 40
0.5781805253279672
 40
0.6142968652075151
 40
0.649678243264787
 40
0.6842994600896395
 40
0.7183589527723597
 40
0.7520808646475963
 40
0.8176524386023861
 40
0.8797220764054369
 40
0.9399655597309861
 40
1.0
 40
1.0
 40
1.0
 40
1.0
 10
869.4257266636047
 20
718.4720140512378
 30
0.0
 10
869.4259996854732
 20
718.3651598825434
 30
0.0
 10
869.4265295673096
 20
718.1577769230024
 30
0.0
 10
869.440372311486
 20
717.8564208979145
 30
0.0
 10
869.4592299846278
 20
717.5753458606182
 30
0.0
 10
869.4835529496224
 20
717.3141949201264
 30
0.0
 10
869.5196739748247
 20
717.0738520343898
 30
0.0
 10
869.5601466326938
 20
716.8526641873837
 30
0.0
 10
869.6093994089662
 20
716.6518019311236
 30
0.0
 10
869.6676737355193
 20
716.4698869352275
 30
0.0
 10
869.734048814133
 20
716.3038319215239
 30
0.0
 10
869.8065193596645
 20
716.1493148583756
 30
0.0
 10
869.8843724405901
 20
716.0045104322367
 30
0.0
 10
869.9715019275683
 20
715.8707193273816
 30
0.0
 10
870.0663935006631
 20
715.7475052380722
 30
0.0
 10
870.1669038072632
 20
715.6326873356212
 30
0.0
 10
870.2767839998166
 20
715.5302942354256
 30
0.0
 10
870.428792554201
 20
715.4074899953582
 30
0.0
 10
870.6294702100344
 20
715.280589118262
 30
0.0
 10
870.8823169648483
 20
715.1700837700754
 30
0.0
 10
871.1421305670917
 20
715.1006381553731
 30
0.0
 10
871.3184762815761
 20
715.0918067131898
 30
0.0
 10
871.406495894374
 20
715.0873986666224
 30
0.0
  0
SPLINE
  5
15D
330
1F
100
AcDbEntity
  8
0
  6
Continuous
 62
     7
370
    25
100
AcDbSpline
210
0.0
220
0.0
230
1.0
 70
     8
 71
     3
 72
    19
 73
    15
 74
     0
 42
0.00000001
 43
0.00000001
 40
0.0
 40
0.0
 40
0.0
 40
0.0
 40
0.1128134007444587
 40
0.2253938839207276
 40
0.3395948145627021
 40
0.4596754102248638
 40
0.521735190087933
 40
0.5839258387389146
 40
0.6481741447653695
 40
0.7138810381130647
 40
0.7810044549073863
 40
0.8514509275565519
 40
0.924050692664174
 40
1.0
 40
1.0
 40
1.0
 40
1.0
 10
871.406495894374
 20
715.0873986666224
 30
0.0
 10
871.4950848581584
 20
715.0910507370488
 30
0.0
 10
871.6720798825806
 20
715.0983473377393
 30
0.0
 10
871.9306714143391
 20
715.1687444517376
 30
0.0
 10
872.18171203167
 20
715.2749605419401
 30
0.0
 10
872.3784478951646
 20
715.4005548400413
 30
0.0
 10
872.5281222803108
 20
715.5201624502157
 30
0.0
 10
872.6353611148385
 20
715.6221387892167
 30
0.0
 10
872.7337886541145
 20
715.7363236287741
 30
0.0
 10
872.827141968068
 20
715.8595220194368
 30
0.0
 10
872.9127627124676
 20
715.9940876975484
 30
0.0
 10
872.990621312914
 20
716.1393735838706
 30
0.0
 10
873.0616689644457
 20
716.2957831333841
 30
0.0
 10
873.1021467837605
 20
716.4049711085061
 30
0.0
 10
873.12284204822
 20
716.4607961025199
 30
0.0
  0
SPLINE
  5
15E
330
1F
100
AcDbEntity
  8
0
  6
Continuous
 62
     7
370
    25
100
AcDbSpline
210
0.0
220
0.0
230
1.0
 70
     8
 71
     3
 72
    27
 73
    23
 74
     0
 42
0.00000001
 43
0.00000001
 40
0.0
 40
0.0
 40
0.0
 40
0.0
 40
0.0656811979906367
 40
0.1284864641740657
 40
0.1881751303280079
 40
0.2451061306699845
 40
0.2994484245294766
 40
0.3508229360093821
 40
0.3999416805337763
 40
0.4466717436323699
 40
0.4912545333734973
 40
0.5333763442704377
 40
0.5738527549682229
 40
0.6125263117194523
 40
0.6495971364453295
 40
0.6855320415538495
 40
0.7201057860682002
 40
0.7538376629736502
 40
0.818925416046715
 40
0.880493461650164
 40
0.9403113338460578
 40
1.0
 40
1.0
 40
1.0
 40
1.0
 10
873.4257266636047
 20
718.4720140512378
 30
0.0
 10
873.424469088215
 20
718.5681685027076
 30
0.0
 10
873.4220090019166
 20
718.7562671650633
 30
0.0
 10
873.412605601457
 20
719.0317372922909
 30
0.0
 10
873.3883231454753
 20
719.2933778886547
 30
0.0
 10
873.3613537309278
 20
719.5423161118874
 30
0.0
 10
873.3215886541459
 20
719.7771739466406
 30
0.0
 10
873.2787136669909
 20
719.9999175015122
 30
0.0
 10
873.2211108960419
 20
720.2077872725278
 30
0.0
 10
873.1595799818156
 20
720.4040377450115
 30
0.0
 10
873.0891562206009
 20
720.5864392410133
 30
0.0
 10
873.0116345422979
 20
720.7558421812691
 30
0.0
 10
872.9288419508259
 20
720.9130644092849
 30
0.0
 10
872.838916829776
 20
721.0576745614596
 30
0.0
 10
872.7429266970554
 20
721.190320373828
 30
0.0
 10
872.6383380131754
 20
721.3083423042441
 30
0.0
 10
872.5292994467505
 20
721.4153982313494
 30
0.0
 10
872.3765744505821
 20
721.5375983893416
 30
0.0
 10
872.1766332167527
 20
721.662196550446
 30
0.0
 10
871.9278431656843
 20
721.7768611444125
 30
0.0
 10
871.6689388359674
 20
721.8427086704031
 30
0.0
 10
871.4939137980427
 20
721.8519925264902
 30
0.0
 10
871.406495894374
 20
721.8566294358532
 30
0.0
  0
LINE
  5
15F
330
1F
100
AcDbEntity
  8
0
  6
Continuous
 62
     7
370
    25
100
AcDbLine
 10
857.8359830739
 20
692.9848345641
 30
0.0
 11
857.8359830739
 21
690.3181678974
 31
0.0
  0
LINE
  5
160
330
1F
100
AcDbEntity
  8
0
  6
Continuous
 62
     7
370
    25
100
AcDbLine
 10
857.8359830739
 20
690.3181678974
 30
0.0
 11
859.2366240995
 21
690.3005396923
 31
0.0
  0
SPLINE
  5
161
330
1F
100
AcDbEntity
  8
0
  6
Continuous
 62
     7
370
    25
100
AcDbSpline
210
0.0
220
0.0
230
1.0
 70
     8
 71
     3
 72
    23
 73
    19
 74
     0
 42
0.00000001
 43
0.00000001
 40
0.0
 40
0.0
 40
0.0
 40
0.0
 40
0.0725383714064937
 40
0.1400338305012509
 40
0.2024956806336217
 40
0.2605750556694156
 40
0.3132283378464641
 40
0.3615831937532637
 40
0.4048783612951272
 40
0.4441274373055382
 40
0.5163996933371963
 40
0.5865066709977687
 40
0.6550853737960481
 40
0.7243837831470396
 40
0.7939735287256665
 40
0.8616376821817783
 40
0.9301109423064058
 40
0.9999999999999999
 40
0.9999999999999999
 40
0.9999999999999999
 40
0.9999999999999999
 10
859.236624099502
 20
690.3005396922634
 30
0.0
 10
859.30501250136
 20
690.3005043469122
 30
0.0
 10
859.4370349012064
 20
690.3004361134406
 30
0.0
 10
859.6277462685966
 20
690.3095451956788
 30
0.0
 10
859.8046817824322
 20
690.3200606989117
 30
0.0
 10
859.9672979547141
 20
690.3354570953962
 30
0.0
 10
860.1156680906759
 20
690.3572199696458
 30
0.0
 10
860.250039585246
 20
690.3791896563158
 30
0.0
 10
860.3693705175773
 20
690.4109733422554
 30
0.0
 10
860.5090258358991
 20
690.4537689288591
 30
0.0
 10
860.6646449158461
 20
690.5267577646557
 30
0.0
 10
860.8339421696135
 20
690.6327003704924
 30
0.0
 10
860.9774177955593
 20
690.7677419892354
 30
0.0
 10
861.1015739024429
 20
690.9195770322675
 30
0.0
 10
861.2001016234449
 20
691.0884893280984
 30
0.0
 10
861.2722296058826
 20
691.2692183263293
 30
0.0
 10
861.314609394142
 20
691.4599105538075
 30
0.0
 10
861.3202921224978
 20
691.5903977283336
 30
0.0
 10
861.3231625610406
 20
691.6563089230327
 30
0.0
  0
SPLINE
  5
162
330
1F
100
AcDbEntity
  8
0
  6
Continuous
 62
     7
370
    25
100
AcDbSpline
210
0.0
220
0.0
230
1.0
 70
     8
 71
     3
 72
    23
 73
    19
 74
     0
 42
0.00000001
 43
0.00000001
 40
0.0
 40
0.0
 40
0.0
 40
0.0
 40
0.0700437554181584
 40
0.139238316762647
 40
0.2081974550441379
 40
0.2791733744245687
 40
0.3499868116864789
 40
0.4183538456626564
 40
0.4876095837571519
 40
0.5574110731083894
 40
0.5953301567632421
 40
0.6379640515652172
 40
0.685912777711291
 40
0.7381851646524794
 40
0.7961026471849443
 40
0.8585165439469271
 40
0.9266577264685164
 40
1.0
 40
1.0
 40
1.0
 40
1.0
 10
861.3231625610406
 20
691.6563089230327
 30
0.0
 10
861.3202765119079
 20
691.7206255252015
 30
0.0
 10
861.3145394034258
 20
691.8484789701291
 30
0.0
 10
861.2718974304871
 20
692.03585899438
 30
0.0
 10
861.200241855942
 20
692.2146834615498
 30
0.0
 10
861.1009124970508
 20
692.3814790852148
 30
0.0
 10
860.9803613428552
 20
692.5327677799925
 30
0.0
 10
860.8402485586083
 20
692.6641897847076
 30
0.0
 10
860.6809039612742
 20
692.7698393909501
 30
0.0
 10
860.5326794331993
 20
692.8380297490042
 30
0.0
 10
860.4010195794223
 20
692.87966466428
 30
0.0
 10
860.2866608139736
 20
692.9087957281822
 30
0.0
 10
860.1575392722907
 20
692.932054256742
 30
0.0
 10
860.0136129191241
 20
692.9508874059904
 30
0.0
 10
859.855997298826
 20
692.9670096030725
 30
0.0
 10
859.6833382933526
 20
692.9779489796073
 30
0.0
 10
859.496289965891
 20
692.984352308148
 30
0.0
 10
859.3664372324854
 20
692.9846699201631
 30
0.0
 10
859.299124099502
 20
692.9848345640584
 30
0.0
  0
LINE
  5
163
330
1F
100
AcDbEntity
  8
0
  6
Continuous
 62
     7
370
    25
100
AcDbLine
 10
859.2991240995
 20
692.9848345641
 30
0.0
 11
857.8359830739
 21
692.9848345641
 31
0.0
  0
SPLINE
  5
164
330
1F
100
AcDbEntity
  8
0
  6
Continuous
 62
     7
370
    25
100
AcDbSpline
210
0.0
220
0.0
230
1.0
 70
     8
 71
     3
 72
    27
 73
    23
 74
     0
 42
0.00000001
 43
0.00000001
 40
0.0
 40
0.0
 40
0.0
 40
0.0
 40
0.0729510658758663
 40
0.1415836941865439
 40
0.2059264601708678
 40
0.2653013571846064
 40
0.3205972327139289
 40
0.3718165030988101
 40
0.4187897697094518
 40
0.4616987286157651
 40
0.5021335821035658
 40
0.5408043152926497
 40
0.5781805253279673
 40
0.6142968652075135
 40
0.6496782432647892
 40
0.6842994600896396
 40
0.71835895277236
 40
0.7520808646475965
 40
0.8176524386023847
 40
0.8797220764054366
 40
0.9399655597309861
 40
1.0
 40
1.0
 40
1.0
 40
1.0
 10
876.9129061507841
 20
704.1386807179045
 30
0.0
 10
876.9131791726528
 20
704.03182654921
 30
0.0
 10
876.9137090544892
 20
703.824443589669
 30
0.0
 10
876.9275517986657
 20
703.5230875645811
 30
0.0
 10
876.9464094718072
 20
703.2420125272848
 30
0.0
 10
876.9707324368019
 20
702.980861586793
 30
0.0
 10
877.0068534620042
 20
702.7405187010563
 30
0.0
 10
877.0473261198732
 20
702.5193308540504
 30
0.0
 10
877.0965788961457
 20
702.3184685977902
 30
0.0
 10
877.1548532226989
 20
702.1365536018942
 30
0.0
 10
877.2212283013125
 20
701.9704985881905
 30
0.0
 10
877.293698846844
 20
701.8159815250423
 30
0.0
 10
877.3715519277696
 20
701.6711770989034
 30
0.0
 10
877.4586814147478
 20
701.5373859940482
 30
0.0
 10
877.5535729878427
 20
701.4141719047389
 30
0.0
 10
877.6540832944427
 20
701.2993540022879
 30
0.0
 10
877.7639634869961
 20
701.1969609020923
 30
0.0
 10
877.9159720413805
 20
701.0741566620248
 30
0.0
 10
878.1166496972138
 20
700.9472557849286
 30
0.0
 10
878.3694964520278
 20
700.8367504367421
 30
0.0
 10
878.6293100542712
 20
700.7673048220396
 30
0.0
 10
878.8056557687556
 20
700.7584733798565
 30
0.0
 10
878.8936753815534
 20
700.7540653332891
 30
0.0
  0
SPLINE
  5
165
330
1F
100
AcDbEntity
  8
0
  6
Continuous
 62
     7
370
    25
100
AcDbSpline
210
0.0
220
0.0
230
1.0
 70
     8
 71
     3
 72
    19
 73
    15
 74
     0
 42
0.00000001
 43
0.00000001
 40
0.0
 40
0.0
 40
0.0
 40
0.0
 40
0.1128134007444588
 40
0.225393883920728
 40
0.3395948145626995
 40
0.4596754102248632
 40
0.5217351900879325
 40
0.5839258387389142
 40
0.6481741447653692
 40
0.7138810381130656
 40
0.7810044549073887
 40
0.8514509275565516
 40
0.9240506926641737
 40
1.0
 40
1.0
 40
1.0
 40
1.0
 10
878.8936753815534
 20
700.7540653332891
 30
0.0
 10
878.9822643453379
 20
700.7577174037156
 30
0.0
 10
879.1592593697601
 20
700.7650140044059
 30
0.0
 10
879.4178509015186
 20
700.8354111184041
 30
0.0
 10
879.6688915188495
 20
700.9416272086069
 30
0.0
 10
879.8656273823441
 20
701.0672215067079
 30
0.0
 10
880.0153017674902
 20
701.1868291168823
 30
0.0
 10
880.122540602018
 20
701.2888054558832
 30
0.0
 10
880.2209681412941
 20
701.4029902954409
 30
0.0
 10
880.3143214552474
 20
701.5261886861035
 30
0.0
 10
880.3999421996472
 20
701.6607543642149
 30
0.0
 10
880.4778008000933
 20
701.8060402505373
 30
0.0
 10
880.5488484516252
 20
701.9624498000509
 30
0.0
 10
880.58932627094
 20
702.0716377751728
 30
0.0
 10
880.6100215353996
 20
702.1274627691865
 30
0.0
  0
SPLINE
  5
166
330
1F
100
AcDbEntity
  8
0
  6
Continuous
 62
     7
370
    25
100
AcDbSpline
210
0.0
220
0.0
230
1.0
 70
     8
 71
     3
 72
    15
 73
    11
 74
     0
 42
0.00000001
 43
0.00000001
 40
0.0
 40
0.0
 40
0.0
 40
0.0
 40
0.1105883385953363
 40
0.2245417540535978
 40
0.342503494050105
 40
0.4643240984173593
 40
0.5907560327017657
 40
0.7222274753555102
 40
0.8588428362087218
 40
0.9999999999999999
 40
0.9999999999999999
 40
0.9999999999999999
 40
0.9999999999999999
 10
880.6100215353996
 20
702.1274627691865
 30
0.0
 10
880.6341398617853
 20
702.1988450308238
 30
0.0
 10
880.6831104076881
 20
702.3437816348089
 30
0.0
 10
880.7462230345926
 20
702.5686128395643
 30
0.0
 10
880.795926804201
 20
702.8045048714224
 30
0.0
 10
880.8406430687712
 20
703.0500479953503
 30
0.0
 10
880.8711643393938
 20
703.3070530262327
 30
0.0
 10
880.8957307697553
 20
703.5747247608972
 30
0.0
 10
880.9102009113308
 20
703.8532650174353
 30
0.0
 10
880.9119946280653
 20
704.0425107115958
 30
0.0
 10
880.9129061507841
 20
704.1386807179045
 30
0.0
  0
SPLINE
  5
167
330
1F
100
AcDbEntity
  8
0
  6
Continuous
 62
     7
370
    25
100
AcDbSpline
210
0.0
220
0.0
230
1.0
 70
     8
 71
     3
 72
    27
 73
    23
 74
     0
 42
0.00000001
 43
0.00000001
 40
0.0
 40
0.0
 40
0.0
 40
0.0
 40
0.0656811979906398
 40
0.1284864641740655
 40
0.1881751303280078
 40
0.2451061306699875
 40
0.2994484245294759
 40
0.3508229360093827
 40
0.399941680533779
 40
0.4466717436323726
 40
0.4912545333734972
 40
0.5333763442704375
 40
0.5738527549682226
 40
0.612526311719452
 40
0.6495971364453272
 40
0.6855320415538493
 40
0.7201057860682
 40
0.7538376629736498
 40
0.818925416046712
 40
0.8804934616501638
 40
0.9403113338460576
 40
1.0
 40
1.0
 40
1.0
 40
1.0
 10
880.9129061507841
 20
704.1386807179045
 30
0.0
 10
880.9116485753946
 20
704.2348351693744
 30
0.0
 10
880.9091884890962
 20
704.4229338317299
 30
0.0
 10
880.8997850886365
 20
704.6984039589577
 30
0.0
 10
880.8755026326548
 20
704.9600445553215
 30
0.0
 10
880.8485332181073
 20
705.2089827785542
 30
0.0
 10
880.8087681413255
 20
705.4438406133072
 30
0.0
 10
880.7658931541704
 20
705.6665841681788
 30
0.0
 10
880.7082903832213
 20
705.8744539391945
 30
0.0
 10
880.646759468995
 20
706.0707044116782
 30
0.0
 10
880.5763357077803
 20
706.2531059076799
 30
0.0
 10
880.4988140294773
 20
706.4225088479359
 30
0.0
 10
880.4160214380054
 20
706.5797310759514
 30
0.0
 10
880.3260963169556
 20
706.7243412281264
 30
0.0
 10
880.230106184235
 20
706.8569870404946
 30
0.0
 10
880.1255175003548
 20
706.9750089709108
 30
0.0
 10
880.01647893393
 20
707.082064898016
 30
0.0
 10
879.8637539377617
 20
707.2042650560084
 30
0.0
 10
879.6638127039322
 20
707.3288632171126
 30
0.0
 10
879.4150226528637
 20
707.4435278110791
 30
0.0
 10
879.1561183231469
 20
707.5093753370697
 30
0.0
 10
878.9810932852222
 20
707.518659193157
 30
0.0
 10
878.8936753815534
 20
707.5232961025198
 30
0.0
  0
SPLINE
  5
168
330
1F
100
AcDbEntity
  8
0
  6
Continuous
 62
     7
370
    25
100
AcDbSpline
210
0.0
220
0.0
230
1.0
 70
     8
 71
     3
 72
    27
 73
    23
 74
     0
 42
0.00000001
 43
0.00000001
 40
0.0
 40
0.0
 40
0.0
 40
0.0
 40
0.0603866193110628
 40
0.1208832485859981
 40
0.1827546186251396
 40
0.247811029758352
 40
0.2812991000432492
 40
0.3150876241506572
 40
0.3497023955502757
 40
0.3848565811185551
 40
0.4209661972261025
 40
0.4585111882611396
 40
0.4971747221273142
 40
0.5376020478662713
 40
0.5805030184200104
 40
0.6274675400267034
 40
0.6783882095592426
 40
0.7339832205925613
 40
0.7937467045508352
 40
0.8577136721607321
 40
0.9266978643613873
 40
1.0
 40
1.0
 40
1.0
 40
1.0
 10
878.8936753815534
 20
707.5232961025198
 30
0.0
 10
878.8051940282121
 20
707.5186527958977
 30
0.0
 10
878.6280701296861
 20
707.50935772366
 30
0.0
 10
878.3664748045964
 20
707.443773144022
 30
0.0
 10
878.1157220008427
 20
707.3294577933075
 30
0.0
 10
877.9163094872908
 20
707.2038523705305
 30
0.0
 10
877.7634779752735
 20
707.0842219443781
 30
0.0
 10
877.6558603904124
 20
706.9804814779587
 30
0.0
 10
877.5549548539148
 20
706.8670043251242
 30
0.0
 10
877.462000110743
 20
706.7426570911806
 30
0.0
 10
877.3749388920179
 20
706.6090219658797
 30
0.0
 10
877.2949822918448
 20
706.4650476465076
 30
0.0
 10
877.2229426811567
 20
706.3100045282782
 30
0.0
 10
877.1564637413163
 20
706.1440241044631
 30
0.0
 10
877.0980116543992
 20
705.9621248028963
 30
0.0
 10
877.0497968813021
 20
705.7615099603969
 30
0.0
 10
877.0052550455996
 20
705.5410256363074
 30
0.0
 10
876.9737230023983
 20
705.2993810467183
 30
0.0
 10
876.9456915606571
 20
705.0381646961602
 30
0.0
 10
876.927677051052
 20
704.7563879687787
 30
0.0
 10
876.9136627482652
 20
704.4545265278591
 30
0.0
 10
876.9131634011503
 20
704.2460713084245
 30
0.0
 10
876.9129061507841
 20
704.1386807179045
 30
0.0
  0
SPLINE
  5
169
330
1F
100
AcDbEntity
  8
0
  6
Continuous
 62
     7
370
    25
100
AcDbSpline
210
0.0
220
0.0
230
1.0
 70
     8
 71
     3
 72
    19
 73
    15
 74
     0
 42
0.00000001
 43
0.00000001
 40
0.0
 40
0.0
 40
0.0
 40
0.0
 40
0.1128134007444529
 40
0.2253938839207277
 40
0.339594814562697
 40
0.4596754102248638
 40
0.5217351900879331
 40
0.5839258387389148
 40
0.6481741447653658
 40
0.7138810381130611
 40
0.7810044549073859
 40
0.8514509275565517
 40
0.9240506926641738
 40
1.0
 40
1.0
 40
1.0
 40
1.0
 10
865.2526497405278
 20
715.0873986666224
 30
0.0
 10
865.3412387043122
 20
715.0910507370488
 30
0.0
 10
865.5182337287345
 20
715.0983473377393
 30
0.0
 10
865.7768252604931
 20
715.1687444517376
 30
0.0
 10
866.0278658778237
 20
715.2749605419401
 30
0.0
 10
866.2246017413185
 20
715.4005548400413
 30
0.0
 10
866.3742761264646
 20
715.5201624502157
 30
0.0
 10
866.4815149609924
 20
715.6221387892167
 30
0.0
 10
866.5799425002684
 20
715.7363236287741
 30
0.0
 10
866.6732958142218
 20
715.8595220194368
 30
0.0
 10
866.7589165586215
 20
715.9940876975484
 30
0.0
 10
866.8367751590678
 20
716.1393735838706
 30
0.0
 10
866.9078228105996
 20
716.2957831333842
 30
0.0
 10
866.9483006299143
 20
716.4049711085061
 30
0.0
 10
866.968995894374
 20
716.4607961025199
 30
0.0
  0
SPLINE
  5
16A
330
1F
100
AcDbEntity
  8
0
  6
Continuous
 62
     7
370
    25
100
AcDbSpline
210
0.0
220
0.0
230
1.0
 70
     8
 71
     3
 72
    27
 73
    23
 74
     0
 42
0.00000001
 43
0.00000001
 40
0.0
 40
0.0
 40
0.0
 40
0.0
 40
0.0729510658758662
 40
0.141583694186547
 40
0.2059264601708674
 40
0.2653013571846062
 40
0.3205972327139287
 40
0.3718165030988098
 40
0.4187897697094514
 40
0.4616987286157636
 40
0.5021335821035655
 40
0.5408043152926482
 40
0.5781805253279672
 40
0.6142968652075134
 40
0.649678243264787
 40
0.6842994600896374
 40
0.71835895277236
 40
0.7520808646475965
 40
0.8176524386023862
 40
0.8797220764054369
 40
0.9399655597309862
 40
1.0
 40
1.0
 40
1.0
 40
1.0
 10
863.2718805097586
 20
718.4720140512378
 30
0.0
 10
863.2721535316272
 20
718.3651598825434
 30
0.0
 10
863.2726834134634
 20
718.1577769230024
 30
0.0
 10
863.28652615764
 20
717.8564208979144
 30
0.0
 10
863.3053838307816
 20
717.5753458606182
 30
0.0
 10
863.3297067957762
 20
717.3141949201264
 30
0.0
 10
863.3658278209786
 20
717.0738520343897
 30
0.0
 10
863.4063004788476
 20
716.8526641873837
 30
0.0
 10
863.4555532551201
 20
716.6518019311236
 30
0.0
 10
863.5138275816731
 20
716.4698869352275
 30
0.0
 10
863.5802026602869
 20
716.3038319215239
 30
0.0
 10
863.6526732058184
 20
716.1493148583756
 30
0.0
 10
863.730526286744
 20
716.0045104322367
 30
0.0
 10
863.8176557737223
 20
715.8707193273816
 30
0.0
 10
863.912547346817
 20
715.7475052380722
 30
0.0
 10
864.013057653417
 20
715.6326873356212
 30
0.0
 10
864.1229378459705
 20
715.5302942354256
 30
0.0
 10
864.2749464003549
 20
715.4074899953582
 30
0.0
 10
864.4756240561882
 20
715.280589118262
 30
0.0
 10
864.7284708110021
 20
715.1700837700754
 30
0.0
 10
864.9882844132457
 20
715.100638155373
 30
0.0
 10
865.16463012773
 20
715.0918067131898
 30
0.0
 10
865.2526497405278
 20
715.0873986666224
 30
0.0
  0
SPLINE
  5
16B
330
1F
100
AcDbEntity
  8
0
  6
Continuous
 62
     7
370
    25
100
AcDbSpline
210
0.0
220
0.0
230
1.0
 70
     8
 71
     3
 72
    27
 73
    23
 74
     0
 42
0.00000001
 43
0.00000001
 40
0.0
 40
0.0
 40
0.0
 40
0.0
 40
0.0656811979906368
 40
0.1284864641740658
 40
0.1881751303280081
 40
0.2451061306699847
 40
0.299448424529477
 40
0.3508229360093832
 40
0.3999416805337767
 40
0.4466717436323713
 40
0.4912545333734988
 40
0.5333763442704379
 40
0.5738527549682246
 40
0.6125263117194542
 40
0.6495971364453295
 40
0.6855320415538516
 40
0.7201057860682001
 40
0.7538376629736525
 40
0.8189254160467149
 40
0.8804934616501638
 40
0.9403113338460577
 40
1.0
 40
1.0
 40
1.0
 40
1.0
 10
867.2718805097585
 20
718.4720140512378
 30
0.0
 10
867.2706229343689
 20
718.5681685027076
 30
0.0
 10
867.2681628480705
 20
718.7562671650633
 30
0.0
 10
867.2587594476108
 20
719.0317372922909
 30
0.0
 10
867.2344769916291
 20
719.2933778886547
 30
0.0
 10
867.2075075770817
 20
719.5423161118874
 30
0.0
 10
867.1677425002997
 20
719.7771739466406
 30
0.0
 10
867.1248675131447
 20
719.9999175015122
 30
0.0
 10
867.0672647421958
 20
720.2077872725279
 30
0.0
 10
867.0057338279694
 20
720.4040377450115
 30
0.0
 10
866.9353100667547
 20
720.5864392410133
 30
0.0
 10
866.8577883884517
 20
720.7558421812691
 30
0.0
 10
866.7749957969797
 20
720.9130644092849
 30
0.0
 10
866.68507067593
 20
721.0576745614596
 30
0.0
 10
866.5890805432093
 20
721.190320373828
 30
0.0
 10
866.4844918593291
 20
721.3083423042441
 30
0.0
 10
866.3754532929045
 20
721.4153982313494
 30
0.0
 10
866.222728296736
 20
721.5375983893416
 30
0.0
 10
866.0227870629066
 20
721.662196550446
 30
0.0
 10
865.7739970118381
 20
721.7768611444125
 30
0.0
 10
865.5150926821212
 20
721.8427086704031
 30
0.0
 10
865.3400676441966
 20
721.8519925264902
 30
0.0
 10
865.2526497405278
 20
721.8566294358533
 30
0.0
  0
SPLINE
  5
16C
330
1F
100
AcDbEntity
  8
0
  6
Continuous
 62
     7
370
    25
100
AcDbSpline
210
0.0
220
0.0
230
1.0
 70
     8
 71
     3
 72
    27
 73
    23
 74
     0
 42
0.00000001
 43
0.00000001
 40
0.0
 40
0.0
 40
0.0
 40
0.0
 40
0.0603866193110625
 40
0.1208832485859977
 40
0.1827546186251421
 40
0.2478110297583517
 40
0.2812991000432508
 40
0.3150876241506589
 40
0.3497023955502773
 40
0.3848565811185574
 40
0.4209661972261038
 40
0.4585111882611408
 40
0.4971747221273141
 40
0.5376020478662712
 40
0.5805030184200142
 40
0.627467540026707
 40
0.6783882095592457
 40
0.7339832205925616
 40
0.7937467045508355
 40
0.8577136721607321
 40
0.9266978643613875
 40
1.0
 40
1.0
 40
1.0
 40
1.0
 10
865.2526497405278
 20
721.8566294358533
 30
0.0
 10
865.1641683871865
 20
721.8519861292309
 30
0.0
 10
864.9870444886604
 20
721.8426910569933
 30
0.0
 10
864.7254491635707
 20
721.7771064773553
 30
0.0
 10
864.474696359817
 20
721.6627911266407
 30
0.0
 10
864.2752838462653
 20
721.5371857038639
 30
0.0
 10
864.1224523342479
 20
721.4175552777115
 30
0.0
 10
864.0148347493868
 20
721.3138148112922
 30
0.0
 10
863.9139292128892
 20
721.2003376584576
 30
0.0
 10
863.8209744697174
 20
721.0759904245139
 30
0.0
 10
863.7339132509923
 20
720.942355299213
 30
0.0
 10
863.6539566508193
 20
720.7983809798411
 30
0.0
 10
863.5819170401311
 20
720.6433378616115
 30
0.0
 10
863.5154381002908
 20
720.4773574377965
 30
0.0
 10
863.4569860133736
 20
720.2954581362295
 30
0.0
 10
863.4087712402765
 20
720.0948432937302
 30
0.0
 10
863.364229404574
 20
719.8743589696406
 30
0.0
 10
863.3326973613727
 20
719.6327143800517
 30
0.0
 10
863.3046659196315
 20
719.3714980294934
 30
0.0
 10
863.2866514100264
 20
719.0897213021121
 30
0.0
 10
863.2726371072396
 20
718.7878598611924
 30
0.0
 10
863.2721377601247
 20
718.5794046417577
 30
0.0
 10
863.2718805097585
 20
718.4720140512378
 30
0.0
  0
SPLINE
  5
16D
330
1F
100
AcDbEntity
  8
0
  6
Continuous
 62
     7
370
    25
100
AcDbSpline
210
0.0
220
0.0
230
1.0
 70
     8
 71
     3
 72
    15
 73
    11
 74
     0
 42
0.00000001
 43
0.00000001
 40
0.0
 40
0.0
 40
0.0
 40
0.0
 40
0.1105883385953365
 40
0.2245417540535898
 40
0.3425034940501052
 40
0.4643240984173585
 40
0.5907560327017658
 40
0.72222747535551
 40
0.8588428362087218
 40
1.0
 40
1.0
 40
1.0
 40
1.0
 10
866.968995894374
 20
716.4607961025199
 30
0.0
 10
866.9931142207596
 20
716.5321783641572
 30
0.0
 10
867.0420847666625
 20
716.6771149681424
 30
0.0
 10
867.105197393567
 20
716.9019461728977
 30
0.0
 10
867.1549011631754
 20
717.1378382047559
 30
0.0
 10
867.1996174277456
 20
717.3833813286838
 30
0.0
 10
867.230138698368
 20
717.6403863595659
 30
0.0
 10
867.2547051287297
 20
717.9080580942306
 30
0.0
 10
867.2691752703053
 20
718.1865983507687
 30
0.0
 10
867.2709689870397
 20
718.3758440449293
 30
0.0
 10
867.2718805097585
 20
718.4720140512378
 30
0.0
  0
CIRCLE
  5
16E
330
1F
100
AcDbEntity
  8
0
  6
Continuous
 62
     7
370
    25
100
AcDbCircle
 10
951.4872798434
 20
785.6360078278
 30
0.0
 40
70.0
  0
CIRCLE
  5
16F
330
1F
100
AcDbEntity
  8
0
  6
Continuous
 62
     7
370
    25
100
AcDbCircle
 10
951.4872798434
 20
785.6360078278
 30
0.0
 40
57.50000000000011
  0
ENDSEC
  0
SECTION
  2
OBJECTS
  0
DICTIONARY
  5
C
330
0
100
AcDbDictionary
281
     1
  3
ACAD_DETAILVIEWSTYLE
350
177
  3
ACAD_GROUP
350
D
  3
ACAD_LAYOUT
350
1A
  3
ACAD_MATERIAL
350
43
  3
ACAD_MLEADERSTYLE
350
5B
  3
ACAD_MLINESTYLE
350
17
  3
ACAD_PLOTSETTINGS
350
19
  3
ACAD_PLOTSTYLENAME
350
E
  3
ACAD_SCALELIST
350
47
  3
ACAD_SECTIONVIEWSTYLE
350
178
  3
ACAD_TABLESTYLE
350
59
  3
ACAD_VISUALSTYLE
350
2A
  3
ACDB_RECOMPOSE_DATA
350
174
  3
AcDbVariableDictionary
350
170
  0
SUN
  5
5D
330
29
100
AcDbSun
 90
        1
290
     0
 63
     7
421
 16777215
 40
1.0
291
     1
 91
  2455826
 92
 54000000
292
     0
 70
     2
 71
   256
280
     1
  0
DICTIONARY
  5
177
102
{ACAD_REACTORS
330
C
102
}
330
C
100
AcDbDictionary
281
     1
  0
DICTIONARY
  5
D
102
{ACAD_REACTORS
330
C
102
}
330
C
100
AcDbDictionary
281
     1
  0
DICTIONARY
  5
1A
102
{ACAD_REACTORS
330
C
102
}
330
C
100
AcDbDictionary
281
     1
  3
Layout1
350
1E
  3
Layout2
350
26
  3
Model
350
22
  0
DICTIONARY
  5
43
102
{ACAD_REACTORS
330
C
102
}
330
C
100
AcDbDictionary
281
     1
  3
ByBlock
350
45
  3
ByLayer
350
44
  3
Global
350
46
  0
DICTIONARY
  5
5B
102
{ACAD_REACTORS
330
C
102
}
330
C
100
AcDbDictionary
281
     1
  3
Standard
350
5C
  0
DICTIONARY
  5
17
102
{ACAD_REACTORS
330
C
102
}
330
C
100
AcDbDictionary
281
     1
  3
Standard
350
18
  0
DICTIONARY
  5
19
102
{ACAD_REACTORS
330
C
102
}
330
C
100
AcDbDictionary
281
     1
  0
ACDBDICTIONARYWDFLT
  5
E
102
{ACAD_REACTORS
330
C
102
}
330
C
100
AcDbDictionary
281
     1
  3
Normal
350
F
100
AcDbDictionaryWithDefault
340
F
  0
DICTIONARY
  5
47
102
{ACAD_REACTORS
330
C
102
}
330
C
100
AcDbDictionary
281
     1
  3
A0
350
48
  3
A1
350
49
  3
A2
350
4A
  3
A3
350
4B
  3
A4
350
4C
  3
A5
350
4D
  3
A6
350
4E
  3
A7
350
4F
  3
A8
350
50
  3
A9
350
51
  3
B0
350
52
  3
B1
350
53
  3
B2
350
54
  3
B3
350
55
  3
B4
350
56
  3
B5
350
57
  3
B6
350
58
  0
DICTIONARY
  5
178
102
{ACAD_REACTORS
330
C
102
}
330
C
100
AcDbDictionary
281
     1
  0
DICTIONARY
  5
59
102
{ACAD_REACTORS
330
C
102
}
330
C
100
AcDbDictionary
281
     1
  3
Standard
350
5A
  0
DICTIONARY
  5
2A
102
{ACAD_REACTORS
330
C
102
}
330
C
100
AcDbDictionary
281
     1
  3
2dWireframe
350
2F
  3
Basic
350
32
  3
Brighten
350
36
  3
ColorChange
350
3A
  3
Conceptual
350
34
  3
Dim
350
35
  3
EdgeColorOff
350
3D
  3
Facepattern
350
39
  3
Flat
350
2B
  3
FlatWithEdges
350
2C
  3
Gouraud
350
2D
  3
GouraudWithEdges
350
2E
  3
Hidden
350
31
  3
JitterOff
350
3B
  3
Linepattern
350
38
  3
OverhangOff
350
3C
  3
Realistic
350
33
  3
Shaded
350
42
  3
Shaded with edges
350
41
  3
Shades of Gray
350
3E
  3
Sketchy
350
3F
  3
Thicken
350
37
  3
Wireframe
350
30
  3
X-Ray
350
40
  0
XRECORD
  5
174
102
{ACAD_REACTORS
330
C
102
}
330
C
100
AcDbXrecord
280
     1
 90
        1
330
5A
  0
DICTIONARY
  5
170
102
{ACAD_REACTORS
330
C
102
}
330
C
100
AcDbDictionary
281
     1
  3
CANNOSCALE
350
171
  3
CENTEREXE
350
179
  3
CENTERLTYPEFILE
350
17A
  3
CMLEADERSTYLE
350
176
  3
CTABLESTYLE
350
175
  0
LAYOUT
  5
1E
102
{ACAD_REACTORS
330
1A
102
}
330
1A
100
AcDbPlotSettings
  1

  2
none_device
  4

  6

 40
0.0
 41
0.0
 42
0.0
 43
0.0
 44
0.0
 45
0.0
 46
0.0
 47
0.0
 48
0.0
 49
0.0
140
0.0
141
0.0
142
1.0
143
1.0
 70
   688
 72
     1
 73
     0
 74
     5
  7

 75
    16
 76
     0
 77
     2
 78
   300
147
1.0
148
0.0
149
0.0
100
AcDbLayout
  1
Layout1
 70
     1
 71
     1
 10
0.0
 20
0.0
 11
420.0
 21
297.0
 12
0.0
 22
0.0
 32
0.0
 14
1.0000000000E+20
 24
1.0000000000E+20
 34
1.0000000000E+20
 15
-1.0000000000E+20
 25
-1.0000000000E+20
 35
-1.0000000000E+20
146
0.0
 13
0.0
 23
0.0
 33
0.0
 16
1.0
 26
0.0
 36
0.0
 17
0.0
 27
1.0
 37
0.0
 76
     0
330
1B
  0
LAYOUT
  5
26
102
{ACAD_REACTORS
330
1A
102
}
330
1A
100
AcDbPlotSettings
  1

  2
none_device
  4

  6

 40
0.0
 41
0.0
 42
0.0
 43
0.0
 44
0.0
 45
0.0
 46
0.0
 47
0.0
 48
0.0
 49
0.0
140
0.0
141
0.0
142
1.0
143
1.0
 70
   688
 72
     1
 73
     0
 74
     5
  7

 75
    16
 76
     0
 77
     2
 78
   300
147
1.0
148
0.0
149
0.0
100
AcDbLayout
  1
Layout2
 70
     1
 71
     2
 10
0.0
 20
0.0
 11
0.0
 21
0.0
 12
0.0
 22
0.0
 32
0.0
 14
0.0
 24
0.0
 34
0.0
 15
0.0
 25
0.0
 35
0.0
146
0.0
 13
0.0
 23
0.0
 33
0.0
 16
1.0
 26
0.0
 36
0.0
 17
0.0
 27
1.0
 37
0.0
 76
     0
330
23
  0
LAYOUT
  5
22
102
{ACAD_REACTORS
330
1A
102
}
330
1A
100
AcDbPlotSettings
  1

  2
none_device
  4
Letter_(8.50_x_11.00_Inches)
  6

 40
6.35
 41
6.35
 42
6.35000508
 43
6.35000508
 44
215.9
 45
279.4
 46
0.0
 47
0.0
 48
0.0
 49
0.0
140
0.0
141
0.0
142
1.0
143
1.0
 70
  1712
 72
     1
 73
     0
 74
     0
  7

 75
     0
 76
     0
 77
     2
 78
   300
147
1.0
148
0.0
149
0.0
100
AcDbLayout
  1
Model
 70
     1
 71
     0
 10
0.0
 20
0.0
 11
420.0
 21
297.0
 12
0.0
 22
0.0
 32
0.0
 14
0.0
 24
0.0
 34
0.0
 15
420.0
 25
297.0
 35
0.0
146
0.0
 13
0.0
 23
0.0
 33
0.0
 16
1.0
 26
0.0
 36
0.0
 17
0.0
 27
1.0
 37
0.0
 76
     0
330
1F
331
29
  0
MATERIAL
  5
45
102
{ACAD_REACTORS
330
43
102
}
330
43
100
AcDbMaterial
  1
ByBlock
 72
     1
 94
      127
  0
MATERIAL
  5
44
102
{ACAD_REACTORS
330
43
102
}
330
43
100
AcDbMaterial
  1
ByLayer
 72
     1
 94
      127
  0
MATERIAL
  5
46
102
{ACAD_REACTORS
330
43
102
}
330
43
100
AcDbMaterial
  1
Global
 72
     1
 94
      127
  0
MLEADERSTYLE
  5
5C
102
{ACAD_REACTORS
330
5B
102
}
330
5B
100
AcDbMLeaderStyle
179
     2
170
     2
171
     1
172
     0
 90
        2
 40
0.0
 41
0.0
173
     1
 91
-1056964608
340
14
 92
       -2
290
     1
 42
2.0
291
     1
 43
8.0
  3
Standard
341
0
 44
4.0
300

342
11
174
     1
178
     6
175
     1
176
     0
 93
-1056964608
 45
4.0
292
     0
297
     0
 46
4.0
343
0
 94
-1056964608
 47
1.0
 49
1.0
140
1.0
293
     1
141
0.0
294
     1
177
     0
142
1.0
295
     0
296
     0
143
3.75
271
     0
272
     9
273
     9
298
     0
  0
MLINESTYLE
  5
18
102
{ACAD_REACTORS
330
17
102
}
330
17
100
AcDbMlineStyle
  2
Standard
 70
     0
  3

 62
   256
 51
90.0
 52
90.0
 71
     2
 49
0.5
 62
   256
  6
BYLAYER
 49
-0.5
 62
   256
  6
BYLAYER
  0
ACDBPLACEHOLDER
  5
F
102
{ACAD_REACTORS
330
E
102
}
330
E
  0
SCALE
  5
48
102
{ACAD_REACTORS
330
47
102
}
330
47
100
AcDbScale
 70
     0
300
1:1
140
1.0
141
1.0
290
     1
  0
SCALE
  5
49
102
{ACAD_REACTORS
330
47
102
}
330
47
100
AcDbScale
 70
     0
300
1:2
140
1.0
141
2.0
290
     0
  0
SCALE
  5
4A
102
{ACAD_REACTORS
330
47
102
}
330
47
100
AcDbScale
 70
     0
300
1:4
140
1.0
141
4.0
290
     0
  0
SCALE
  5
4B
102
{ACAD_REACTORS
330
47
102
}
330
47
100
AcDbScale
 70
     0
300
1:5
140
1.0
141
5.0
290
     0
  0
SCALE
  5
4C
102
{ACAD_REACTORS
330
47
102
}
330
47
100
AcDbScale
 70
     0
300
1:8
140
1.0
141
8.0
290
     0
  0
SCALE
  5
4D
102
{ACAD_REACTORS
330
47
102
}
330
47
100
AcDbScale
 70
     0
300
1:10
140
1.0
141
10.0
290
     0
  0
SCALE
  5
4E
102
{ACAD_REACTORS
330
47
102
}
330
47
100
AcDbScale
 70
     0
300
1:16
140
1.0
141
16.0
290
     0
  0
SCALE
  5
4F
102
{ACAD_REACTORS
330
47
102
}
330
47
100
AcDbScale
 70
     0
300
1:20
140
1.0
141
20.0
290
     0
  0
SCALE
  5
50
102
{ACAD_REACTORS
330
47
102
}
330
47
100
AcDbScale
 70
     0
300
1:30
140
1.0
141
30.0
290
     0
  0
SCALE
  5
51
102
{ACAD_REACTORS
330
47
102
}
330
47
100
AcDbScale
 70
     0
300
1:40
140
1.0
141
40.0
290
     0
  0
SCALE
  5
52
102
{ACAD_REACTORS
330
47
102
}
330
47
100
AcDbScale
 70
     0
300
1:50
140
1.0
141
50.0
290
     0
  0
SCALE
  5
53
102
{ACAD_REACTORS
330
47
102
}
330
47
100
AcDbScale
 70
     0
300
1:100
140
1.0
141
100.0
290
     0
  0
SCALE
  5
54
102
{ACAD_REACTORS
330
47
102
}
330
47
100
AcDbScale
 70
     0
300
2:1
140
2.0
141
1.0
290
     0
  0
SCALE
  5
55
102
{ACAD_REACTORS
330
47
102
}
330
47
100
AcDbScale
 70
     0
300
4:1
140
4.0
141
1.0
290
     0
  0
SCALE
  5
56
102
{ACAD_REACTORS
330
47
102
}
330
47
100
AcDbScale
 70
     0
300
8:1
140
8.0
141
1.0
290
     0
  0
SCALE
  5
57
102
{ACAD_REACTORS
330
47
102
}
330
47
100
AcDbScale
 70
     0
300
10:1
140
10.0
141
1.0
290
     0
  0
SCALE
  5
58
102
{ACAD_REACTORS
330
47
102
}
330
47
100
AcDbScale
 70
     0
300
100:1
140
100.0
141
1.0
290
     0
  0
TABLESTYLE
  5
5A
102
{ACAD_REACTORS
330
59
102
}
102
{ACAD_XDICTIONARY
360
172
102
}
330
59
100
AcDbTableStyle
  3
Standard
 70
     0
 71
     0
 40
0.06
 41
0.06
280
     0
281
     0
  7
Standard
140
4.5
170
     2
 62
     0
 63
   257
283
     0
 90
        4
 91
        0
  1

274
    -2
284
     1
 64
     0
275
    -2
285
     1
 65
     0
276
    -2
286
     1
 66
     0
277
    -2
287
     1
 67
     0
278
    -2
288
     1
 68
     0
279
    -2
289
     1
 69
     0
  7
Standard
140
6.0
170
     5
 62
     0
 63
   257
283
     0
 90
        4
 91
        0
  1

274
    -2
284
     1
 64
     0
275
    -2
285
     1
 65
     0
276
    -2
286
     1
 66
     0
277
    -2
287
     1
 67
     0
278
    -2
288
     1
 68
     0
279
    -2
289
     1
 69
     0
  7
Standard
140
4.5
170
     5
 62
     0
 63
   257
283
     0
 90
        4
 91
        0
  1

274
    -2
284
     1
 64
     0
275
    -2
285
     1
 65
     0
276
    -2
286
     1
 66
     0
277
    -2
287
     1
 67
     0
278
    -2
288
     1
 68
     0
279
    -2
289
     1
 69
     0
  0
VISUALSTYLE
  5
2F
102
{ACAD_REACTORS
330
2A
102
}
330
2A
100
AcDbVisualStyle
  2
2dWireframe
 70
     4
177
     3
291
     0
 70
    58
 90
        0
176
     1
 90
        2
176
     1
 90
        0
176
     1
 90
        0
176
     1
 40
0.6
176
     1
 40
30.0
176
     1
 62
     7
420
 16777215
176
     1
 90
        1
176
     1
 90
        4
176
     1
 62
     7
176
     1
 62
   257
176
     1
 90
        1
176
     1
 90
        1
176
     1
 40
1.0
176
     1
 90
        0
176
     1
 62
   257
176
     1
 40
1.0
176
     1
 90
        1
176
     1
 90
        6
176
     1
 90
        2
176
     1
 62
     7
176
     1
 90
        5
176
     1
 90
        0
176
     1
 90
        0
176
     1
290
     0
176
     1
 90
        1
176
     1
 40
0.0
176
     1
 90
        0
176
     1
290
     1
176
     1
290
     1
176
     1
290
     0
176
     1
290
     0
176
     1
290
     0
176
     1
290
     0
176
     1
290
     0
176
     1
290
     0
176
     1
290
     0
176
     1
 90
       50
176
     1
 40
0.0
176
     1
 40
1.0
176
     1
 90
        0
176
     1
 62
    18
420
        0
176
     1
 90
       50
176
     1
 90
        3
176
     1
 62
     5
420
      255
176
     1
290
     0
176
     1
 90
       50
176
     1
 90
       50
176
     1
 90
       50
176
     1
290
     0
176
     1
 90
       50
176
     1
 62
   256
176
     0
 40
1.0
176
     0
 90
        2
176
     1
  1
strokes_ogs.tif
176
     1
290
     0
176
     1
 40
1.0
176
     1
 40
1.0
176
     1
  0
VISUALSTYLE
  5
32
102
{ACAD_REACTORS
330
2A
102
}
330
2A
100
AcDbVisualStyle
  2
Basic
 70
     7
177
     3
291
     1
 70
    58
 90
        1
176
     1
 90
        0
176
     1
 90
        1
176
     1
 90
        0
176
     1
 40
0.6
176
     1
 40
30.0
176
     1
 62
     7
420
 16777215
176
     1
 90
        0
176
     1
 90
        4
176
     1
 62
     7
176
     1
 62
   257
176
     1
 90
        1
176
     1
 90
        1
176
     1
 40
1.0
176
     1
 90
        8
176
     1
 62
     7
176
     1
 40
1.0
176
     1
 90
        1
176
     1
 90
        6
176
     1
 90
        2
176
     1
 62
     7
176
     1
 90
        5
176
     1
 90
        0
176
     1
 90
        0
176
     1
290
     0
176
     1
 90
        1
176
     1
 40
0.0
176
     1
 90
        0
176
     1
290
     0
176
     1
290
     1
176
     1
290
     1
176
     1
290
     0
176
     1
290
     0
176
     1
290
     0
176
     1
290
     0
176
     1
290
     0
176
     1
290
     0
176
     1
 90
       50
176
     1
 40
0.0
176
     1
 40
1.0
176
     1
 90
        0
176
     1
 62
    18
420
        0
176
     1
 90
       50
176
     1
 90
        3
176
     1
 62
     5
420
      255
176
     1
290
     0
176
     1
 90
       50
176
     1
 90
       50
176
     1
 90
       50
176
     1
290
     0
176
     1
 90
       50
176
     1
 62
   256
176
     0
 40
1.0
176
     0
 90
        2
176
     1
  1
strokes_ogs.tif
176
     1
290
     0
176
     1
 40
1.0
176
     1
 40
1.0
176
     1
  0
VISUALSTYLE
  5
36
102
{ACAD_REACTORS
330
2A
102
}
330
2A
100
AcDbVisualStyle
  2
Brighten
 70
    12
177
     3
291
     1
 70
    58
 90
        2
176
     1
 90
        2
176
     1
 90
        0
176
     1
 90
        0
176
     1
 40
0.6
176
     1
 40
30.0
176
     1
 62
     7
420
 16777215
176
     1
 90
        1
176
     1
 90
        4
176
     1
 62
     7
176
     1
 62
   257
176
     1
 90
        1
176
     1
 90
        1
176
     1
 40
1.0
176
     1
 90
        8
176
     1
 62
     7
176
     1
 40
1.0
176
     1
 90
        1
176
     1
 90
        6
176
     1
 90
        2
176
     1
 62
     7
176
     1
 90
        5
176
     1
 90
        0
176
     1
 90
        0
176
     1
290
     0
176
     1
 90
        1
176
     1
 40
50.0
176
     1
 90
        0
176
     1
290
     0
176
     1
290
     1
176
     1
290
     1
176
     1
290
     0
176
     1
290
     0
176
     1
290
     0
176
     1
290
     0
176
     1
290
     0
176
     1
290
     0
176
     1
 90
       50
176
     1
 40
0.0
176
     1
 40
1.0
176
     1
 90
        0
176
     1
 62
    18
420
        0
176
     1
 90
       50
176
     1
 90
        3
176
     1
 62
     5
420
      255
176
     1
290
     0
176
     1
 90
       50
176
     1
 90
       50
176
     1
 90
       50
176
     1
290
     0
176
     1
 90
       50
176
     1
 62
   256
176
     0
 40
1.0
176
     0
 90
        2
176
     1
  1
strokes_ogs.tif
176
     1
290
     0
176
     1
 40
1.0
176
     1
 40
1.0
176
     1
  0
VISUALSTYLE
  5
3A
102
{ACAD_REACTORS
330
2A
102
}
330
2A
100
AcDbVisualStyle
  2
ColorChange
 70
    16
177
     3
291
     1
 70
    58
 90
        2
176
     1
 90
        2
176
     1
 90
        3
176
     1
 90
        0
176
     1
 40
0.6
176
     1
 40
30.0
176
     1
 62
     8
420
  8421504
176
     1
 90
        1
176
     1
 90
        4
176
     1
 62
     7
176
     1
 62
   257
176
     1
 90
        1
176
     1
 90
        1
176
     1
 40
1.0
176
     1
 90
        8
176
     1
 62
     8
420
  8421504
176
     1
 40
1.0
176
     1
 90
        1
176
     1
 90
        6
176
     1
 90
        2
176
     1
 62
     7
176
     1
 90
        5
176
     1
 90
        0
176
     1
 90
        0
176
     1
290
     0
176
     1
 90
        1
176
     1
 40
0.0
176
     1
 90
        0
176
     1
290
     0
176
     1
290
     1
176
     1
290
     1
176
     1
290
     0
176
     1
290
     0
176
     1
290
     0
176
     1
290
     0
176
     1
290
     0
176
     1
290
     0
176
     1
 90
       50
176
     1
 40
0.0
176
     1
 40
1.0
176
     1
 90
        0
176
     1
 62
    18
420
        0
176
     1
 90
       50
176
     1
 90
        3
176
     1
 62
     5
420
      255
176
     1
290
     0
176
     1
 90
       50
176
     1
 90
       50
176
     1
 90
       50
176
     1
290
     0
176
     1
 90
       50
176
     1
 62
   256
176
     0
 40
1.0
176
     0
 90
        2
176
     1
  1
strokes_ogs.tif
176
     1
290
     0
176
     1
 40
1.0
176
     1
 40
1.0
176
     1
  0
VISUALSTYLE
  5
34
102
{ACAD_REACTORS
330
2A
102
}
330
2A
100
AcDbVisualStyle
  2
Conceptual
 70
     9
177
     3
291
     0
 70
    58
 90
        3
176
     1
 90
        2
176
     1
 90
        0
176
     1
 90
        0
176
     1
 40
0.6
176
     1
 40
30.0
176
     1
 62
     7
420
 16777215
176
     1
 90
        2
176
     1
 90
        2
176
     1
 62
     7
176
     1
 62
   257
176
     1
 90
        1
176
     1
 90
        1
176
     1
 40
179.0
176
     1
 90
        8
176
     1
 62
     7
176
     1
 40
1.0
176
     1
 90
        1
176
     1
 90
        6
176
     1
 90
        2
176
     1
 62
     7
176
     1
 90
        3
176
     1
 90
        0
176
     1
 90
        0
176
     1
290
     0
176
     1
 90
        1
176
     1
 40
0.0
176
     1
 90
        0
176
     1
290
     0
176
     1
290
     1
176
     1
290
     1
176
     1
290
     0
176
     1
290
     0
176
     1
290
     0
176
     1
290
     0
176
     1
290
     0
176
     1
290
     0
176
     1
 90
       50
176
     1
 40
0.0
176
     1
 40
1.0
176
     1
 90
        0
176
     1
 62
    18
420
        0
176
     1
 90
       50
176
     1
 90
        3
176
     1
 62
     5
420
      255
176
     1
290
     0
176
     1
 90
       50
176
     1
 90
       50
176
     1
 90
       50
176
     1
290
     0
176
     1
 90
       50
176
     1
 62
   256
176
     0
 40
1.0
176
     0
 90
        2
176
     1
  1
strokes_ogs.tif
176
     1
290
     0
176
     1
 40
1.0
176
     1
 40
1.0
176
     1
  0
VISUALSTYLE
  5
35
102
{ACAD_REACTORS
330
2A
102
}
330
2A
100
AcDbVisualStyle
  2
Dim
 70
    11
177
     3
291
     1
 70
    58
 90
        2
176
     1
 90
        2
176
     1
 90
        0
176
     1
 90
        0
176
     1
 40
0.6
176
     1
 40
30.0
176
     1
 62
     7
420
 16777215
176
     1
 90
        1
176
     1
 90
        4
176
     1
 62
     7
176
     1
 62
   257
176
     1
 90
        1
176
     1
 90
        1
176
     1
 40
1.0
176
     1
 90
        8
176
     1
 62
     7
176
     1
 40
1.0
176
     1
 90
        1
176
     1
 90
        6
176
     1
 90
        2
176
     1
 62
     7
176
     1
 90
        5
176
     1
 90
        0
176
     1
 90
        0
176
     1
290
     0
176
     1
 90
        1
176
     1
 40
-50.0
176
     1
 90
        0
176
     1
290
     0
176
     1
290
     1
176
     1
290
     1
176
     1
290
     0
176
     1
290
     0
176
     1
290
     0
176
     1
290
     0
176
     1
290
     0
176
     1
290
     0
176
     1
 90
       50
176
     1
 40
0.0
176
     1
 40
1.0
176
     1
 90
        0
176
     1
 62
    18
420
        0
176
     1
 90
       50
176
     1
 90
        3
176
     1
 62
     5
420
      255
176
     1
290
     0
176
     1
 90
       50
176
     1
 90
       50
176
     1
 90
       50
176
     1
290
     0
176
     1
 90
       50
176
     1
 62
   256
176
     0
 40
1.0
176
     0
 90
        2
176
     1
  1
strokes_ogs.tif
176
     1
290
     0
176
     1
 40
1.0
176
     1
 40
1.0
176
     1
  0
VISUALSTYLE
  5
3D
102
{ACAD_REACTORS
330
2A
102
}
330
2A
100
AcDbVisualStyle
  2
EdgeColorOff
 70
    22
177
     3
291
     1
 70
    58
 90
        2
176
     0
 90
        2
176
     0
 90
        0
176
     0
 90
        0
176
     0
 40
0.6
176
     0
 40
30.0
176
     0
 62
     7
420
 16777215
176
     0
 90
        1
176
     0
 90
        4
176
     0
 62
     7
176
     0
 62
   257
176
     0
 90
        1
176
     0
 90
        1
176
     0
 40
1.0
176
     0
 90
        8
176
     2
 62
     7
176
     0
 40
1.0
176
     0
 90
        1
176
     0
 90
        6
176
     0
 90
        2
176
     0
 62
     7
176
     0
 90
        5
176
     0
 90
        0
176
     0
 90
        0
176
     0
290
     0
176
     0
 90
        1
176
     0
 40
0.0
176
     0
 90
        0
176
     0
290
     0
176
     0
290
     1
176
     0
290
     1
176
     0
290
     0
176
     0
290
     0
176
     0
290
     0
176
     0
290
     0
176
     0
290
     0
176
     0
290
     0
176
     0
 90
       50
176
     0
 40
0.0
176
     0
 40
1.0
176
     0
 90
        0
176
     0
 62
    18
420
        0
176
     0
 90
       50
176
     0
 90
        3
176
     0
 62
     5
420
      255
176
     0
290
     0
176
     0
 90
       50
176
     0
 90
       50
176
     0
 90
       50
176
     0
290
     0
176
     0
 90
       50
176
     0
 62
   256
176
     0
 40
1.0
176
     0
 90
        2
176
     0
  1
strokes_ogs.tif
176
     0
290
     0
176
     0
 40
1.0
176
     0
 40
1.0
176
     0
  0
VISUALSTYLE
  5
39
102
{ACAD_REACTORS
330
2A
102
}
330
2A
100
AcDbVisualStyle
  2
Facepattern
 70
    15
177
     3
291
     1
 70
    58
 90
        2
176
     1
 90
        2
176
     1
 90
        0
176
     1
 90
        0
176
     1
 40
0.6
176
     1
 40
30.0
176
     1
 62
     7
420
 16777215
176
     1
 90
        1
176
     1
 90
        4
176
     1
 62
     7
176
     1
 62
   257
176
     1
 90
        1
176
     1
 90
        1
176
     1
 40
1.0
176
     1
 90
        8
176
     1
 62
     7
176
     1
 40
1.0
176
     1
 90
        1
176
     1
 90
        6
176
     1
 90
        2
176
     1
 62
     7
176
     1
 90
        5
176
     1
 90
        0
176
     1
 90
        0
176
     1
290
     0
176
     1
 90
        1
176
     1
 40
0.0
176
     1
 90
        0
176
     1
290
     0
176
     1
290
     1
176
     1
290
     1
176
     1
290
     0
176
     1
290
     0
176
     1
290
     0
176
     1
290
     0
176
     1
290
     0
176
     1
290
     0
176
     1
 90
       50
176
     1
 40
0.0
176
     1
 40
1.0
176
     1
 90
        0
176
     1
 62
    18
420
        0
176
     1
 90
       50
176
     1
 90
        3
176
     1
 62
     5
420
      255
176
     1
290
     0
176
     1
 90
       50
176
     1
 90
       50
176
     1
 90
       50
176
     1
290
     0
176
     1
 90
       50
176
     1
 62
   256
176
     0
 40
1.0
176
     0
 90
        2
176
     1
  1
strokes_ogs.tif
176
     1
290
     0
176
     1
 40
1.0
176
     1
 40
1.0
176
     1
  0
VISUALSTYLE
  5
2B
102
{ACAD_REACTORS
330
2A
102
}
330
2A
100
AcDbVisualStyle
  2
Flat
 70
     0
177
     3
291
     1
 70
    58
 90
        2
176
     1
 90
        1
176
     1
 90
        1
176
     1
 90
        2
176
     1
 40
0.6
176
     1
 40
30.0
176
     1
 62
     7
420
 16777215
176
     1
 90
        0
176
     1
 90
        0
176
     1
 62
     7
176
     1
 62
   257
176
     1
 90
        1
176
     1
 90
        1
176
     1
 40
1.0
176
     1
 90
        8
176
     1
 62
     7
176
     1
 40
1.0
176
     1
 90
        1
176
     1
 90
        6
176
     1
 90
        2
176
     1
 62
     7
176
     1
 90
        5
176
     1
 90
        0
176
     1
 90
        0
176
     1
290
     0
176
     1
 90
       13
176
     1
 40
0.0
176
     1
 90
        0
176
     1
290
     0
176
     1
290
     1
176
     1
290
     1
176
     1
290
     0
176
     1
290
     0
176
     1
290
     0
176
     1
290
     0
176
     1
290
     0
176
     1
290
     0
176
     1
 90
       50
176
     1
 40
0.0
176
     1
 40
1.0
176
     1
 90
        0
176
     1
 62
    18
420
        0
176
     1
 90
       50
176
     1
 90
        3
176
     1
 62
     5
420
      255
176
     1
290
     0
176
     1
 90
       50
176
     1
 90
       50
176
     1
 90
       50
176
     1
290
     0
176
     1
 90
       50
176
     1
 62
   256
176
     0
 40
1.0
176
     0
 90
        2
176
     1
  1
strokes_ogs.tif
176
     1
290
     0
176
     1
 40
1.0
176
     1
 40
1.0
176
     1
  0
VISUALSTYLE
  5
2C
102
{ACAD_REACTORS
330
2A
102
}
330
2A
100
AcDbVisualStyle
  2
FlatWithEdges
 70
     1
177
     3
291
     1
 70
    58
 90
        2
176
     1
 90
        1
176
     1
 90
        1
176
     1
 90
        2
176
     1
 40
0.6
176
     1
 40
30.0
176
     1
 62
     7
420
 16777215
176
     1
 90
        1
176
     1
 90
        0
176
     1
 62
     7
176
     1
 62
   257
176
     1
 90
        1
176
     1
 90
        1
176
     1
 40
1.0
176
     1
 90
        0
176
     1
 62
   257
176
     1
 40
1.0
176
     1
 90
        1
176
     1
 90
        6
176
     1
 90
        2
176
     1
 62
     7
176
     1
 90
        5
176
     1
 90
        0
176
     1
 90
        0
176
     1
290
     0
176
     1
 90
       13
176
     1
 40
0.0
176
     1
 90
        0
176
     1
290
     0
176
     1
290
     1
176
     1
290
     1
176
     1
290
     0
176
     1
290
     0
176
     1
290
     0
176
     1
290
     0
176
     1
290
     0
176
     1
290
     0
176
     1
 90
       50
176
     1
 40
0.0
176
     1
 40
1.0
176
     1
 90
        0
176
     1
 62
    18
420
        0
176
     1
 90
       50
176
     1
 90
        3
176
     1
 62
     5
420
      255
176
     1
290
     0
176
     1
 90
       50
176
     1
 90
       50
176
     1
 90
       50
176
     1
290
     0
176
     1
 90
       50
176
     1
 62
   256
176
     0
 40
1.0
176
     0
 90
        2
176
     1
  1
strokes_ogs.tif
176
     1
290
     0
176
     1
 40
1.0
176
     1
 40
1.0
176
     1
  0
VISUALSTYLE
  5
2D
102
{ACAD_REACTORS
330
2A
102
}
330
2A
100
AcDbVisualStyle
  2
Gouraud
 70
     2
177
     3
291
     1
 70
    58
 90
        2
176
     1
 90
        2
176
     1
 90
        1
176
     1
 90
        2
176
     1
 40
0.6
176
     1
 40
30.0
176
     1
 62
     7
420
 16777215
176
     1
 90
        0
176
     1
 90
        0
176
     1
 62
     7
176
     1
 62
   257
176
     1
 90
        1
176
     1
 90
        1
176
     1
 40
1.0
176
     1
 90
        0
176
     1
 62
     7
176
     1
 40
1.0
176
     1
 90
        1
176
     1
 90
        6
176
     1
 90
        2
176
     1
 62
     7
176
     1
 90
        5
176
     1
 90
        0
176
     1
 90
        0
176
     1
290
     0
176
     1
 90
       13
176
     1
 40
0.0
176
     1
 90
        0
176
     1
290
     0
176
     1
290
     1
176
     1
290
     1
176
     1
290
     0
176
     1
290
     0
176
     1
290
     0
176
     1
290
     0
176
     1
290
     0
176
     1
290
     0
176
     1
 90
       50
176
     1
 40
0.0
176
     1
 40
1.0
176
     1
 90
        0
176
     1
 62
    18
420
        0
176
     1
 90
       50
176
     1
 90
        3
176
     1
 62
     5
420
      255
176
     1
290
     0
176
     1
 90
       50
176
     1
 90
       50
176
     1
 90
       50
176
     1
290
     0
176
     1
 90
       50
176
     1
 62
   256
176
     0
 40
1.0
176
     0
 90
        2
176
     1
  1
strokes_ogs.tif
176
     1
290
     0
176
     1
 40
1.0
176
     1
 40
1.0
176
     1
  0
VISUALSTYLE
  5
2E
102
{ACAD_REACTORS
330
2A
102
}
330
2A
100
AcDbVisualStyle
  2
GouraudWithEdges
 70
     3
177
     3
291
     1
 70
    58
 90
        2
176
     1
 90
        2
176
     1
 90
        1
176
     1
 90
        2
176
     1
 40
0.6
176
     1
 40
30.0
176
     1
 62
     7
420
 16777215
176
     1
 90
        1
176
     1
 90
        0
176
     1
 62
     7
176
     1
 62
   257
176
     1
 90
        1
176
     1
 90
        1
176
     1
 40
1.0
176
     1
 90
        0
176
     1
 62
   257
176
     1
 40
1.0
176
     1
 90
        1
176
     1
 90
        6
176
     1
 90
        2
176
     1
 62
     7
176
     1
 90
        5
176
     1
 90
        0
176
     1
 90
        0
176
     1
290
     0
176
     1
 90
       13
176
     1
 40
0.0
176
     1
 90
        0
176
     1
290
     0
176
     1
290
     1
176
     1
290
     1
176
     1
290
     0
176
     1
290
     0
176
     1
290
     0
176
     1
290
     0
176
     1
290
     0
176
     1
290
     0
176
     1
 90
       50
176
     1
 40
0.0
176
     1
 40
1.0
176
     1
 90
        0
176
     1
 62
    18
420
        0
176
     1
 90
       50
176
     1
 90
        3
176
     1
 62
     5
420
      255
176
     1
290
     0
176
     1
 90
       50
176
     1
 90
       50
176
     1
 90
       50
176
     1
290
     0
176
     1
 90
       50
176
     1
 62
   256
176
     0
 40
1.0
176
     0
 90
        2
176
     1
  1
strokes_ogs.tif
176
     1
290
     0
176
     1
 40
1.0
176
     1
 40
1.0
176
     1
  0
VISUALSTYLE
  5
31
102
{ACAD_REACTORS
330
2A
102
}
330
2A
100
AcDbVisualStyle
  2
Hidden
 70
     6
177
     3
291
     0
 70
    58
 90
        1
176
     1
 90
        2
176
     1
 90
        2
176
     1
 90
        0
176
     1
 40
0.6
176
     1
 40
30.0
176
     1
 62
     7
420
 16777215
176
     1
 90
        2
176
     1
 90
        2
176
     1
 62
     7
176
     1
 62
   257
176
     1
 90
        2
176
     1
 90
        1
176
     1
 40
40.0
176
     1
 90
        0
176
     1
 62
   257
176
     1
 40
1.0
176
     1
 90
        1
176
     1
 90
        6
176
     1
 90
        2
176
     1
 62
     7
176
     1
 90
        3
176
     1
 90
        0
176
     1
 90
        0
176
     1
290
     0
176
     1
 90
        1
176
     1
 40
0.0
176
     1
 90
        0
176
     1
290
     0
176
     1
290
     1
176
     1
290
     1
176
     1
290
     0
176
     1
290
     0
176
     1
290
     0
176
     1
290
     0
176
     1
290
     0
176
     1
290
     0
176
     1
 90
       50
176
     1
 40
0.0
176
     1
 40
1.0
176
     1
 90
        0
176
     1
 62
    18
420
        0
176
     1
 90
       50
176
     1
 90
        3
176
     1
 62
     5
420
      255
176
     1
290
     0
176
     1
 90
       50
176
     1
 90
       50
176
     1
 90
       50
176
     1
290
     0
176
     1
 90
       50
176
     1
 62
   256
176
     0
 40
1.0
176
     0
 90
        2
176
     1
  1
strokes_ogs.tif
176
     1
290
     0
176
     1
 40
1.0
176
     1
 40
1.0
176
     1
  0
VISUALSTYLE
  5
3B
102
{ACAD_REACTORS
330
2A
102
}
330
2A
100
AcDbVisualStyle
  2
JitterOff
 70
    20
177
     3
291
     1
 70
    58
 90
        2
176
     0
 90
        2
176
     0
 90
        0
176
     0
 90
        0
176
     0
 40
0.6
176
     0
 40
30.0
176
     0
 62
     7
420
 16777215
176
     0
 90
        1
176
     0
 90
        4
176
     0
 62
     7
176
     0
 62
   257
176
     0
 90
        1
176
     0
 90
        1
176
     0
 40
1.0
176
     0
 90
       10
176
     2
 62
     7
176
     0
 40
1.0
176
     0
 90
        1
176
     0
 90
        6
176
     0
 90
        2
176
     0
 62
     7
176
     0
 90
        5
176
     0
 90
        0
176
     0
 90
        0
176
     0
290
     0
176
     0
 90
        1
176
     0
 40
0.0
176
     0
 90
        0
176
     0
290
     0
176
     0
290
     1
176
     0
290
     1
176
     0
290
     0
176
     0
290
     0
176
     0
290
     0
176
     0
290
     0
176
     0
290
     0
176
     0
290
     0
176
     0
 90
       50
176
     0
 40
0.0
176
     0
 40
1.0
176
     0
 90
        0
176
     0
 62
    18
420
        0
176
     0
 90
       50
176
     0
 90
        3
176
     0
 62
     5
420
      255
176
     0
290
     0
176
     0
 90
       50
176
     0
 90
       50
176
     0
 90
       50
176
     0
290
     0
176
     0
 90
       50
176
     0
 62
   256
176
     0
 40
1.0
176
     0
 90
        2
176
     0
  1
strokes_ogs.tif
176
     0
290
     0
176
     0
 40
1.0
176
     0
 40
1.0
176
     0
  0
VISUALSTYLE
  5
38
102
{ACAD_REACTORS
330
2A
102
}
330
2A
100
AcDbVisualStyle
  2
Linepattern
 70
    14
177
     3
291
     1
 70
    58
 90
        2
176
     1
 90
        2
176
     1
 90
        0
176
     1
 90
        0
176
     1
 40
0.6
176
     1
 40
30.0
176
     1
 62
     7
420
 16777215
176
     1
 90
        1
176
     1
 90
        4
176
     1
 62
     7
176
     1
 62
   257
176
     1
 90
        7
176
     1
 90
        7
176
     1
 40
1.0
176
     1
 90
        8
176
     1
 62
     7
176
     1
 40
1.0
176
     1
 90
        1
176
     1
 90
        6
176
     1
 90
        2
176
     1
 62
     7
176
     1
 90
        5
176
     1
 90
        0
176
     1
 90
        0
176
     1
290
     0
176
     1
 90
        1
176
     1
 40
0.0
176
     1
 90
        0
176
     1
290
     0
176
     1
290
     1
176
     1
290
     1
176
     1
290
     0
176
     1
290
     0
176
     1
290
     0
176
     1
290
     0
176
     1
290
     0
176
     1
290
     0
176
     1
 90
       50
176
     1
 40
0.0
176
     1
 40
1.0
176
     1
 90
        0
176
     1
 62
    18
420
        0
176
     1
 90
       50
176
     1
 90
        3
176
     1
 62
     5
420
      255
176
     1
290
     0
176
     1
 90
       50
176
     1
 90
       50
176
     1
 90
       50
176
     1
290
     0
176
     1
 90
       50
176
     1
 62
   256
176
     0
 40
1.0
176
     0
 90
        2
176
     1
  1
strokes_ogs.tif
176
     1
290
     0
176
     1
 40
1.0
176
     1
 40
1.0
176
     1
  0
VISUALSTYLE
  5
3C
102
{ACAD_REACTORS
330
2A
102
}
330
2A
100
AcDbVisualStyle
  2
OverhangOff
 70
    21
177
     3
291
     1
 70
    58
 90
        2
176
     0
 90
        2
176
     0
 90
        0
176
     0
 90
        0
176
     0
 40
0.6
176
     0
 40
30.0
176
     0
 62
     7
420
 16777215
176
     0
 90
        1
176
     0
 90
        4
176
     0
 62
     7
176
     0
 62
   257
176
     0
 90
        1
176
     0
 90
        1
176
     0
 40
1.0
176
     0
 90
        9
176
     2
 62
     7
176
     0
 40
1.0
176
     0
 90
        1
176
     0
 90
        6
176
     0
 90
        2
176
     0
 62
     7
176
     0
 90
        5
176
     0
 90
        0
176
     0
 90
        0
176
     0
290
     0
176
     0
 90
        1
176
     0
 40
0.0
176
     0
 90
        0
176
     0
290
     0
176
     0
290
     1
176
     0
290
     1
176
     0
290
     0
176
     0
290
     0
176
     0
290
     0
176
     0
290
     0
176
     0
290
     0
176
     0
290
     0
176
     0
 90
       50
176
     0
 40
0.0
176
     0
 40
1.0
176
     0
 90
        0
176
     0
 62
    18
420
        0
176
     0
 90
       50
176
     0
 90
        3
176
     0
 62
     5
420
      255
176
     0
290
     0
176
     0
 90
       50
176
     0
 90
       50
176
     0
 90
       50
176
     0
290
     0
176
     0
 90
       50
176
     0
 62
   256
176
     0
 40
1.0
176
     0
 90
        2
176
     0
  1
strokes_ogs.tif
176
     0
290
     0
176
     0
 40
1.0
176
     0
 40
1.0
176
     0
  0
VISUALSTYLE
  5
33
102
{ACAD_REACTORS
330
2A
102
}
330
2A
100
AcDbVisualStyle
  2
Realistic
 70
     8
177
     3
291
     0
 70
    58
 90
        2
176
     1
 90
        3
176
     1
 90
        0
176
     1
 90
        2
176
     1
 40
0.6
176
     1
 40
30.0
176
     1
 62
     7
420
 16777215
176
     1
 90
        0
176
     1
 90
        0
176
     1
 62
     7
176
     1
 62
   257
176
     1
 90
        1
176
     1
 90
        1
176
     1
 40
1.0
176
     1
 90
        8
176
     1
 62
   257
176
     1
 40
1.0
176
     1
 90
        1
176
     1
 90
        6
176
     1
 90
        2
176
     1
 62
     7
176
     1
 90
        3
176
     1
 90
        0
176
     1
 90
        0
176
     1
290
     0
176
     1
 90
       13
176
     1
 40
0.0
176
     1
 90
        0
176
     1
290
     0
176
     1
290
     1
176
     1
290
     1
176
     1
290
     0
176
     1
290
     0
176
     1
290
     0
176
     1
290
     0
176
     1
290
     0
176
     1
290
     0
176
     1
 90
       50
176
     1
 40
0.0
176
     1
 40
1.0
176
     1
 90
        0
176
     1
 62
    18
420
        0
176
     1
 90
       50
176
     1
 90
        3
176
     1
 62
     5
420
      255
176
     1
290
     0
176
     1
 90
       50
176
     1
 90
       50
176
     1
 90
       50
176
     1
290
     0
176
     1
 90
       50
176
     1
 62
   256
176
     0
 40
1.0
176
     0
 90
        2
176
     1
  1
strokes_ogs.tif
176
     1
290
     0
176
     1
 40
1.0
176
     1
 40
1.0
176
     1
  0
VISUALSTYLE
  5
42
102
{ACAD_REACTORS
330
2A
102
}
330
2A
100
AcDbVisualStyle
  2
Shaded
 70
    27
177
     3
291
     0
 70
    58
 90
        2
176
     1
 90
        2
176
     1
 90
        1
176
     1
 90
        2
176
     1
 40
0.6
176
     1
 40
30.0
176
     1
 62
     7
420
 16777215
176
     1
 90
        0
176
     1
 90
        4
176
     1
 62
     7
176
     1
 62
   257
176
     1
 90
        1
176
     1
 90
        1
176
     1
 40
1.0
176
     1
 90
        8
176
     1
 62
   257
176
     1
 40
1.0
176
     1
 90
        1
176
     1
 90
        6
176
     1
 90
        2
176
     1
 62
     8
420
  7895160
176
     1
 90
        3
176
     1
 90
        0
176
     1
 90
        0
176
     1
290
     0
176
     1
 90
        5
176
     1
 40
0.0
176
     1
 90
        0
176
     1
290
     0
176
     1
290
     1
176
     1
290
     1
176
     1
290
     0
176
     1
290
     0
176
     1
290
     0
176
     1
290
     0
176
     1
290
     0
176
     1
290
     0
176
     1
 90
       50
176
     1
 40
0.0
176
     1
 40
1.0
176
     1
 90
        0
176
     1
 62
    18
420
        0
176
     1
 90
       50
176
     1
 90
        3
176
     1
 62
     5
420
      255
176
     1
290
     0
176
     1
 90
       50
176
     1
 90
       50
176
     1
 90
       50
176
     1
290
     0
176
     1
 90
       50
176
     1
 62
   256
176
     0
 40
1.0
176
     0
 90
        2
176
     1
  1
strokes_ogs.tif
176
     1
290
     0
176
     1
 40
1.0
176
     1
 40
1.0
176
     1
  0
VISUALSTYLE
  5
41
102
{ACAD_REACTORS
330
2A
102
}
330
2A
100
AcDbVisualStyle
  2
Shaded with edges
 70
    26
177
     3
291
     0
 70
    58
 90
        2
176
     1
 90
        2
176
     1
 90
        1
176
     1
 90
        2
176
     1
 40
0.6
176
     1
 40
30.0
176
     1
 62
     7
420
 16777215
176
     1
 90
        1
176
     1
 90
       10
176
     1
 62
     7
176
     1
 62
   257
176
     1
 90
        2
176
     1
 90
        1
176
     1
 40
1.0
176
     1
 90
        8
176
     1
 62
   257
176
     1
 40
1.0
176
     1
 90
        1
176
     1
 90
        6
176
     1
 90
        2
176
     1
 62
     7
176
     1
 90
        3
176
     1
 90
        0
176
     1
 90
        0
176
     1
290
     0
176
     1
 90
        5
176
     1
 40
0.0
176
     1
 90
        0
176
     1
290
     0
176
     1
290
     1
176
     1
290
     1
176
     1
290
     0
176
     1
290
     0
176
     1
290
     0
176
     1
290
     0
176
     1
290
     0
176
     1
290
     0
176
     1
 90
       50
176
     1
 40
0.0
176
     1
 40
1.0
176
     1
 90
        0
176
     1
 62
    18
420
        0
176
     1
 90
       50
176
     1
 90
        3
176
     1
 62
     5
420
      255
176
     1
290
     0
176
     1
 90
       50
176
     1
 90
       50
176
     1
 90
       50
176
     1
290
     0
176
     1
 90
       50
176
     1
 62
   256
176
     0
 40
1.0
176
     0
 90
        2
176
     1
  1
strokes_ogs.tif
176
     1
290
     0
176
     1
 40
1.0
176
     1
 40
1.0
176
     1
  0
VISUALSTYLE
  5
3E
102
{ACAD_REACTORS
330
2A
102
}
330
2A
100
AcDbVisualStyle
  2
Shades of Gray
 70
    23
177
     3
291
     0
 70
    58
 90
        2
176
     1
 90
        2
176
     1
 90
        3
176
     1
 90
        0
176
     1
 40
0.6
176
     1
 40
30.0
176
     1
 62
     7
420
 16777215
176
     1
 90
        2
176
     1
 90
        2
176
     1
 62
     7
176
     1
 62
     7
176
     1
 90
        1
176
     1
 90
        1
176
     1
 40
40.0
176
     1
 90
        8
176
     1
 62
     7
176
     1
 40
1.0
176
     1
 90
        1
176
     1
 90
        6
176
     1
 90
        2
176
     1
 62
     7
176
     1
 90
        3
176
     1
 90
        0
176
     1
 90
        0
176
     1
290
     0
176
     1
 90
        1
176
     1
 40
0.0
176
     1
 90
        0
176
     1
290
     0
176
     1
290
     1
176
     1
290
     1
176
     1
290
     0
176
     1
290
     0
176
     1
290
     0
176
     1
290
     0
176
     1
290
     0
176
     1
290
     0
176
     1
 90
       50
176
     1
 40
0.0
176
     1
 40
1.0
176
     1
 90
        0
176
     1
 62
    18
420
        0
176
     1
 90
       50
176
     1
 90
        3
176
     1
 62
     5
420
      255
176
     1
290
     0
176
     1
 90
       50
176
     1
 90
       50
176
     1
 90
       50
176
     1
290
     0
176
     1
 90
       50
176
     1
 62
   256
176
     0
 40
1.0
176
     0
 90
        2
176
     1
  1
strokes_ogs.tif
176
     1
290
     0
176
     1
 40
1.0
176
     1
 40
1.0
176
     1
  0
VISUALSTYLE
  5
3F
102
{ACAD_REACTORS
330
2A
102
}
330
2A
100
AcDbVisualStyle
  2
Sketchy
 70
    24
177
     3
291
     0
 70
    58
 90
        1
176
     1
 90
        2
176
     1
 90
        2
176
     1
 90
        0
176
     1
 40
0.6
176
     1
 40
30.0
176
     1
 62
     7
420
 16777215
176
     1
 90
        2
176
     1
 90
        2
176
     1
 62
     7
176
     1
 62
     7
176
     1
 90
        1
176
     1
 90
        1
176
     1
 40
40.0
176
     1
 90
       11
176
     1
 62
     7
176
     1
 40
1.0
176
     1
 90
        1
176
     1
 90
        6
176
     1
 90
        2
176
     1
 62
     7
176
     1
 90
        6
176
     1
 90
        0
176
     1
 90
        0
176
     1
290
     0
176
     1
 90
        1
176
     1
 40
0.0
176
     1
 90
        0
176
     1
290
     0
176
     1
290
     1
176
     1
290
     1
176
     1
290
     0
176
     1
290
     0
176
     1
290
     0
176
     1
290
     0
176
     1
290
     0
176
     1
290
     0
176
     1
 90
       50
176
     1
 40
0.0
176
     1
 40
1.0
176
     1
 90
        0
176
     1
 62
    18
420
        0
176
     1
 90
       50
176
     1
 90
        3
176
     1
 62
     5
420
      255
176
     1
290
     0
176
     1
 90
       50
176
     1
 90
       50
176
     1
 90
       50
176
     1
290
     0
176
     1
 90
       50
176
     1
 62
   256
176
     0
 40
1.0
176
     0
 90
        2
176
     1
  1
strokes_ogs.tif
176
     1
290
     0
176
     1
 40
1.0
176
     1
 40
1.0
176
     1
  0
VISUALSTYLE
  5
37
102
{ACAD_REACTORS
330
2A
102
}
330
2A
100
AcDbVisualStyle
  2
Thicken
 70
    13
177
     3
291
     1
 70
    58
 90
        2
176
     1
 90
        2
176
     1
 90
        0
176
     1
 90
        0
176
     1
 40
0.6
176
     1
 40
30.0
176
     1
 62
     7
420
 16777215
176
     1
 90
        1
176
     1
 90
        4
176
     1
 62
     7
176
     1
 62
   257
176
     1
 90
        1
176
     1
 90
        1
176
     1
 40
1.0
176
     1
 90
       12
176
     1
 62
     7
176
     1
 40
1.0
176
     1
 90
        1
176
     1
 90
        6
176
     1
 90
        2
176
     1
 62
     7
176
     1
 90
        5
176
     1
 90
        0
176
     1
 90
        0
176
     1
290
     0
176
     1
 90
        1
176
     1
 40
0.0
176
     1
 90
        0
176
     1
290
     0
176
     1
290
     1
176
     1
290
     1
176
     1
290
     0
176
     1
290
     0
176
     1
290
     0
176
     1
290
     0
176
     1
290
     0
176
     1
290
     0
176
     1
 90
       50
176
     1
 40
0.0
176
     1
 40
1.0
176
     1
 90
        0
176
     1
 62
    18
420
        0
176
     1
 90
       50
176
     1
 90
        3
176
     1
 62
     5
420
      255
176
     1
290
     0
176
     1
 90
       50
176
     1
 90
       50
176
     1
 90
       50
176
     1
290
     0
176
     1
 90
       50
176
     1
 62
   256
176
     0
 40
1.0
176
     0
 90
        2
176
     1
  1
strokes_ogs.tif
176
     1
290
     0
176
     1
 40
1.0
176
     1
 40
1.0
176
     1
  0
VISUALSTYLE
  5
30
102
{ACAD_REACTORS
330
2A
102
}
330
2A
100
AcDbVisualStyle
  2
Wireframe
 70
     5
177
     3
291
     0
 70
    58
 90
        0
176
     1
 90
        2
176
     1
 90
        0
176
     1
 90
        0
176
     1
 40
0.6
176
     1
 40
30.0
176
     1
 62
     7
420
 16777215
176
     1
 90
        1
176
     1
 90
        4
176
     1
 62
     7
176
     1
 62
   257
176
     1
 90
        1
176
     1
 90
        1
176
     1
 40
1.0
176
     1
 90
        0
176
     1
 62
   257
176
     1
 40
1.0
176
     1
 90
        1
176
     1
 90
        6
176
     1
 90
        2
176
     1
 62
     7
176
     1
 90
        3
176
     1
 90
        0
176
     1
 90
        0
176
     1
290
     0
176
     1
 90
        1
176
     1
 40
0.0
176
     1
 90
        0
176
     1
290
     0
176
     1
290
     1
176
     1
290
     1
176
     1
290
     0
176
     1
290
     0
176
     1
290
     0
176
     1
290
     0
176
     1
290
     0
176
     1
290
     0
176
     1
 90
       50
176
     1
 40
0.0
176
     1
 40
1.0
176
     1
 90
        0
176
     1
 62
    18
420
        0
176
     1
 90
       50
176
     1
 90
        3
176
     1
 62
     5
420
      255
176
     1
290
     0
176
     1
 90
       50
176
     1
 90
       50
176
     1
 90
       50
176
     1
290
     0
176
     1
 90
       50
176
     1
 62
   256
176
     0
 40
1.0
176
     0
 90
        2
176
     1
  1
strokes_ogs.tif
176
     1
290
     0
176
     1
 40
1.0
176
     1
 40
1.0
176
     1
  0
VISUALSTYLE
  5
40
102
{ACAD_REACTORS
330
2A
102
}
330
2A
100
AcDbVisualStyle
  2
X-Ray
 70
    25
177
     3
291
     0
 70
    58
 90
        2
176
     1
 90
        2
176
     1
 90
        1
176
     1
 90
        1
176
     1
 40
0.5
176
     1
 40
30.0
176
     1
 62
     7
420
 16777215
176
     1
 90
        1
176
     1
 90
        0
176
     1
 62
     7
176
     1
 62
   257
176
     1
 90
        1
176
     1
 90
        1
176
     1
 40
1.0
176
     1
 90
        8
176
     1
 62
     7
176
     1
 40
1.0
176
     1
 90
        1
176
     1
 90
        6
176
     1
 90
        2
176
     1
 62
     7
176
     1
 90
        3
176
     1
 90
        0
176
     1
 90
        0
176
     1
290
     0
176
     1
 90
       13
176
     1
 40
0.0
176
     1
 90
        0
176
     1
290
     0
176
     1
290
     1
176
     1
290
     1
176
     1
290
     0
176
     1
290
     0
176
     1
290
     0
176
     1
290
     0
176
     1
290
     0
176
     1
290
     0
176
     1
 90
       50
176
     1
 40
0.0
176
     1
 40
1.0
176
     1
 90
        0
176
     1
 62
    18
420
        0
176
     1
 90
       50
176
     1
 90
        3
176
     1
 62
     5
420
      255
176
     1
290
     0
176
     1
 90
       50
176
     1
 90
       50
176
     1
 90
       50
176
     1
290
     0
176
     1
 90
       50
176
     1
 62
   256
176
     0
 40
1.0
176
     0
 90
        2
176
     1
  1
strokes_ogs.tif
176
     1
290
     0
176
     1
 40
1.0
176
     1
 40
1.0
176
     1
  0
DICTIONARYVAR
  5
171
102
{ACAD_REACTORS
330
170
102
}
330
170
100
DictionaryVariables
280
     0
  1
1:1
  0
DICTIONARYVAR
  5
179
102
{ACAD_REACTORS
330
170
102
}
330
170
100
DictionaryVariables
280
     0
  1
3.500000
  0
DICTIONARYVAR
  5
17A
102
{ACAD_REACTORS
330
170
102
}
330
170
100
DictionaryVariables
280
     0
  1
acadiso.lin
  0
DICTIONARYVAR
  5
176
102
{ACAD_REACTORS
330
170
102
}
330
170
100
DictionaryVariables
280
     0
  1
Standard
  0
DICTIONARYVAR
  5
175
102
{ACAD_REACTORS
330
170
102
}
330
170
100
DictionaryVariables
280
     0
  1
Standard
  0
DICTIONARY
  5
172
330
5A
100
AcDbDictionary
280
     1
281
     1
  3
ACAD_ROUNDTRIP_2008_TABLESTYLE_CELLSTYLEMAP
360
173
  0
CELLSTYLEMAP
  5
173
102
{ACAD_REACTORS
330
172
102
}
330
172
100
AcDbCellStyleMap
 90
        3
300
CELLSTYLE
  1
TABLEFORMAT_BEGIN
 90
        5
170
     1
 91
        0
 92
    32768
 62
   257
 93
        1
300
CONTENTFORMAT
  1
CONTENTFORMAT_BEGIN
 90
        0
 91
        0
 92
        4
 93
        0
300

 40
0.0
140
1.0
 94
        5
 62
     0
340
11
144
6.0
309
CONTENTFORMAT_END
171
     1
301
MARGIN
  1
CELLMARGIN_BEGIN
 40
1.5
 40
1.5
 40
1.5
 40
1.5
 40
1.5
 40
1.5
309
CELLMARGIN_END
 94
        6
 95
        1
302
GRIDFORMAT
  1
GRIDFORMAT_BEGIN
 90
        0
 91
        1
 62
     0
 92
       -2
340
14
 93
        0
 40
0.045
309
GRIDFORMAT_END
 95
        2
302
GRIDFORMAT
  1
GRIDFORMAT_BEGIN
 90
        0
 91
        1
 62
     0
 92
       -2
340
14
 93
        0
 40
0.045
309
GRIDFORMAT_END
 95
        4
302
GRIDFORMAT
  1
GRIDFORMAT_BEGIN
 90
        0
 91
        1
 62
     0
 92
       -2
340
14
 93
        0
 40
0.045
309
GRIDFORMAT_END
 95
        8
302
GRIDFORMAT
  1
GRIDFORMAT_BEGIN
 90
        0
 91
        1
 62
     0
 92
       -2
340
14
 93
        0
 40
0.045
309
GRIDFORMAT_END
 95
       16
302
GRIDFORMAT
  1
GRIDFORMAT_BEGIN
 90
        0
 91
        1
 62
     0
 92
       -2
340
14
 93
        0
 40
0.045
309
GRIDFORMAT_END
 95
       32
302
GRIDFORMAT
  1
GRIDFORMAT_BEGIN
 90
        0
 91
        1
 62
     0
 92
       -2
340
14
 93
        0
 40
0.045
309
GRIDFORMAT_END
309
TABLEFORMAT_END
  1
CELLSTYLE_BEGIN
 90
        1
 91
        1
300
_TITLE
309
CELLSTYLE_END
300
CELLSTYLE
  1
TABLEFORMAT_BEGIN
 90
        5
170
     1
 91
        0
 92
        0
 62
   257
 93
        1
300
CONTENTFORMAT
  1
CONTENTFORMAT_BEGIN
 90
        0
 91
        0
 92
        4
 93
        0
300

 40
0.0
140
1.0
 94
        5
 62
     0
340
11
144
4.5
309
CONTENTFORMAT_END
171
     1
301
MARGIN
  1
CELLMARGIN_BEGIN
 40
1.5
 40
1.5
 40
1.5
 40
1.5
 40
1.5
 40
1.5
309
CELLMARGIN_END
 94
        6
 95
        1
302
GRIDFORMAT
  1
GRIDFORMAT_BEGIN
 90
        0
 91
        1
 62
     0
 92
       -2
340
14
 93
        0
 40
0.045
309
GRIDFORMAT_END
 95
        2
302
GRIDFORMAT
  1
GRIDFORMAT_BEGIN
 90
        0
 91
        1
 62
     0
 92
       -2
340
14
 93
        0
 40
0.045
309
GRIDFORMAT_END
 95
        4
302
GRIDFORMAT
  1
GRIDFORMAT_BEGIN
 90
        0
 91
        1
 62
     0
 92
       -2
340
14
 93
        0
 40
0.045
309
GRIDFORMAT_END
 95
        8
302
GRIDFORMAT
  1
GRIDFORMAT_BEGIN
 90
        0
 91
        1
 62
     0
 92
       -2
340
14
 93
        0
 40
0.045
309
GRIDFORMAT_END
 95
       16
302
GRIDFORMAT
  1
GRIDFORMAT_BEGIN
 90
        0
 91
        1
 62
     0
 92
       -2
340
14
 93
        0
 40
0.045
309
GRIDFORMAT_END
 95
       32
302
GRIDFORMAT
  1
GRIDFORMAT_BEGIN
 90
        0
 91
        1
 62
     0
 92
       -2
340
14
 93
        0
 40
0.045
309
GRIDFORMAT_END
309
TABLEFORMAT_END
  1
CELLSTYLE_BEGIN
 90
        2
 91
        1
300
_HEADER
309
CELLSTYLE_END
300
CELLSTYLE
  1
TABLEFORMAT_BEGIN
 90
        5
170
     1
 91
        0
 92
        0
 62
   257
 93
        1
300
CONTENTFORMAT
  1
CONTENTFORMAT_BEGIN
 90
        0
 91
        0
 92
        4
 93
        0
300

 40
0.0
140
1.0
 94
        2
 62
     0
340
11
144
4.5
309
CONTENTFORMAT_END
171
     1
301
MARGIN
  1
CELLMARGIN_BEGIN
 40
1.5
 40
1.5
 40
1.5
 40
1.5
 40
1.5
 40
1.5
309
CELLMARGIN_END
 94
        6
 95
        1
302
GRIDFORMAT
  1
GRIDFORMAT_BEGIN
 90
        0
 91
        1
 62
     0
 92
       -2
340
14
 93
        0
 40
0.045
309
GRIDFORMAT_END
 95
        2
302
GRIDFORMAT
  1
GRIDFORMAT_BEGIN
 90
        0
 91
        1
 62
     0
 92
       -2
340
14
 93
        0
 40
0.045
309
GRIDFORMAT_END
 95
        4
302
GRIDFORMAT
  1
GRIDFORMAT_BEGIN
 90
        0
 91
        1
 62
     0
 92
       -2
340
14
 93
        0
 40
0.045
309
GRIDFORMAT_END
 95
        8
302
GRIDFORMAT
  1
GRIDFORMAT_BEGIN
 90
        0
 91
        1
 62
     0
 92
       -2
340
14
 93
        0
 40
0.045
309
GRIDFORMAT_END
 95
       16
302
GRIDFORMAT
  1
GRIDFORMAT_BEGIN
 90
        0
 91
        1
 62
     0
 92
       -2
340
14
 93
        0
 40
0.045
309
GRIDFORMAT_END
 95
       32
302
GRIDFORMAT
  1
GRIDFORMAT_BEGIN
 90
        0
 91
        1
 62
     0
 92
       -2
340
14
 93
        0
 40
0.045
309
GRIDFORMAT_END
309
TABLEFORMAT_END
  1
CELLSTYLE_BEGIN
 90
        3
 91
        2
300
_DATA
309
CELLSTYLE_END
  0
ENDSEC
  0
EOF
