  0
SECTION
  2
HEADER
  9
$ACADVER
  1
AC1027
  9
$ACADMAINTVER
 70
   105
  9
$DWGCODEPAGE
  3
ANSI_1252
  9
$LASTSAVEDBY
  1
Nick
  9
$REQUIREDVERSIONS
160
                 0
  9
$INSBASE
 10
0.0
 20
0.0
 30
0.0
  9
$EXTMIN
 10
0.0
 20
0.0
 30
0.0
  9
$EXTMAX
 10
420.0
 20
297.0
 30
0.0
  9
$LIMMIN
 10
0.0
 20
0.0
  9
$LIMMAX
 10
420.0
 20
297.0
  9
$ORTHOMODE
 70
     0
  9
$REGENMODE
 70
     1
  9
$FILLMODE
 70
     1
  9
$QTEXTMODE
 70
     0
  9
$MIRRTEXT
 70
     1
  9
$LTSCALE
 40
1.0
  9
$ATTMODE
 70
     1
  9
$TEXTSIZE
 40
4.2333333333
  9
$TRACEWID
 40
1.0
  9
$TEXTSTYLE
  7
Standard
  9
$CLAYER
  8
0
  9
$CELTYPE
  6
ByLayer
  9
$CECOLOR
 62
   256
  9
$CELTSCALE
 40
1.0
  9
$DISPSILH
 70
     0
  9
$DIMSCALE
 40
1.0
  9
$DIMASZ
 40
3.302
  9
$DIMEXO
 40
1.0
  9
$DIMDLI
 40
3.75
  9
$DIMRND
 40
0.0
  9
$DIMDLE
 40
0.0
  9
$DIMEXE
 40
1.0
  9
$DIMTP
 40
0.0
  9
$DIMTM
 40
0.0
  9
$DIMTXT
 40
4.2333333333
  9
$DIMCEN
 40
2.5
  9
$DIMTSZ
 40
0.0
  9
$DIMTOL
 70
     0
  9
$DIMLIM
 70
     0
  9
$DIMTIH
 70
     1
  9
$DIMTOH
 70
     1
  9
$DIMSE1
 70
     0
  9
$DIMSE2
 70
     0
  9
$DIMTAD
 70
     1
  9
$DIMZIN
 70
     1
  9
$DIMBLK
  1

  9
$DIMASO
 70
     1
  9
$DIMSHO
 70
     1
  9
$DIMPOST
  1

  9
$DIMAPOST
  1

  9
$DIMALT
 70
     0
  9
$DIMALTD
 70
     3
  9
$DIMALTF
 40
0.0393700787
  9
$DIMLFAC
 40
1.0
  9
$DIMTOFL
 70
     1
  9
$DIMTVP
 40
0.0
  9
$DIMTIX
 70
     0
  9
$DIMSOXD
 70
     0
  9
$DIMSAH
 70
     0
  9
$DIMBLK1
  1

  9
$DIMBLK2
  1

  9
$DIMSTYLE
  2
ISO-25
  9
$DIMCLRD
 70
     0
  9
$DIMCLRE
 70
     0
  9
$DIMCLRT
 70
     0
  9
$DIMTFAC
 40
1.0
  9
$DIMGAP
 40
1.524
  9
$DIMJUST
 70
     0
  9
$DIMSD1
 70
     0
  9
$DIMSD2
 70
     0
  9
$DIMTOLJ
 70
     0
  9
$DIMTZIN
 70
     1
  9
$DIMALTZ
 70
     0
  9
$DIMALTTZ
 70
     0
  9
$DIMUPT
 70
     0
  9
$DIMDEC
 70
     0
  9
$DIMTDEC
 70
     0
  9
$DIMALTU
 70
     2
  9
$DIMALTTD
 70
     3
  9
$DIMTXSTY
  7
Standard
  9
$DIMAUNIT
 70
     0
  9
$DIMADEC
 70
     2
  9
$DIMALTRND
 40
0.0
  9
$DIMAZIN
 70
     0
  9
$DIMDSEP
 70
    44
  9
$DIMATFIT
 70
     3
  9
$DIMFRAC
 70
     0
  9
$DIMLDRBLK
  1

  9
$DIMLUNIT
 70
     2
  9
$DIMLWD
 70
    -2
  9
$DIMLWE
 70
    -2
  9
$DIMTMOVE
 70
     0
  9
$DIMFXL
 40
1.0
  9
$DIMFXLON
 70
     0
  9
$DIMJOGANG
 40
0.7853981634
  9
$DIMTFILL
 70
     0
  9
$DIMTFILLCLR
 70
     0
  9
$DIMARCSYM
 70
     0
  9
$DIMLTYPE
  6

  9
$DIMLTEX1
  6

  9
$DIMLTEX2
  6

  9
$DIMTXTDIRECTION
 70
     0
  9
$LUNITS
 70
     2
  9
$LUPREC
 70
     0
  9
$SKETCHINC
 40
1.0
  9
$FILLETRAD
 40
0.0
  9
$AUNITS
 70
     0
  9
$AUPREC
 70
     2
  9
$MENU
  1
.
  9
$ELEVATION
 40
0.0
  9
$PELEVATION
 40
0.0
  9
$THICKNESS
 40
0.0
  9
$LIMCHECK
 70
     0
  9
$CHAMFERA
 40
0.0
  9
$CHAMFERB
 40
0.0
  9
$CHAMFERC
 40
0.0
  9
$CHAMFERD
 40
0.0
  9
$SKPOLY
 70
     0
  9
$TDCREATE
 40
2460934.445082639
  9
$TDUCREATE
 40
2460934.028415973
  9
$TDUPDATE
 40
2460934.445082975
  9
$TDUUPDATE
 40
2460934.028416308
  9
$TDINDWG
 40
0.0000000116
  9
$TDUSRTIMER
 40
0.0000000116
  9
$USRTIMER
 70
     1
  9
$ANGBASE
 50
0.0
  9
$ANGDIR
 70
     0
  9
$PDMODE
 70
     0
  9
$PDSIZE
 40
-1.0
  9
$PLINEWID
 40
0.0
  9
$SPLFRAME
 70
     0
  9
$SPLINETYPE
 70
     6
  9
$SPLINESEGS
 70
     8
  9
$HANDSEED
  5
1A6
  9
$SURFTAB1
 70
     6
  9
$SURFTAB2
 70
     6
  9
$SURFTYPE
 70
     6
  9
$SURFU
 70
     6
  9
$SURFV
 70
     6
  9
$UCSBASE
  2

  9
$UCSNAME
  2

  9
$UCSORG
 10
0.0
 20
0.0
 30
0.0
  9
$UCSXDIR
 10
1.0
 20
0.0
 30
0.0
  9
$UCSYDIR
 10
0.0
 20
1.0
 30
0.0
  9
$UCSORTHOREF
  2

  9
$UCSORTHOVIEW
 70
     0
  9
$UCSORGTOP
 10
0.0
 20
0.0
 30
0.0
  9
$UCSORGBOTTOM
 10
0.0
 20
0.0
 30
0.0
  9
$UCSORGLEFT
 10
0.0
 20
0.0
 30
0.0
  9
$UCSORGRIGHT
 10
0.0
 20
0.0
 30
0.0
  9
$UCSORGFRONT
 10
0.0
 20
0.0
 30
0.0
  9
$UCSORGBACK
 10
0.0
 20
0.0
 30
0.0
  9
$PUCSBASE
  2

  9
$PUCSNAME
  2

  9
$PUCSORG
 10
0.0
 20
0.0
 30
0.0
  9
$PUCSXDIR
 10
1.0
 20
0.0
 30
0.0
  9
$PUCSYDIR
 10
0.0
 20
1.0
 30
0.0
  9
$PUCSORTHOREF
  2

  9
$PUCSORTHOVIEW
 70
     0
  9
$PUCSORGTOP
 10
0.0
 20
0.0
 30
0.0
  9
$PUCSORGBOTTOM
 10
0.0
 20
0.0
 30
0.0
  9
$PUCSORGLEFT
 10
0.0
 20
0.0
 30
0.0
  9
$PUCSORGRIGHT
 10
0.0
 20
0.0
 30
0.0
  9
$PUCSORGFRONT
 10
0.0
 20
0.0
 30
0.0
  9
$PUCSORGBACK
 10
0.0
 20
0.0
 30
0.0
  9
$USERI1
 70
     0
  9
$USERI2
 70
     0
  9
$USERI3
 70
     0
  9
$USERI4
 70
     0
  9
$USERI5
 70
     0
  9
$USERR1
 40
0.0
  9
$USERR2
 40
0.0
  9
$USERR3
 40
0.0
  9
$USERR4
 40
0.0
  9
$USERR5
 40
0.0
  9
$WORLDVIEW
 70
     1
  9
$SHADEDGE
 70
     3
  9
$SHADEDIF
 70
    70
  9
$TILEMODE
 70
     1
  9
$MAXACTVP
 70
    64
  9
$PINSBASE
 10
0.0
 20
0.0
 30
0.0
  9
$PLIMCHECK
 70
     0
  9
$PEXTMIN
 10
1.0000000000E+20
 20
1.0000000000E+20
 30
1.0000000000E+20
  9
$PEXTMAX
 10
-1.0000000000E+20
 20
-1.0000000000E+20
 30
-1.0000000000E+20
  9
$PLIMMIN
 10
0.0
 20
0.0
  9
$PLIMMAX
 10
420.0
 20
297.0
  9
$UNITMODE
 70
     0
  9
$VISRETAIN
 70
     1
  9
$PLINEGEN
 70
     0
  9
$PSLTSCALE
 70
     1
  9
$TREEDEPTH
 70
  3020
  9
$CMLSTYLE
  2
Standard
  9
$CMLJUST
 70
     0
  9
$CMLSCALE
 40
20.0
  9
$PROXYGRAPHICS
 70
     1
  9
$MEASUREMENT
 70
     1
  9
$CELWEIGHT
370
    -1
  9
$ENDCAPS
280
     0
  9
$JOINSTYLE
280
     0
  9
$LWDISPLAY
290
     1
  9
$INSUNITS
 70
     4
  9
$HYPERLINKBASE
  1

  9
$STYLESHEET
  1

  9
$XEDIT
290
     1
  9
$CEPSNTYPE
380
     0
  9
$PSTYLEMODE
290
     1
  9
$FINGERPRINTGUID
  2
{1c7198a8-05d8-43eb-aeae-bea21c8b3114}
  9
$VERSIONGUID
  2
{FAEB1C32-E019-11D5-929B-00C0DF256EC4}
  9
$EXTNAMES
290
     1
  9
$PSVPSCALE
 40
0.0
  9
$OLESTARTUP
290
     0
  9
$SORTENTS
280
   127
  9
$INDEXCTL
280
     0
  9
$HIDETEXT
280
     1
  9
$XCLIPFRAME
280
     2
  9
$HALOGAP
280
     0
  9
$OBSCOLOR
 70
   257
  9
$OBSLTYPE
280
     0
  9
$INTERSECTIONDISPLAY
280
     0
  9
$INTERSECTIONCOLOR
 70
   257
  9
$DIMASSOC
280
     2
  9
$PROJECTNAME
  1

  9
$CAMERADISPLAY
290
     0
  9
$LENSLENGTH
 40
50.0
  9
$CAMERAHEIGHT
 40
0.0
  9
$STEPSPERSEC
 40
2.0
  9
$STEPSIZE
 40
6.0
  9
$3DDWFPREC
 40
2.0
  9
$PSOLWIDTH
 40
5.0
  9
$PSOLHEIGHT
 40
80.0
  9
$LOFTANG1
 40
1.5707963268
  9
$LOFTANG2
 40
1.5707963268
  9
$LOFTMAG1
 40
0.0
  9
$LOFTMAG2
 40
0.0
  9
$LOFTPARAM
 70
     7
  9
$LOFTNORMALS
280
     1
  9
$LATITUDE
 40
37.795
  9
$LONGITUDE
 40
-122.394
  9
$NORTHDIRECTION
 40
0.0
  9
$TIMEZONE
 70
 -8000
  9
$LIGHTGLYPHDISPLAY
280
     1
  9
$TILEMODELIGHTSYNCH
280
     1
  9
$CMATERIAL
347
44
  9
$SOLIDHIST
280
     0
  9
$SHOWHIST
280
     1
  9
$DWFFRAME
280
     2
  9
$DGNFRAME
280
     2
  9
$REALWORLDSCALE
290
     1
  9
$INTERFERECOLOR
 62
   256
  9
$CSHADOW
280
     0
  9
$SHADOWPLANELOCATION
 40
0.0
  0
ENDSEC
  0
SECTION
  2
CLASSES
  0
CLASS
  1
ACDBDICTIONARYWDFLT
  2
AcDbDictionaryWithDefault
  3
ObjectDBX Classes
 90
        0
 91
        3
280
     0
281
     0
  0
CLASS
  1
VISUALSTYLE
  2
AcDbVisualStyle
  3
ObjectDBX Classes
 90
     4095
 91
        3
280
     0
281
     0
  0
CLASS
  1
MATERIAL
  2
AcDbMaterial
  3
ObjectDBX Classes
 90
     1153
 91
        3
280
     0
281
     0
  0
CLASS
  1
SCALE
  2
AcDbScale
  3
ObjectDBX Classes
 90
     1153
 91
        3
280
     0
281
     0
  0
CLASS
  1
TABLESTYLE
  2
AcDbTableStyle
  3
ObjectDBX Classes
 90
     4095
 91
        3
280
     0
281
     0
  0
CLASS
  1
MLEADERSTYLE
  2
AcDbMLeaderStyle
  3
ACDB_MLEADERSTYLE_CLASS
 90
     4095
 91
        3
280
     0
281
     0
  0
CLASS
  1
SUN
  2
AcDbSun
  3
SCENEOE
 90
     1153
 91
        3
280
     0
281
     0
  0
CLASS
  1
DICTIONARYVAR
  2
AcDbDictionaryVar
  3
ObjectDBX Classes
 90
        0
 91
        3
280
     0
281
     0
  0
CLASS
  1
CELLSTYLEMAP
  2
AcDbCellStyleMap
  3
ObjectDBX Classes
 90
     1152
 91
        3
280
     0
281
     0
  0
ENDSEC
  0
SECTION
  2
TABLES
  0
TABLE
  2
VPORT
  5
8
330
0
100
AcDbSymbolTable
 70
     1
  0
VPORT
  5
29
330
8
100
AcDbSymbolTableRecord
100
AcDbViewportTableRecord
  2
*Active
 70
     0
 10
0.0
 20
0.0
 11
1.0
 21
1.0
 12
210.0
 22
148.5
 13
0.0
 23
0.0
 14
10.0
 24
10.0
 15
10.0
 25
10.0
 16
0.0
 26
0.0
 36
1.0
 17
0.0
 27
0.0
 37
0.0
 40
297.0
 41
1.4141414141
 42
50.0
 43
0.0
 44
0.0
 50
0.0
 51
0.0
 71
     0
 72
  2000
 73
     1
 74
     3
 75
     0
 76
     0
 77
     0
 78
     0
281
     0
 65
     1
110
0.0
120
0.0
130
0.0
111
1.0
121
0.0
131
0.0
112
0.0
122
1.0
132
0.0
 79
     0
146
0.0
348
2F
 60
     3
 61
     5
292
     1
282
     1
141
0.0
142
0.0
 63
   250
361
5D
  0
ENDTAB
  0
TABLE
  2
LTYPE
  5
5
330
0
100
AcDbSymbolTable
 70
     6
  0
LTYPE
  5
14
330
5
100
AcDbSymbolTableRecord
100
AcDbLinetypeTableRecord
  2
ByBlock
 70
     0
  3

 72
    65
 73
     0
 40
0.0
  0
LTYPE
  5
15
330
5
100
AcDbSymbolTableRecord
100
AcDbLinetypeTableRecord
  2
ByLayer
 70
     0
  3

 72
    65
 73
     0
 40
0.0
  0
LTYPE
  5
16
330
5
100
AcDbSymbolTableRecord
100
AcDbLinetypeTableRecord
  2
Continuous
 70
     0
  3
Solid line
 72
    65
 73
     0
 40
0.0
  0
LTYPE
  5
5E
330
5
100
AcDbSymbolTableRecord
100
AcDbLinetypeTableRecord
  2
HIDDEN
 70
     0
  3
Hidden __ __ __ __ __ __ __ __ __ __ __ __ __ __
 72
    65
 73
     2
 40
1.905
 49
1.27
 74
     0
 49
-0.635
 74
     0
  0
LTYPE
  5
5F
330
5
100
AcDbSymbolTableRecord
100
AcDbLinetypeTableRecord
  2
PHANTOM
 70
     0
  3
Phantom ______  __  __  ______  __  __  ______
 72
    65
 73
     6
 40
12.7
 49
6.35
 74
     0
 49
-1.27
 74
     0
 49
1.27
 74
     0
 49
-1.27
 74
     0
 49
1.27
 74
     0
 49
-1.27
 74
     0
  0
LTYPE
  5
60
330
5
100
AcDbSymbolTableRecord
100
AcDbLinetypeTableRecord
  2
CENTER
 70
     0
  3
Center ____ _ ____ _ ____ _ ____ _ ____ _ ____
 72
    65
 73
     4
 40
10.16
 49
6.35
 74
     0
 49
-1.27
 74
     0
 49
1.27
 74
     0
 49
-1.27
 74
     0
  0
LTYPE
  5
61
330
5
100
AcDbSymbolTableRecord
100
AcDbLinetypeTableRecord
  2
CENTERX2
 70
     0
  3
Center (2x) ________  __  ________  __  _____
 72
    65
 73
     4
 40
20.32
 49
12.7
 74
     0
 49
-2.54
 74
     0
 49
2.54
 74
     0
 49
-2.54
 74
     0
  0
LTYPE
  5
62
330
5
100
AcDbSymbolTableRecord
100
AcDbLinetypeTableRecord
  2
DOT2
 70
     0
  3
Dot (.5x) ........................................
 72
    65
 73
     2
 40
0.635
 49
0.0
 74
     0
 49
-0.635
 74
     0
  0
ENDTAB
  0
TABLE
  2
LAYER
  5
2
330
0
100
AcDbSymbolTable
 70
    13
  0
LAYER
  5
10
330
2
100
AcDbSymbolTableRecord
100
AcDbLayerTableRecord
  2
0
 70
     0
 62
     7
  6
Continuous
370
    -3
390
F
347
46
348
0
  0
LAYER
  5
63
330
2
100
AcDbSymbolTableRecord
100
AcDbLayerTableRecord
  2
DRAWING-SHEET
 70
     0
 62
   179
  6
Continuous
370
    -3
390
F
347
46
348
0
  0
LAYER
  5
64
330
2
100
AcDbSymbolTableRecord
100
AcDbLayerTableRecord
  2
BORDER
 70
     0
 62
   179
  6
Continuous
370
    -3
390
F
347
46
348
0
  0
LAYER
  5
65
330
2
100
AcDbSymbolTableRecord
100
AcDbLayerTableRecord
  2
DIMENSIONS
 70
     0
 62
     7
  6
Continuous
370
    -3
390
F
347
46
348
0
  0
LAYER
  5
66
330
2
100
AcDbSymbolTableRecord
100
AcDbLayerTableRecord
  2
CENTRE_LINES
 70
     0
 62
     7
  6
Continuous
370
    -3
390
F
347
46
348
0
  0
LAYER
  5
67
330
2
100
AcDbSymbolTableRecord
100
AcDbLayerTableRecord
  2
FORMAT
 70
     0
 62
     7
  6
Continuous
370
    -3
390
F
347
46
348
0
  0
LAYER
  5
68
330
2
100
AcDbSymbolTableRecord
100
AcDbLayerTableRecord
  2
SLD-0
 70
     0
 62
   179
  6
Continuous
370
    -3
390
F
347
46
348
0
  0
LAYER
  5
69
330
2
100
AcDbSymbolTableRecord
100
AcDbLayerTableRecord
  2
OUTLINE
 70
     0
 62
     4
  6
Continuous
370
    -3
390
F
347
46
348
0
  0
LAYER
  5
6A
330
2
100
AcDbSymbolTableRecord
100
AcDbLayerTableRecord
  2
4
 70
     0
 62
     7
  6
Continuous
370
    70
390
F
347
46
348
0
  0
LAYER
  5
6B
330
2
100
AcDbSymbolTableRecord
100
AcDbLayerTableRecord
  2
TEXT25
 70
     0
 62
   179
  6
Continuous
370
    -3
390
F
347
46
348
0
  0
LAYER
  5
6C
330
2
100
AcDbSymbolTableRecord
100
AcDbLayerTableRecord
  2
TEXT35
 70
     0
 62
     7
  6
Continuous
370
    -3
390
F
347
46
348
0
  0
LAYER
  5
6D
330
2
100
AcDbSymbolTableRecord
100
AcDbLayerTableRecord
  2
TEXT5
 70
     0
 62
     7
  6
Continuous
370
    -3
390
F
347
46
348
0
  0
LAYER
  5
6E
330
2
100
AcDbSymbolTableRecord
100
AcDbLayerTableRecord
  2
5
 70
     0
 62
     7
  6
Continuous
370
    35
390
F
347
46
348
0
  0
ENDTAB
  0
TABLE
  2
STYLE
  5
3
330
0
100
AcDbSymbolTable
 70
     3
  0
STYLE
  5
11
330
3
100
AcDbSymbolTableRecord
100
AcDbTextStyleTableRecord
  2
Standard
 70
     0
 40
0.0
 41
1.0
 50
0.0
 71
     0
 42
4.2333333333
  3
txt
  4

  0
STYLE
  5
75
330
3
100
AcDbSymbolTableRecord
100
AcDbTextStyleTableRecord
  2
SLDTEXTSTYLE0
 70
     0
 40
0.0
 41
0.75
 50
0.0
 71
     0
 42
4.2333333333
  3
TXT
  4

  0
STYLE
  5
7B
330
3
100
AcDbSymbolTableRecord
100
AcDbTextStyleTableRecord
  2
SLDTEXTSTYLE1
 70
     0
 40
0.0
 41
0.6
 50
0.0
 71
     0
 42
4.2333333333
  3
TXT
  4

  0
ENDTAB
  0
TABLE
  2
VIEW
  5
6
330
0
100
AcDbSymbolTable
 70
     0
  0
ENDTAB
  0
TABLE
  2
UCS
  5
7
330
0
100
AcDbSymbolTable
 70
     0
  0
ENDTAB
  0
TABLE
  2
APPID
  5
9
330
0
100
AcDbSymbolTable
 70
     1
  0
APPID
  5
12
330
9
100
AcDbSymbolTableRecord
100
AcDbRegAppTableRecord
  2
ACAD
 70
     0
  0
ENDTAB
  0
TABLE
  2
DIMSTYLE
  5
A
330
0
100
AcDbSymbolTable
 70
     1
100
AcDbDimStyleTable
  0
DIMSTYLE
105
27
330
A
100
AcDbSymbolTableRecord
100
AcDbDimStyleTableRecord
  2
ISO-25
 70
     0
 41
2.5
 42
0.625
 43
3.75
 44
1.25
 73
     0
 74
     0
 77
     1
 78
     8
140
2.5
141
2.5
143
0.0393700787
147
0.625
171
     3
172
     1
178
     0
271
     2
272
     2
274
     3
278
    44
283
     0
284
     8
340
11
  0
ENDTAB
  0
TABLE
  2
BLOCK_RECORD
  5
1
330
0
100
AcDbSymbolTable
 70
     6
  0
BLOCK_RECORD
  5
1F
330
1
100
AcDbSymbolTableRecord
100
AcDbBlockTableRecord
  2
*Model_Space
340
22
 70
     0
280
     1
281
     0
  0
BLOCK_RECORD
  5
1B
330
1
100
AcDbSymbolTableRecord
100
AcDbBlockTableRecord
  2
*Paper_Space
340
1E
 70
     0
280
     1
281
     0
  0
BLOCK_RECORD
  5
23
330
1
100
AcDbSymbolTableRecord
100
AcDbBlockTableRecord
  2
*Paper_Space0
340
26
 70
     0
280
     1
281
     0
  0
BLOCK_RECORD
  5
6F
330
1
100
AcDbSymbolTableRecord
100
AcDbBlockTableRecord
  2
Block1
340
0
 70
     0
280
     1
281
     0
  0
BLOCK_RECORD
  5
72
330
1
100
AcDbSymbolTableRecord
100
AcDbBlockTableRecord
  2
SW_NOTE_0
340
0
102
{BLKREFS
331
77
102
}
 70
     0
280
     1
281
     0
  0
BLOCK_RECORD
  5
78
330
1
100
AcDbSymbolTableRecord
100
AcDbBlockTableRecord
  2
SW_NOTE_0_1
340
0
102
{BLKREFS
331
7D
102
}
 70
     0
280
     1
281
     0
  0
BLOCK_RECORD
  5
7E
330
1
100
AcDbSymbolTableRecord
100
AcDbBlockTableRecord
  2
SW_NOTE_0_2
340
0
102
{BLKREFS
331
82
102
}
 70
     0
280
     1
281
     0
  0
BLOCK_RECORD
  5
83
330
1
100
AcDbSymbolTableRecord
100
AcDbBlockTableRecord
  2
SW_NOTE_0_3
340
0
102
{BLKREFS
331
87
102
}
 70
     0
280
     1
281
     0
  0
ENDTAB
  0
ENDSEC
  0
SECTION
  2
BLOCKS
  0
BLOCK
  5
20
330
1F
100
AcDbEntity
  8
0
100
AcDbBlockBegin
  2
*Model_Space
 70
     0
 10
0.0
 20
0.0
 30
0.0
  3
*Model_Space
  1

  0
ENDBLK
  5
21
330
1F
100
AcDbEntity
  8
0
100
AcDbBlockEnd
  0
BLOCK
  5
1C
330
1B
100
AcDbEntity
 67
     1
  8
0
100
AcDbBlockBegin
  2
*Paper_Space
 70
     0
 10
0.0
 20
0.0
 30
0.0
  3
*Paper_Space
  1

  0
ENDBLK
  5
1D
330
1B
100
AcDbEntity
 67
     1
  8
0
100
AcDbBlockEnd
  0
BLOCK
  5
24
330
23
100
AcDbEntity
  8
0
100
AcDbBlockBegin
  2
*Paper_Space0
 70
     0
 10
0.0
 20
0.0
 30
0.0
  3
*Paper_Space0
  1

  0
ENDBLK
  5
25
330
23
100
AcDbEntity
  8
0
100
AcDbBlockEnd
  0
BLOCK
  5
70
330
6F
100
AcDbEntity
  8
0
100
AcDbBlockBegin
  2
Block1
 70
     0
 10
0.0
 20
0.0
 30
0.0
  3
Block1
  1

  0
INSERT
  5
77
330
6F
100
AcDbEntity
  8
0
  6
Continuous
 62
     7
370
     0
100
AcDbBlockReference
  2
SW_NOTE_0
 10
40.5248655077
 20
20.5912386523
 30
0.0
  0
INSERT
  5
7D
330
6F
100
AcDbEntity
  8
DRAWING-SHEET
 62
     7
100
AcDbBlockReference
  2
SW_NOTE_0_1
 10
3.556761253
 20
-0.3611706024
 30
0.0
  0
INSERT
  5
82
330
6F
100
AcDbEntity
  8
DRAWING-SHEET
 62
     7
100
AcDbBlockReference
  2
SW_NOTE_0_2
 10
7.9590819428
 20
3.0109637777
 30
0.0
  0
INSERT
  5
87
330
6F
100
AcDbEntity
  8
DRAWING-SHEET
 62
     7
100
AcDbBlockReference
  2
SW_NOTE_0_3
 10
0.0721004934
 20
6.5234823937
 30
0.0
  0
ENDBLK
  5
71
330
6F
100
AcDbEntity
  8
0
100
AcDbBlockEnd
  0
BLOCK
  5
73
330
72
100
AcDbEntity
  8
0
100
AcDbBlockBegin
  2
SW_NOTE_0
 70
     0
 10
0.0
 20
0.0
 30
0.0
  3
SW_NOTE_0
  1

  0
MTEXT
  5
76
330
72
100
AcDbEntity
  8
0
  6
Continuous
 62
     0
370
     0
100
AcDbMText
 10
0.0
 20
1.9336016097
 30
0.0
 40
1.5
 41
0.0
 46
0.0
 71
     1
 72
     1
  1
TITLE:
  7
SLDTEXTSTYLE0
 73
     1
 44
1.0
  0
ENDBLK
  5
74
330
72
100
AcDbEntity
  8
0
100
AcDbBlockEnd
  0
BLOCK
  5
79
330
78
100
AcDbEntity
  8
0
100
AcDbBlockBegin
  2
SW_NOTE_0_1
 70
     0
 10
0.0
 20
0.0
 30
0.0
  3
SW_NOTE_0_1
  1

  0
MTEXT
  5
7C
330
78
100
AcDbEntity
  8
DRAWING-SHEET
 62
     0
100
AcDbMText
 10
0.0
 20
2.7285267159
 30
0.0
 40
2.1166666667
 41
0.0
 46
0.0
 71
     1
 72
     1
  1
Email: roddyeng.com.au
  7
SLDTEXTSTYLE1
 73
     1
 44
1.0
  0
ENDBLK
  5
7A
330
78
100
AcDbEntity
  8
0
100
AcDbBlockEnd
  0
BLOCK
  5
7F
330
7E
100
AcDbEntity
  8
0
100
AcDbBlockBegin
  2
SW_NOTE_0_2
 70
     0
 10
0.0
 20
0.0
 30
0.0
  3
SW_NOTE_0_2
  1

  0
MTEXT
  5
81
330
7E
100
AcDbEntity
  8
DRAWING-SHEET
 62
     0
100
AcDbMText
 10
0.0
 20
2.7285267159
 30
0.0
 40
2.1166666667
 41
0.0
 46
0.0
 71
     1
 72
     1
  1
Ph: - 02 6947 4039
  7
SLDTEXTSTYLE1
 73
     1
 44
1.0
  0
ENDBLK
  5
80
330
7E
100
AcDbEntity
  8
0
100
AcDbBlockEnd
  0
BLOCK
  5
84
330
83
100
AcDbEntity
  8
0
100
AcDbBlockBegin
  2
SW_NOTE_0_3
 70
     0
 10
0.0
 20
0.0
 30
0.0
  3
SW_NOTE_0_3
  1

  0
MTEXT
  5
86
330
83
100
AcDbEntity
  8
DRAWING-SHEET
 62
     0
100
AcDbMText
 10
0.0
 20
2.7285267159
 30
0.0
 40
2.1166666667
 41
0.0
 46
0.0
 71
     1
 72
     1
  1
14 Waratah St TUMUT NSW 2720
  7
SLDTEXTSTYLE1
 73
     1
 44
1.0
  0
ENDBLK
  5
85
330
83
100
AcDbEntity
  8
0
100
AcDbBlockEnd
  0
ENDSEC
  0
SECTION
  2
ENTITIES
  0
LINE
  5
88
330
1F
100
AcDbEntity
  8
0
  6
Continuous
 62
     7
370
    25
100
AcDbLine
 10
911.414494226
 20
858.4993961937
 30
0.0
 11
911.414494226
 21
865.6788833732
 31
0.0
  0
LINE
  5
89
330
1F
100
AcDbEntity
  8
0
  6
Continuous
 62
     7
370
    25
100
AcDbLine
 10
912.1324429439
 20
858.4993961937
 30
0.0
 11
911.414494226
 21
858.4993961937
 31
0.0
  0
LINE
  5
8A
330
1F
100
AcDbEntity
  8
0
  6
Continuous
 62
     7
370
    25
100
AcDbLine
 10
912.1324429439
 20
866.4993961937
 30
0.0
 11
912.1324429439
 21
858.4993961937
 31
0.0
  0
LINE
  5
8B
330
1F
100
AcDbEntity
  8
0
  6
Continuous
 62
     7
370
    25
100
AcDbLine
 10
910.6532762773
 20
866.4993961937
 30
0.0
 11
912.1324429439
 21
866.4993961937
 31
0.0
  0
LINE
  5
8C
330
1F
100
AcDbEntity
  8
0
  6
Continuous
 62
     7
370
    25
100
AcDbLine
 10
910.1837249952
 20
865.6788833732
 30
0.0
 11
910.6532762773
 21
866.4993961937
 31
0.0
  0
LINE
  5
8D
330
1F
100
AcDbEntity
  8
0
  6
Continuous
 62
     7
370
    25
100
AcDbLine
 10
911.414494226
 20
865.6788833732
 30
0.0
 11
910.1837249952
 21
865.6788833732
 31
0.0
  0
SPLINE
  5
8E
330
1F
100
AcDbEntity
  8
0
  6
Continuous
 62
     7
370
    25
100
AcDbSpline
210
0.0
220
0.0
230
1.0
 70
     8
 71
     3
 72
    31
 73
    27
 74
     0
 42
0.00000001
 43
0.00000001
 40
0.0
 40
0.0
 40
0.0
 40
0.0
 40
0.03378811616271
 40
0.0671939323738798
 40
0.0998624108568249
 40
0.132566612126258
 40
0.1651511732547867
 40
0.1979131873557928
 40
0.2313190035669622
 40
0.2650832782673745
 40
0.2992553087581136
 40
0.3343985665049791
 40
0.3699428235093097
 40
0.4062835607000627
 40
0.4440638196985076
 40
0.4829977068727754
 40
0.5233544466133072
 40
0.5655365896041488
 40
0.609612924065822
 40
0.6563908113764182
 40
0.7058854949364571
 40
0.7583245002617305
 40
0.8138317829411492
 40
0.8727945590393933
 40
0.934722229540078
 40
1.0
 40
1.0
 40
1.0
 40
1.0
 10
917.781481405459
 20
866.7045243988446
 30
0.0
 10
917.8451053562803
 20
866.7034093927289
 30
0.0
 10
917.9716333766133
 20
866.7011919963762
 30
0.0
 10
918.1586970914611
 20
866.6798801277257
 30
0.0
 10
918.3414392210944
 20
866.6445175606468
 30
0.0
 10
918.5190806809882
 20
866.5944124758867
 30
0.0
 10
918.6930806500574
 20
866.5322509292365
 30
0.0
 10
918.8620781532474
 20
866.4543375187013
 30
0.0
 10
919.0271229112864
 20
866.3636429647711
 30
0.0
 10
919.1855921399033
 20
866.2570741023559
 30
0.0
 10
919.3392255464087
 20
866.138257471049
 30
0.0
 10
919.4842494617734
 20
866.0039427994985
 30
0.0
 10
919.6206770866819
 20
865.8554862983129
 30
0.0
 10
919.7502206418504
 20
865.694476323715
 30
0.0
 10
919.8692048640202
 20
865.5178247012383
 30
0.0
 10
919.9825155662726
 20
865.3286038788059
 30
0.0
 10
920.0839373626192
 20
865.1235047592772
 30
0.0
 10
920.1816166201703
 20
864.9059494042119
 30
0.0
 10
920.2659297327172
 20
864.6699181840825
 30
0.0
 10
920.3419668647681
 20
864.4167415886125
 30
0.0
 10
920.4034045072251
 20
864.1434291615192
 30
0.0
 10
920.454579986855
 20
863.851414886559
 30
0.0
 10
920.4942254633023
 20
863.5396263534385
 30
0.0
 10
920.5231000737675
 20
863.2087319179831
 30
0.0
 10
920.5383528395763
 20
862.8585138822327
 30
0.0
 10
920.5412252994772
 20
862.6190673698278
 30
0.0
 10
920.5426993541769
 20
862.4961910655113
 30
0.0
  0
SPLINE
  5
8F
330
1F
100
AcDbEntity
  8
0
  6
Continuous
 62
     7
370
    25
100
AcDbSpline
210
0.0
220
0.0
230
1.0
 70
     8
 71
     3
 72
    31
 73
    27
 74
     0
 42
0.00000001
 43
0.00000001
 40
0.0
 40
0.0
 40
0.0
 40
0.0
 40
0.0685946222587403
 40
0.1332460424432978
 40
0.1943125864682524
 40
0.2512792231169639
 40
0.3045134392563469
 40
0.354234906653324
 40
0.4004805887739883
 40
0.4434107549384922
 40
0.4840148686163454
 40
0.5232523007732003
 40
0.5610423727283563
 40
0.5979002393643994
 40
0.6335184888561929
 40
0.6683143511696505
 40
0.7024956712863815
 40
0.7366853535134583
 40
0.770293169360788
 40
0.803437255019247
 40
0.8359129516660274
 40
0.8684602457892896
 40
0.9008465382431816
 40
0.9334665246307075
 40
0.9662575752981226
 40
1.0
 40
1.0
 40
1.0
 40
1.0
 10
915.1068019182795
 20
862.4961910655113
 30
0.0
 10
915.107551674068
 20
862.6244136660467
 30
0.0
 10
915.1090080854939
 20
862.8734879157553
 30
0.0
 10
915.1252101905047
 20
863.2364242404792
 30
0.0
 10
915.1521252586491
 20
863.5769049010398
 30
0.0
 10
915.1890106823068
 20
863.894946194842
 30
0.0
 10
915.2338974942465
 20
864.1906302280252
 30
0.0
 10
915.2938186064781
 20
864.4631668157652
 30
0.0
 10
915.3619621553123
 20
864.7138173451665
 30
0.0
 10
915.4409391743077
 20
864.9433991702547
 30
0.0
 10
915.5300541206353
 20
865.155005348591
 30
0.0
 10
915.6270467165716
 20
865.3525486658339
 30
0.0
 10
915.7357662466826
 20
865.5357302254675
 30
0.0
 10
915.849999190516
 20
865.7074737464276
 30
0.0
 10
915.974369639951
 20
865.8649679059529
 30
0.0
 10
916.1053383038761
 20
866.0104368488524
 30
0.0
 10
916.248016878201
 20
866.1405185641981
 30
0.0
 10
916.397555182826
 20
866.2590243982212
 30
0.0
 10
916.5553071014356
 20
866.3629089049
 30
0.0
 10
916.71677605262
 20
866.4544123074503
 30
0.0
 10
916.8830734374337
 20
866.5325834326105
 30
0.0
 10
917.0546532840575
 20
866.5940472860037
 30
0.0
 10
917.2299734163768
 20
866.6448149357698
 30
0.0
 10
917.4096467116711
 20
866.6795325303905
 30
0.0
 10
917.5939698292399
 20
866.7013768926519
 30
0.0
 10
917.71838453735
 20
866.7034652760582
 30
0.0
 10
917.781481405459
 20
866.7045243988446
 30
0.0
  0
SPLINE
  5
90
330
1F
100
AcDbEntity
  8
0
  6
Continuous
 62
     7
370
    25
100
AcDbSpline
210
0.0
220
0.0
230
1.0
 70
     8
 71
     3
 72
    31
 73
    27
 74
     0
 42
0.00000001
 43
0.00000001
 40
0.0
 40
0.0
 40
0.0
 40
0.0
 40
0.0337871463469916
 40
0.0666216577242942
 40
0.0992848780959732
 40
0.1313611650426514
 40
0.1635851875953439
 40
0.1961039269870672
 40
0.2289022543238159
 40
0.2621580559050083
 40
0.2959912222583153
 40
0.3302178457247985
 40
0.365059825891955
 40
0.4009507373401089
 40
0.4376203820767348
 40
0.4757075294370915
 40
0.5153806916250485
 40
0.5564135414931637
 40
0.5997648298727307
 40
0.646424155584086
 40
0.6964314445175634
 40
0.7497815178015568
 40
0.8065733069755286
 40
0.8674355315653958
 40
0.93188675325087
 40
1.0
 40
1.0
 40
1.0
 40
1.0
 10
917.781481405459
 20
858.2942679885882
 30
0.0
 10
917.7183862877783
 20
858.2953339439226
 30
0.0
 10
917.5939750311715
 20
858.2974357997796
 30
0.0
 10
917.409626630167
 20
858.3191814717526
 30
0.0
 10
917.2306953308757
 20
858.3541426219523
 30
0.0
 10
917.0562981787898
 20
858.4030948598746
 30
0.0
 10
916.8855404300272
 20
858.4630144857385
 30
0.0
 10
916.720748917671
 20
858.5410800482597
 30
0.0
 10
916.5600913549495
 20
858.6309864915876
 30
0.0
 10
916.4039963697652
 20
858.7333760263037
 30
0.0
 10
916.2553971445313
 20
858.8506827305971
 30
0.0
 10
916.1134574752425
 20
858.9804296761663
 30
0.0
 10
915.9817431458781
 20
859.1258546162746
 30
0.0
 10
915.8591509273242
 20
859.2846612976637
 30
0.0
 10
915.742638725734
 20
859.45538870871
 30
0.0
 10
915.6354630152899
 20
859.6403678470995
 30
0.0
 10
915.5363296345629
 20
859.8388652425044
 30
0.0
 10
915.4457159416063
 20
860.0521633240475
 30
0.0
 10
915.3653761392865
 20
860.2833745877268
 30
0.0
 10
915.2944099493129
 20
860.5351441385899
 30
0.0
 10
915.2383775893813
 20
860.8096941639933
 30
0.0
 10
915.1904165486205
 20
861.1048195745199
 30
0.0
 10
915.1517322445211
 20
861.4217885582589
 30
0.0
 10
915.1253223580791
 20
861.7607731941148
 30
0.0
 10
915.108999352283
 20
862.1215622430888
 30
0.0
 10
915.1075477627514
 20
862.3690360129553
 30
0.0
 10
915.1068019182795
 20
862.4961910655113
 30
0.0
  0
SPLINE
  5
91
330
1F
100
AcDbEntity
  8
0
  6
Continuous
 62
     7
370
    25
100
AcDbSpline
210
0.0
220
0.0
230
1.0
 70
     8
 71
     3
 72
    31
 73
    27
 74
     0
 42
0.00000001
 43
0.00000001
 40
0.0
 40
0.0
 40
0.0
 40
0.0
 40
0.0650632896172806
 40
0.1267731664665254
 40
0.1855157632260815
 40
0.2407646791677176
 40
0.2929797960236007
 40
0.3422503727797697
 40
0.388919286185661
 40
0.4327756640583095
 40
0.4746284326311185
 40
0.5147746906379539
 40
0.5536058934984431
 40
0.5914264064311752
 40
0.6280281199460684
 40
0.6638036341103225
 40
0.6989843361316639
 40
0.7335914893067058
 40
0.7676284691511412
 40
0.8012083477865928
 40
0.8342638397266247
 40
0.8669806947287767
 40
0.8997197415181607
 40
0.9327019124985387
 40
0.9661758834327498
 40
1.0
 40
1.0
 40
1.0
 40
1.0
 10
920.5426993541769
 20
862.4961910655113
 30
0.0
 10
920.5412100180765
 20
862.3738507045035
 30
0.0
 10
920.5383081074217
 20
862.1354755002548
 30
0.0
 10
920.5232710633811
 20
861.7868332709525
 30
0.0
 10
920.4936513349726
 20
861.45769488627
 30
0.0
 10
920.456599933124
 20
861.1472709720786
 30
0.0
 10
920.4052834463276
 20
860.8568535576034
 30
0.0
 10
920.3421859234675
 20
860.5854376753908
 30
0.0
 10
920.2721280427321
 20
860.33185122587
 30
0.0
 10
920.1856485133383
 20
860.0981716564758
 30
0.0
 10
920.0909954611161
 20
859.8811391470704
 30
0.0
 10
919.9880121555723
 20
859.6784713794599
 30
0.0
 10
919.8776811245193
 20
859.488376996192
 30
0.0
 10
919.7574782787981
 20
859.3123775746351
 30
0.0
 10
919.629356191492
 20
859.1492263584686
 30
0.0
 10
919.4905726742509
 20
859.0018032209794
 30
0.0
 10
919.3450399083034
 20
858.8665559707779
 30
0.0
 10
919.1909543863973
 20
858.7462093937215
 30
0.0
 10
919.0300136978666
 20
858.6408726974097
 30
0.0
 10
918.8655358077526
 20
858.5466696108091
 30
0.0
 10
918.6946023601017
 20
858.4707091649808
 30
0.0
 10
918.5210870395771
 20
858.4054862141745
 30
0.0
 10
918.3425079170287
 20
858.3556566098633
 30
0.0
 10
918.1590875954528
 20
858.3212020829592
 30
0.0
 10
917.9717590561872
 20
858.2970378579197
 30
0.0
 10
917.8451269074301
 20
858.2951944753476
 30
0.0
 10
917.781481405459
 20
858.2942679885882
 30
0.0
  0
LINE
  5
92
330
1F
100
AcDbEntity
  8
0
  6
Continuous
 62
     7
370
    25
100
AcDbLine
 10
934.1228275593
 20
858.4993961937
 30
0.0
 11
928.8503916619
 21
864.7814474758
 31
0.0
  0
LINE
  5
93
330
1F
100
AcDbEntity
  8
0
  6
Continuous
 62
     7
370
    25
100
AcDbLine
 10
934.2862890978
 20
858.4993961937
 30
0.0
 11
934.1228275593
 21
858.4993961937
 31
0.0
  0
LINE
  5
94
330
1F
100
AcDbEntity
  8
0
  6
Continuous
 62
     7
370
    25
100
AcDbLine
 10
934.2862890978
 20
866.4993961937
 30
0.0
 11
934.2862890978
 21
858.4993961937
 31
0.0
  0
LINE
  5
95
330
1F
100
AcDbEntity
  8
0
  6
Continuous
 62
     7
370
    25
100
AcDbLine
 10
933.5683403798
 20
866.4993961937
 30
0.0
 11
934.2862890978
 21
866.4993961937
 31
0.0
  0
LINE
  5
96
330
1F
100
AcDbEntity
  8
0
  6
Continuous
 62
     7
370
    25
100
AcDbLine
 10
933.5683403798
 20
860.2029218347
 30
0.0
 11
933.5683403798
 21
866.4993961937
 31
0.0
  0
LINE
  5
97
330
1F
100
AcDbEntity
  8
0
  6
Continuous
 62
     7
370
    25
100
AcDbLine
 10
928.2830839696
 20
866.4993961937
 30
0.0
 11
933.5683403798
 21
860.2029218347
 31
0.0
  0
LINE
  5
98
330
1F
100
AcDbEntity
  8
0
  6
Continuous
 62
     7
370
    25
100
AcDbLine
 10
928.1324429439
 20
866.4993961937
 30
0.0
 11
928.2830839696
 21
866.4993961937
 31
0.0
  0
LINE
  5
99
330
1F
100
AcDbEntity
  8
0
  6
Continuous
 62
     7
370
    25
100
AcDbLine
 10
928.1324429439
 20
858.4993961937
 30
0.0
 11
928.1324429439
 21
866.4993961937
 31
0.0
  0
LINE
  5
9A
330
1F
100
AcDbEntity
  8
0
  6
Continuous
 62
     7
370
    25
100
AcDbLine
 10
928.8503916619
 20
858.4993961937
 30
0.0
 11
928.1324429439
 21
858.4993961937
 31
0.0
  0
LINE
  5
9B
330
1F
100
AcDbEntity
  8
0
  6
Continuous
 62
     7
370
    25
100
AcDbLine
 10
928.8503916619
 20
864.7814474758
 30
0.0
 11
928.8503916619
 21
858.4993961937
 31
0.0
  0
SPLINE
  5
9C
330
1F
100
AcDbEntity
  8
0
  6
Continuous
 62
     7
370
    25
100
AcDbSpline
210
0.0
220
0.0
230
1.0
 70
     8
 71
     3
 72
    23
 73
    19
 74
     0
 42
0.00000001
 43
0.00000001
 40
0.0
 40
0.0
 40
0.0
 40
0.0
 40
0.0611602766365146
 40
0.1203345577262035
 40
0.178180255063123
 40
0.2352351259863655
 40
0.2926829614441773
 40
0.3511862482150772
 40
0.410456609509692
 40
0.4717198544629944
 40
0.5337612027725913
 40
0.595739023887095
 40
0.6578875151248837
 40
0.7212951802914601
 40
0.7868225145418899
 40
0.8546861538286843
 40
0.9254779862699961
 40
1.0
 40
1.0
 40
1.0
 40
1.0
 10
941.0555198669974
 20
860.7702295270498
 30
0.0
 10
941.0532870760869
 20
860.6921338193426
 30
0.0
 10
941.0488939974175
 20
860.5384783265281
 30
0.0
 10
941.0164826333107
 20
860.3127523046984
 30
0.0
 10
940.9616046744743
 20
860.097038141012
 30
0.0
 10
940.8860134827837
 20
859.8899405805452
 30
0.0
 10
940.7873567637017
 20
859.6918602731836
 30
0.0
 10
940.6672928452299
 20
859.5025728126429
 30
0.0
 10
940.5241349855206
 20
859.323980056956
 30
0.0
 10
940.363991285059
 20
859.1540974898634
 30
0.0
 10
940.1828206667991
 20
859.0013482616582
 30
0.0
 10
939.9873560841191
 20
858.8653123606723
 30
0.0
 10
939.7751359243621
 20
858.7534356472655
 30
0.0
 10
939.5496456523246
 20
858.6594561695448
 30
0.0
 10
939.3083557869206
 20
858.5876682873389
 30
0.0
 10
939.0523498272411
 20
858.5374452612834
 30
0.0
 10
938.7818485659039
 20
858.503605176715
 30
0.0
 10
938.5962262776491
 20
858.5008229940981
 30
0.0
 10
938.5010326875102
 20
858.4993961937164
 30
0.0
  0
SPLINE
  5
9D
330
1F
100
AcDbEntity
  8
0
  6
Continuous
 62
     7
370
    25
100
AcDbSpline
210
0.0
220
0.0
230
1.0
 70
     8
 71
     3
 72
    19
 73
    15
 74
     0
 42
0.00000001
 43
0.00000001
 40
0.0
 40
0.0
 40
0.0
 40
0.0
 40
0.1060574933033935
 40
0.2029142570846068
 40
0.2903001653958366
 40
0.3702225656250397
 40
0.4463837207709705
 40
0.5213968999648263
 40
0.5982910828464562
 40
0.6761424688569254
 40
0.7555286995560246
 40
0.8348871724576588
 40
0.9166460487466402
 40
1.0
 40
1.0
 40
1.0
 40
1.0
 10
939.5154557644333
 20
862.8151013219215
 30
0.0
 10
939.6063367417928
 20
862.7802098957716
 30
0.0
 10
939.7802145643742
 20
862.7134539542975
 30
0.0
 10
940.0194968785044
 20
862.5954300365898
 30
0.0
 10
940.2256565242099
 20
862.4670594985525
 30
0.0
 10
940.400278572176
 20
862.3268724125097
 30
0.0
 10
940.5496217834141
 20
862.1757665592752
 30
0.0
 10
940.6800285070092
 20
862.011526298136
 30
0.0
 10
940.7913002193769
 20
861.8320091372735
 30
0.0
 10
940.8866440446697
 20
861.6390867707308
 30
0.0
 10
940.9610412013011
 20
861.4347291287722
 30
0.0
 10
941.0167575541462
 20
861.2208530691211
 30
0.0
 10
941.048683152171
 20
860.9982255143912
 30
0.0
 10
941.0532263322355
 20
860.8467160759033
 30
0.0
 10
941.0555198669974
 20
860.7702295270498
 30
0.0
  0
SPLINE
  5
9E
330
1F
100
AcDbEntity
  8
0
  6
Continuous
 62
     7
370
    25
100
AcDbSpline
210
0.0
220
0.0
230
1.0
 70
     8
 71
     3
 72
    15
 73
    11
 74
     0
 42
0.00000001
 43
0.00000001
 40
0.0
 40
0.0
 40
0.0
 40
0.0
 40
0.1305691070873166
 40
0.2565806086940856
 40
0.3805516168036857
 40
0.5036229172007122
 40
0.6257393231697914
 40
0.7475485819596266
 40
0.8717661185648735
 40
1.0
 40
1.0
 40
1.0
 40
1.0
 10
940.4401352516129
 20
864.5170243988446
 30
0.0
 10
940.4376364666012
 20
864.4286757001521
 30
0.0
 10
940.4327261184065
 20
864.2550621755328
 30
0.0
 10
940.3857712399317
 20
864.0011327828845
 30
0.0
 10
940.3122611406413
 20
863.759415711279
 30
0.0
 10
940.2100777139809
 20
863.5307931160403
 30
0.0
 10
940.0772731512425
 20
863.3204305717074
 30
0.0
 10
939.9198827085793
 20
863.1266311064616
 30
0.0
 10
939.7299928743142
 20
862.9576001190445
 30
0.0
 10
939.5877226114848
 20
862.8631020560714
 30
0.0
 10
939.5154557644333
 20
862.8151013219215
 30
0.0
  0
SPLINE
  5
9F
330
1F
100
AcDbEntity
  8
0
  6
Continuous
 62
     7
370
    25
100
AcDbSpline
210
0.0
220
0.0
230
1.0
 70
     8
 71
     3
 72
    23
 73
    19
 74
     0
 42
0.00000001
 43
0.00000001
 40
0.0
 40
0.0
 40
0.0
 40
0.0
 40
0.0625940971873318
 40
0.1213229386347498
 40
0.1766801421977653
 40
0.2283650957096756
 40
0.2768684458368078
 40
0.3218791276660465
 40
0.3640986251098938
 40
0.4033556962427021
 40
0.4779679481633722
 40
0.5505354613647776
 40
0.6235844567403245
 40
0.6981748822642043
 40
0.7733536703408801
 40
0.8472811254977354
 40
0.9228183395566708
 40
1.0
 40
1.0
 40
1.0
 40
1.0
 10
937.8984685849462
 20
866.4993961937164
 30
0.0
 10
937.9748765350897
 20
866.4989944785124
 30
0.0
 10
938.1229741587158
 20
866.498215854469
 30
0.0
 10
938.3383328828958
 20
866.486140126133
 30
0.0
 10
938.5400444500741
 20
866.4696745949818
 30
0.0
 10
938.728167358304
 20
866.4435486689379
 30
0.0
 10
938.902614678055
 20
866.4120246068914
 30
0.0
 10
939.0639121345986
 20
866.3738490272565
 30
0.0
 10
939.211546814069
 20
866.3280739103215
 30
0.0
 10
939.3878044972831
 20
866.2552824103617
 30
0.0
 10
939.5887660078633
 20
866.1471151684193
 30
0.0
 10
939.8063623340415
 20
865.9872784480789
 30
0.0
 10
939.9924291668628
 20
865.7917756752322
 30
0.0
 10
940.1528550348421
 20
865.5712438914052
 30
0.0
 10
940.2804004510964
 20
865.3286478416886
 30
0.0
 10
940.3726731306751
 20
865.0697696959113
 30
0.0
 10
940.4310911314949
 20
864.7979485715239
 30
0.0
 10
940.4370989811313
 20
864.6113355935149
 30
0.0
 10
940.4401352516129
 20
864.5170243988446
 30
0.0
  0
LINE
  5
A0
330
1F
100
AcDbEntity
  8
0
  6
Continuous
 62
     7
370
    25
100
AcDbLine
 10
936.337571149
 20
866.4993961937
 30
0.0
 11
937.8984685849
 21
866.4993961937
 31
0.0
  0
LINE
  5
A1
330
1F
100
AcDbEntity
  8
0
  6
Continuous
 62
     7
370
    25
100
AcDbLine
 10
936.337571149
 20
858.4993961937
 30
0.0
 11
936.337571149
 21
866.4993961937
 31
0.0
  0
LINE
  5
A2
330
1F
100
AcDbEntity
  8
0
  6
Continuous
 62
     7
370
    25
100
AcDbLine
 10
938.5010326875
 20
858.4993961937
 30
0.0
 11
936.337571149
 21
858.4993961937
 31
0.0
  0
LINE
  5
A3
330
1F
100
AcDbEntity
  8
0
  6
Continuous
 62
     7
370
    25
100
AcDbLine
 10
973.055519867
 20
862.3599731168
 30
0.0
 11
973.055519867
 21
858.4993961937
 31
0.0
  0
LINE
  5
A4
330
1F
100
AcDbEntity
  8
0
  6
Continuous
 62
     7
370
    25
100
AcDbLine
 10
976.7654557644
 20
858.4993961937
 30
0.0
 11
973.055519867
 21
862.3599731168
 31
0.0
  0
LINE
  5
A5
330
1F
100
AcDbEntity
  8
0
  6
Continuous
 62
     7
370
    25
100
AcDbLine
 10
977.7221865337
 20
858.4993961937
 30
0.0
 11
976.7654557644
 21
858.4993961937
 31
0.0
  0
LINE
  5
A6
330
1F
100
AcDbEntity
  8
0
  6
Continuous
 62
     7
370
    25
100
AcDbLine
 10
973.4834044824
 20
862.909652604
 30
0.0
 11
977.7221865337
 21
858.4993961937
 31
0.0
  0
LINE
  5
A7
330
1F
100
AcDbEntity
  8
0
  6
Continuous
 62
     7
370
    25
100
AcDbLine
 10
977.414494226
 20
866.4993961937
 30
0.0
 11
973.4834044824
 21
862.909652604
 31
0.0
  0
LINE
  5
A8
330
1F
100
AcDbEntity
  8
0
  6
Continuous
 62
     7
370
    25
100
AcDbLine
 10
976.3904557644
 20
866.4993961937
 30
0.0
 11
977.414494226
 21
866.4993961937
 31
0.0
  0
LINE
  5
A9
330
1F
100
AcDbEntity
  8
0
  6
Continuous
 62
     7
370
    25
100
AcDbLine
 10
973.055519867
 20
863.4529218347
 30
0.0
 11
976.3904557644
 21
866.4993961937
 31
0.0
  0
LINE
  5
AA
330
1F
100
AcDbEntity
  8
0
  6
Continuous
 62
     7
370
    25
100
AcDbLine
 10
973.055519867
 20
866.4993961937
 30
0.0
 11
973.055519867
 21
863.4529218347
 31
0.0
  0
LINE
  5
AB
330
1F
100
AcDbEntity
  8
0
  6
Continuous
 62
     7
370
    25
100
AcDbLine
 10
972.337571149
 20
866.4993961937
 30
0.0
 11
973.055519867
 21
866.4993961937
 31
0.0
  0
LINE
  5
AC
330
1F
100
AcDbEntity
  8
0
  6
Continuous
 62
     7
370
    25
100
AcDbLine
 10
972.337571149
 20
858.4993961937
 30
0.0
 11
972.337571149
 21
866.4993961937
 31
0.0
  0
LINE
  5
AD
330
1F
100
AcDbEntity
  8
0
  6
Continuous
 62
     7
370
    25
100
AcDbLine
 10
973.055519867
 20
858.4993961937
 30
0.0
 11
972.337571149
 21
858.4993961937
 31
0.0
  0
LINE
  5
AE
330
1F
100
AcDbEntity
  8
0
  6
Continuous
 62
     7
370
    25
100
AcDbLine
 10
984.930519867
 20
862.7397808091
 30
0.0
 11
986.1356480721
 21
861.4737551681
 31
0.0
  0
SPLINE
  5
AF
330
1F
100
AcDbEntity
  8
0
  6
Continuous
 62
     7
370
    25
100
AcDbSpline
210
0.0
220
0.0
230
1.0
 70
     8
 71
     3
 72
    19
 73
    15
 74
     0
 42
0.00000001
 43
0.00000001
 40
0.0
 40
0.0
 40
0.0
 40
0.0
 40
0.0793573641448627
 40
0.1644342510041182
 40
0.2558007745009386
 40
0.3567416060967879
 40
0.4129766249880827
 40
0.4750037870495083
 40
0.5447731925230633
 40
0.6210883437345669
 40
0.7054029441680275
 40
0.7960188202186607
 40
0.8943579466704235
 40
1.0
 40
1.0
 40
1.0
 40
1.0
 10
986.3888532003308
 20
864.7413833732036
 30
0.0
 10
986.3854707654037
 20
864.673707682531
 30
0.0
 10
986.3784621133425
 20
864.5334787116368
 30
0.0
 10
986.3175932820876
 20
864.3227064026795
 30
0.0
 10
986.2248477493728
 20
864.105209059737
 30
0.0
 10
986.1173551998011
 20
863.9221473207492
 30
0.0
 10
986.0088945013513
 20
863.7701792892525
 30
0.0
 10
985.9080354838183
 20
863.645745039717
 30
0.0
 10
985.7899945219203
 20
863.5135198247615
 30
0.0
 10
985.6523429906059
 20
863.3736907460976
 30
0.0
 10
985.4977960596966
 20
863.225771522847
 30
0.0
 10
985.3254019116066
 20
863.0694857419691
 30
0.0
 10
985.134700276641
 20
862.9065205312925
 30
0.0
 10
985.0001853036241
 20
862.7966716517129
 30
0.0
 10
984.9305198669974
 20
862.739780809101
 30
0.0
  0
SPLINE
  5
B0
330
1F
100
AcDbEntity
  8
0
  6
Continuous
 62
     7
370
    25
100
AcDbSpline
210
0.0
220
0.0
230
1.0
 70
     8
 71
     3
 72
    19
 73
    15
 74
     0
 42
0.00000001
 43
0.00000001
 40
0.0
 40
0.0
 40
0.0
 40
0.0
 40
0.0958530780976254
 40
0.1889061493562635
 40
0.2791873888222055
 40
0.3692609188494504
 40
0.4564049079561475
 40
0.5397441109850994
 40
0.6200602869854676
 40
0.6994432634575499
 40
0.7774133330992752
 40
0.8519525435579413
 40
0.9258029968874295
 40
1.0
 40
1.0
 40
1.0
 40
1.0
 10
984.6580839695615
 20
866.191703886024
 30
0.0
 10
984.7383482459408
 20
866.1891590658544
 30
0.0
 10
984.8965321632713
 20
866.1841437633872
 30
0.0
 10
985.1279714356283
 20
866.1469624031478
 30
0.0
 10
985.3486489856305
 20
866.0841022412807
 30
0.0
 10
985.5549083901861
 20
865.9957866983341
 30
0.0
 10
985.7464391360903
 20
865.8902069150625
 30
0.0
 10
985.9138446736027
 20
865.7623796037204
 30
0.0
 10
986.0590566099409
 20
865.6188663139937
 30
0.0
 10
986.1769697838286
 20
865.4577269029846
 30
0.0
 10
986.2713964870119
 20
865.2875074517631
 30
0.0
 10
986.3401028075715
 20
865.1103383304044
 30
0.0
 10
986.3818442139313
 20
864.9276291136574
 30
0.0
 10
986.3865132284513
 20
864.8035620921324
 30
0.0
 10
986.3888532003308
 20
864.7413833732036
 30
0.0
  0
SPLINE
  5
B1
330
1F
100
AcDbEntity
  8
0
  6
Continuous
 62
     7
370
    25
100
AcDbSpline
210
0.0
220
0.0
230
1.0
 70
     8
 71
     3
 72
    15
 73
    11
 74
     0
 42
0.00000001
 43
0.00000001
 40
0.0
 40
0.0
 40
0.0
 40
0.0
 40
0.1209827321792082
 40
0.2413687849486288
 40
0.3620992290607277
 40
0.4837237272075982
 40
0.6070169684753783
 40
0.7336790581593055
 40
0.864374373260288
 40
1.0
 40
1.0
 40
1.0
 40
1.0
 10
983.3551993541769
 20
865.7461910655113
 30
0.0
 10
983.3994864802258
 20
865.7816809412006
 30
0.0
 10
983.4878423109361
 20
865.8524856586909
 30
0.0
 10
983.6308664456499
 20
865.9449547970353
 30
0.0
 10
983.7844790314667
 20
866.0184996019095
 30
0.0
 10
983.9428861381497
 20
866.0847670977209
 30
0.0
 10
984.1111052067491
 20
866.1315753925492
 30
0.0
 10
984.2861031400614
 20
866.1673391119505
 30
0.0
 10
984.4695293439092
 20
866.1885022491174
 30
0.0
 10
984.5944614851874
 20
866.1906235832028
 30
0.0
 10
984.6580839695615
 20
866.191703886024
 30
0.0
  0
SPLINE
  5
B2
330
1F
100
AcDbEntity
  8
0
  6
Continuous
 62
     7
370
    25
100
AcDbSpline
210
0.0
220
0.0
230
1.0
 70
     8
 71
     3
 72
    15
 73
    11
 74
     0
 42
0.00000001
 43
0.00000001
 40
0.0
 40
0.0
 40
0.0
 40
0.0
 40
0.1293237975374661
 40
0.2543731579049337
 40
0.3762134012063309
 40
0.4980536445077164
 40
0.6188866393267325
 40
0.7420941295427166
 40
0.8685510307267781
 40
1.0
 40
1.0
 40
1.0
 40
1.0
 10
982.9016737131512
 20
864.7798449116651
 30
0.0
 10
982.9025589536412
 20
864.8274935366708
 30
0.0
 10
982.9043001754676
 20
864.9212158943755
 30
0.0
 10
982.9283588998426
 20
865.0580118932482
 30
0.0
 10
982.9633247710616
 20
865.189247522525
 30
0.0
 10
983.0125593174
 20
865.3145022856053
 30
0.0
 10
983.0784887137972
 20
865.4321545525297
 30
0.0
 10
983.1545233834032
 20
865.5456865444511
 30
0.0
 10
983.2491897112541
 20
865.6497761823427
 30
0.0
 10
983.3194097430734
 20
865.7136407136936
 30
0.0
 10
983.3551993541769
 20
865.7461910655113
 30
0.0
  0
SPLINE
  5
B3
330
1F
100
AcDbEntity
  8
0
  6
Continuous
 62
     7
370
    25
100
AcDbSpline
210
0.0
220
0.0
230
1.0
 70
     8
 71
     3
 72
    19
 73
    15
 74
     0
 42
0.00000001
 43
0.00000001
 40
0.0
 40
0.0
 40
0.0
 40
0.0
 40
0.1122942684762686
 40
0.2156592551320973
 40
0.3101246612000806
 40
0.3967802620512796
 40
0.4744172701741787
 40
0.5432767626268676
 40
0.6041039863602786
 40
0.6560747890998351
 40
0.7493974325313957
 40
0.8369840855448677
 40
0.9198521091066992
 40
1.0
 40
1.0
 40
1.0
 40
1.0
 10
983.8680198669974
 20
862.9320885014087
 30
0.0
 10
983.8186683093837
 20
862.9944277928554
 30
0.0
 10
983.7238894725026
 20
863.1141493542607
 30
0.0
 10
983.5908764582217
 20
863.288869762892
 30
0.0
 10
983.4715555016905
 20
863.4511700361354
 30
0.0
 10
983.3667099781788
 20
863.6014257389925
 30
0.0
 10
983.2730375556669
 20
863.737349887962
 30
0.0
 10
983.1935333838886
 20
863.8608311384761
 30
0.0
 10
983.130254289366
 20
863.9728426802928
 30
0.0
 10
983.0613821215238
 20
864.1015674162884
 30
0.0
 10
982.998024933572
 20
864.2542264473224
 30
0.0
 10
982.9425119052912
 20
864.4327559018503
 30
0.0
 10
982.9088377614449
 20
864.607639532462
 30
0.0
 10
982.9040350158959
 20
864.7230852392137
 30
0.0
 10
982.9016737131512
 20
864.7798449116651
 30
0.0
  0
SPLINE
  5
B4
330
1F
100
AcDbEntity
  8
0
  6
Continuous
 62
     7
370
    25
100
AcDbSpline
210
0.0
220
0.0
230
1.0
 70
     8
 71
     3
 72
    19
 73
    15
 74
     0
 42
0.00000001
 43
0.00000001
 40
0.0
 40
0.0
 40
0.0
 40
0.0
 40
0.0883022515249276
 40
0.1781049864816926
 40
0.2724070489254414
 40
0.3720999309722097
 40
0.4268407983997839
 40
0.4879990919618946
 40
0.555641930150314
 40
0.6306991120594122
 40
0.7122793248327031
 40
0.801134091788624
 40
0.8970196371652265
 40
1.0
 40
1.0
 40
1.0
 40
1.0
 10
981.9785967900743
 20
860.1740756808958
 30
0.0
 10
981.9835518228766
 20
860.2759315216033
 30
0.0
 10
981.9935460872929
 20
860.4813739969534
 30
0.0
 10
982.0659114674388
 20
860.788870825384
 30
0.0
 10
982.1855484443493
 20
861.0940363440193
 30
0.0
 10
982.3189285678623
 20
861.3489930843116
 30
0.0
 10
982.4591866208083
 20
861.5544078583888
 30
0.0
 10
982.5867523818121
 20
861.7234626043324
 30
0.0
 10
982.7433246421178
 20
861.8989622771618
 30
0.0
 10
982.919653332403
 20
862.0881613206564
 30
0.0
 10
983.1233878251613
 20
862.2847998551886
 30
0.0
 10
983.3489719374797
 20
862.4931389827772
 30
0.0
 10
983.5991783911446
 20
862.7110611672487
 30
0.0
 10
983.7762996922462
 20
862.8566809935096
 30
0.0
 10
983.8680198669974
 20
862.9320885014087
 30
0.0
  0
SPLINE
  5
B5
330
1F
100
AcDbEntity
  8
0
  6
Continuous
 62
     7
370
    25
100
AcDbSpline
210
0.0
220
0.0
230
1.0
 70
     8
 71
     3
 72
    23
 73
    19
 74
     0
 42
0.00000001
 43
0.00000001
 40
0.0
 40
0.0
 40
0.0
 40
0.0
 40
0.0713017063590099
 40
0.1394056889669485
 40
0.2047597386242585
 40
0.2680526216381507
 40
0.3297622456855464
 40
0.3909806143688507
 40
0.4517647488949612
 40
0.5137229703770101
 40
0.575292317264688
 40
0.6348100956375111
 40
0.6940227000468744
 40
0.753558923536241
 40
0.8128757409131274
 40
0.8731155289432524
 40
0.9355042126495962
 40
1.0
 40
1.0
 40
1.0
 40
1.0
 10
983.9513532003308
 20
858.2942679885882
 30
0.0
 10
983.8786158561016
 20
858.2955685220018
 30
0.0
 10
983.7364032765764
 20
858.2981112627832
 30
0.0
 10
983.5289991924594
 20
858.3249292498041
 30
0.0
 10
983.3323113754624
 20
858.3656012161956
 30
0.0
 10
983.1472335115301
 20
858.4253696365349
 30
0.0
 10
982.9729861310416
 20
858.5013685782403
 30
0.0
 10
982.8085741079318
 20
858.5919691682894
 30
0.0
 10
982.6567677326263
 20
858.7028545437491
 30
0.0
 10
982.5166112311747
 20
858.8285093375024
 30
0.0
 10
982.3912322600722
 20
858.9671573724399
 30
0.0
 10
982.2805845634936
 20
859.114315237107
 30
0.0
 10
982.187237547003
 20
859.2706825814207
 30
0.0
 10
982.1104495004641
 20
859.4355181654033
 30
0.0
 10
982.0503770319302
 20
859.6083602418215
 30
0.0
 10
982.0093212165233
 20
859.789526002722
 30
0.0
 10
981.9825546057493
 20
859.9788295384269
 30
0.0
 10
981.9799305871978
 20
860.1082770776832
 30
0.0
 10
981.9785967900743
 20
860.1740756808958
 30
0.0
  0
SPLINE
  5
B6
330
1F
100
AcDbEntity
  8
0
  6
Continuous
 62
     7
370
    25
100
AcDbSpline
210
0.0
220
0.0
230
1.0
 70
     8
 71
     3
 72
    19
 73
    15
 74
     0
 42
0.00000001
 43
0.00000001
 40
0.0
 40
0.0
 40
0.0
 40
0.0
 40
0.0990058650465641
 40
0.1910577125302463
 40
0.2767677403096065
 40
0.3555954539014639
 40
0.4276027063241042
 40
0.49378355476603
 40
0.5528910695331957
 40
0.606116614678835
 40
0.7049455337241478
 40
0.802769636911006
 40
0.900520730874146
 40
1.0
 40
1.0
 40
1.0
 40
1.0
 10
986.8888532003308
 20
859.7237551680754
 30
0.0
 10
986.8031735933711
 20
859.6544326551857
 30
0.0
 10
986.6378323814287
 20
859.5206567346044
 30
0.0
 10
986.3930634451781
 20
859.3335397194621
 30
0.0
 10
986.1650405321385
 20
859.1615302446378
 30
0.0
 10
985.950377746899
 20
859.0089632554467
 30
0.0
 10
985.7489711728493
 20
858.8755362922814
 30
0.0
 10
985.5630060625866
 20
858.7586483892302
 30
0.0
 10
985.3905614771375
 20
858.6597745774799
 30
0.0
 10
985.1809165089594
 20
858.5532283953661
 30
0.0
 10
984.9220955695837
 20
858.4497231546904
 30
0.0
 10
984.6067653614436
 20
858.3587012912179
 30
0.0
 10
984.2817669482189
 20
858.304274547134
 30
0.0
 10
984.0621326108395
 20
858.2976229357234
 30
0.0
 10
983.9513532003308
 20
858.2942679885882
 30
0.0
  0
LINE
  5
B7
330
1F
100
AcDbEntity
  8
0
  6
Continuous
 62
     7
370
    25
100
AcDbLine
 10
988.0907762773
 20
858.4993961937
 30
0.0
 11
986.8888532003
 21
859.7237551681
 31
0.0
  0
LINE
  5
B8
330
1F
100
AcDbEntity
  8
0
  6
Continuous
 62
     7
370
    25
100
AcDbLine
 10
989.055519867
 20
858.4993961937
 30
0.0
 11
988.0907762773
 21
858.4993961937
 31
0.0
  0
SPLINE
  5
B9
330
1F
100
AcDbEntity
  8
0
  6
Continuous
 62
     7
370
    25
100
AcDbSpline
210
0.0
220
0.0
230
1.0
 70
     8
 71
     3
 72
    11
 73
     7
 74
     0
 42
0.00000001
 43
0.00000001
 40
0.0
 40
0.0
 40
0.0
 40
0.0
 40
0.2720296330706937
 40
0.5288266104955744
 40
0.7725670773071919
 40
1.0
 40
1.0
 40
1.0
 40
1.0
 10
988.3263532003308
 20
859.2429859373061
 30
0.0
 10
988.3926061611821
 20
859.1756916210489
 30
0.0
 10
988.5214021615548
 20
859.0448712219246
 30
0.0
 10
988.7093352860355
 20
858.853533094384
 30
0.0
 10
988.8867501196157
 20
858.6735620737938
 30
0.0
 10
989.000576480087
 20
858.5560963042763
 30
0.0
 10
989.0555198669974
 20
858.4993961937164
 30
0.0
  0
SPLINE
  5
BA
330
1F
100
AcDbEntity
  8
0
  6
Continuous
 62
     7
370
    25
100
AcDbSpline
210
0.0
220
0.0
230
1.0
 70
     8
 71
     3
 72
    11
 73
     7
 74
     0
 42
0.00000001
 43
0.00000001
 40
0.0
 40
0.0
 40
0.0
 40
0.0
 40
0.2222203030926402
 40
0.4629659179987696
 40
0.7222207721602084
 40
1.0
 40
1.0
 40
1.0
 40
1.0
 10
987.4257121746898
 20
860.1596526039727
 30
0.0
 10
987.4925607271352
 20
860.0918843932116
 30
0.0
 10
987.6318306364058
 20
859.9506985003404
 30
0.0
 10
987.8475654229243
 20
859.7289539097414
 30
0.0
 10
988.082193127773
 20
859.4924073890484
 30
0.0
 10
988.2431162237065
 20
859.3280165786014
 30
0.0
 10
988.3263532003308
 20
859.2429859373061
 30
0.0
  0
SPLINE
  5
BB
330
1F
100
AcDbEntity
  8
0
  6
Continuous
 62
     7
370
    25
100
AcDbSpline
210
0.0
220
0.0
230
1.0
 70
     8
 71
     3
 72
    11
 73
     7
 74
     0
 42
0.00000001
 43
0.00000001
 40
0.0
 40
0.0
 40
0.0
 40
0.0
 40
0.2643689930662462
 40
0.5205270037829519
 40
0.7648662845344265
 40
1.0
 40
1.0
 40
1.0
 40
1.0
 10
988.395263456741
 20
860.9481141424343
 30
0.0
 10
988.3097774568278
 20
860.8786892800861
 30
0.0
 10
988.1414605491447
 20
860.7419958079541
 30
0.0
 10
987.8944063918774
 20
860.5408027465218
 30
0.0
 10
987.6560482529943
 20
860.3482190676083
 30
0.0
 10
987.501501804163
 20
860.2216983873134
 30
0.0
 10
987.4257121746898
 20
860.1596526039727
 30
0.0
  0
LINE
  5
BC
330
1F
100
AcDbEntity
  8
0
  6
Continuous
 62
     7
370
    25
100
AcDbLine
 10
987.9417378157
 20
861.4737551681
 30
0.0
 11
988.3952634567
 21
860.9481141424
 31
0.0
  0
SPLINE
  5
BD
330
1F
100
AcDbEntity
  8
0
  6
Continuous
 62
     7
370
    25
100
AcDbSpline
210
0.0
220
0.0
230
1.0
 70
     8
 71
     3
 72
    11
 73
     7
 74
     0
 42
0.00000001
 43
0.00000001
 40
0.0
 40
0.0
 40
0.0
 40
0.0
 40
0.2885004639003147
 40
0.5514938149248236
 40
0.7880208742900193
 40
1.0
 40
1.0
 40
1.0
 40
1.0
 10
986.9369301234077
 20
860.6564474757677
 30
0.0
 10
987.0335920086588
 20
860.7350052098366
 30
0.0
 10
987.2183696382484
 20
860.8851751744453
 30
0.0
 10
987.4828050997022
 20
861.0992479748513
 30
0.0
 10
987.7201797586318
 20
861.2942298872541
 30
0.0
 10
987.8706299765739
 20
861.4161375171605
 30
0.0
 10
987.9417378157153
 20
861.4737551680753
 30
0.0
  0
LINE
  5
BE
330
1F
100
AcDbEntity
  8
0
  6
Continuous
 62
     7
370
    25
100
AcDbLine
 10
986.1356480721
 20
861.4737551681
 30
0.0
 11
986.9369301234
 21
860.6564474758
 31
0.0
  0
LINE
  5
BF
330
1F
100
AcDbEntity
  8
0
  6
Continuous
 62
     7
370
    25
100
AcDbLine
 10
1006.0202634567
 20
858.4993961937
 30
0.0
 11
1000.7478275593
 21
864.7814474758
 31
0.0
  0
LINE
  5
C0
330
1F
100
AcDbEntity
  8
0
  6
Continuous
 62
     7
370
    25
100
AcDbLine
 10
1006.1837249952
 20
858.4993961937
 30
0.0
 11
1006.0202634567
 21
858.4993961937
 31
0.0
  0
LINE
  5
C1
330
1F
100
AcDbEntity
  8
0
  6
Continuous
 62
     7
370
    25
100
AcDbLine
 10
1006.1837249952
 20
866.4993961937
 30
0.0
 11
1006.1837249952
 21
858.4993961937
 31
0.0
  0
LINE
  5
C2
330
1F
100
AcDbEntity
  8
0
  6
Continuous
 62
     7
370
    25
100
AcDbLine
 10
1005.4657762773
 20
866.4993961937
 30
0.0
 11
1006.1837249952
 21
866.4993961937
 31
0.0
  0
LINE
  5
C3
330
1F
100
AcDbEntity
  8
0
  6
Continuous
 62
     7
370
    25
100
AcDbLine
 10
1005.4657762773
 20
860.2029218347
 30
0.0
 11
1005.4657762773
 21
866.4993961937
 31
0.0
  0
LINE
  5
C4
330
1F
100
AcDbEntity
  8
0
  6
Continuous
 62
     7
370
    25
100
AcDbLine
 10
1000.180519867
 20
866.4993961937
 30
0.0
 11
1005.4657762773
 21
860.2029218347
 31
0.0
  0
LINE
  5
C5
330
1F
100
AcDbEntity
  8
0
  6
Continuous
 62
     7
370
    25
100
AcDbLine
 10
1000.0298788414
 20
866.4993961937
 30
0.0
 11
1000.180519867
 21
866.4993961937
 31
0.0
  0
LINE
  5
C6
330
1F
100
AcDbEntity
  8
0
  6
Continuous
 62
     7
370
    25
100
AcDbLine
 10
1000.0298788414
 20
858.4993961937
 30
0.0
 11
1000.0298788414
 21
866.4993961937
 31
0.0
  0
LINE
  5
C7
330
1F
100
AcDbEntity
  8
0
  6
Continuous
 62
     7
370
    25
100
AcDbLine
 10
1000.7478275593
 20
858.4993961937
 30
0.0
 11
1000.0298788414
 21
858.4993961937
 31
0.0
  0
LINE
  5
C8
330
1F
100
AcDbEntity
  8
0
  6
Continuous
 62
     7
370
    25
100
AcDbLine
 10
1000.7478275593
 20
864.7814474758
 30
0.0
 11
1000.7478275593
 21
858.4993961937
 31
0.0
  0
SPLINE
  5
C9
330
1F
100
AcDbEntity
  8
0
  6
Continuous
 62
     7
370
    25
100
AcDbSpline
210
0.0
220
0.0
230
1.0
 70
     8
 71
     3
 72
    19
 73
    15
 74
     0
 42
0.00000001
 43
0.00000001
 40
0.0
 40
0.0
 40
0.0
 40
0.0
 40
0.1108026438013203
 40
0.2128292023477712
 40
0.3061013098231092
 40
0.3906473211160102
 40
0.4669244693608541
 40
0.5344810392840288
 40
0.5935869409656761
 40
0.6445570045087152
 40
0.7362004526293706
 40
0.8250240256188649
 40
0.911985584829758
 40
1.0
 40
1.0
 40
1.0
 40
1.0
 10
1010.6196224311
 20
861.8102936296139
 30
0.0
 10
1010.695160458089
 20
861.8891469017249
 30
0.0
 10
1010.840253548647
 20
862.0406078996774
 30
0.0
 10
1011.045470867068
 20
862.261734665698
 30
0.0
 10
1011.229788554639
 20
862.4668764731314
 30
0.0
 10
1011.394399738118
 20
862.6556457267188
 30
0.0
 10
1011.535733464668
 20
862.8308035959658
 30
0.0
 10
1011.66115570912
 20
862.9866772041663
 30
0.0
 10
1011.761648488508
 20
863.1301159477273
 30
0.0
 10
1011.870712250079
 20
863.2963802080988
 30
0.0
 10
1011.976344207561
 20
863.4993797902108
 30
0.0
 10
1012.067115307082
 20
863.7474567942361
 30
0.0
 10
1012.122463532108
 20
864.0028333717812
 30
0.0
 10
1012.129103156121
 20
864.1754094564607
 30
0.0
 10
1012.13244294392
 20
864.262216706537
 30
0.0
  0
LINE
  5
CA
330
1F
100
AcDbEntity
  8
0
  6
Continuous
 62
     7
370
    25
100
AcDbLine
 10
1007.5170583285
 20
858.4993961937
 30
0.0
 11
1010.6196224311
 21
861.8102936296
 31
0.0
  0
LINE
  5
CB
330
1F
100
AcDbEntity
  8
0
  6
Continuous
 62
     7
370
    25
100
AcDbLine
 10
1012.9529557644
 20
858.4993961937
 30
0.0
 11
1007.5170583285
 21
858.4993961937
 31
0.0
  0
LINE
  5
CC
330
1F
100
AcDbEntity
  8
0
  6
Continuous
 62
     7
370
    25
100
AcDbLine
 10
1012.9529557644
 20
859.3199090142
 30
0.0
 11
1012.9529557644
 21
858.4993961937
 31
0.0
  0
LINE
  5
CD
330
1F
100
AcDbEntity
  8
0
  6
Continuous
 62
     7
370
    25
100
AcDbLine
 10
1009.2301993542
 20
859.3199090142
 30
0.0
 11
1012.9529557644
 21
859.3199090142
 31
0.0
  0
LINE
  5
CE
330
1F
100
AcDbEntity
  8
0
  6
Continuous
 62
     7
370
    25
100
AcDbLine
 10
1011.2318019183
 20
861.4561269629
 30
0.0
 11
1009.2301993542
 21
859.3199090142
 31
0.0
  0
SPLINE
  5
CF
330
1F
100
AcDbEntity
  8
0
  6
Continuous
 62
     7
370
    25
100
AcDbSpline
210
0.0
220
0.0
230
1.0
 70
     8
 71
     3
 72
    19
 73
    15
 74
     0
 42
0.00000001
 43
0.00000001
 40
0.0
 40
0.0
 40
0.0
 40
0.0
 40
0.0987021963061576
 40
0.1956723088106677
 40
0.2924224265079562
 40
0.3913425437998254
 40
0.4444624406718977
 40
0.504228775449315
 40
0.5703523379946847
 40
0.6425457530977524
 40
0.7222875053440231
 40
0.8079211226827172
 40
0.9004695379850186
 40
1.0
 40
1.0
 40
1.0
 40
1.0
 10
1012.850391661869
 20
864.3263192706395
 30
0.0
 10
1012.846521346769
 20
864.2148956487542
 30
0.0
 10
1012.838848635118
 20
863.9940037317929
 30
0.0
 10
1012.773215774393
 20
863.6693983312233
 30
0.0
 10
1012.670709463317
 20
863.3548990875968
 30
0.0
 10
1012.547286933376
 20
863.1017852542608
 30
0.0
 10
1012.422778489806
 20
862.8978229828163
 30
0.0
 10
1012.310578472449
 20
862.7298945144281
 30
0.0
 10
1012.179230332971
 20
862.5490820152525
 30
0.0
 10
1012.026822337628
 20
862.3559909583977
 30
0.0
 10
1011.856507201283
 20
862.1491088896009
 30
0.0
 10
1011.666742256468
 20
861.9285607858332
 30
0.0
 10
1011.456174297562
 20
861.6966253119588
 30
0.0
 10
1011.308383438695
 20
861.5382125087867
 30
0.0
 10
1011.23180191828
 20
861.4561269629472
 30
0.0
  0
SPLINE
  5
D0
330
1F
100
AcDbEntity
  8
0
  6
Continuous
 62
     7
370
    25
100
AcDbSpline
210
0.0
220
0.0
230
1.0
 70
     8
 71
     3
 72
    23
 73
    19
 74
     0
 42
0.00000001
 43
0.00000001
 40
0.0
 40
0.0
 40
0.0
 40
0.0
 40
0.0694754602496687
 40
0.1365167976177998
 40
0.2007888236092614
 40
0.2638296728558245
 40
0.3257350229654207
 40
0.3872906922152931
 40
0.4495092187626052
 40
0.5129678195454443
 40
0.5762752154930652
 40
0.6375801002639294
 40
0.6979026059171028
 40
0.7571720884269908
 40
0.8165985284886587
 40
0.8766531708928226
 40
0.9372896424102451
 40
1.0
 40
1.0
 40
1.0
 40
1.0
 10
1010.433724995203
 20
866.7045243988446
 30
0.0
 10
1010.521446307402
 20
866.7024707841122
 30
0.0
 10
1010.693815552331
 20
866.6984355045213
 30
0.0
 10
1010.945385871081
 20
866.6637817233393
 30
0.0
 10
1011.184876829854
 20
866.6095060853156
 30
0.0
 10
1011.41182029619
 20
866.5333565623139
 30
0.0
 10
1011.624405586638
 20
866.4309921568452
 30
0.0
 10
1011.824229688481
 20
866.3080263541979
 30
0.0
 10
1012.013671541718
 20
866.1658095967758
 30
0.0
 10
1012.184201332831
 20
865.9983723088939
 30
0.0
 10
1012.340791228229
 20
865.819624001533
 30
0.0
 10
1012.47588209713
 20
865.6287945075624
 30
0.0
 10
1012.591569327926
 20
865.4316989973566
 30
0.0
 10
1012.687998310512
 20
865.2268345365989
 30
0.0
 10
1012.758983770944
 20
865.0122721859414
 30
0.0
 10
1012.812876817868
 20
864.7911357224175
 30
0.0
 10
1012.843339477727
 20
864.5611361544026
 30
0.0
 10
1012.848014731436
 20
864.4054640272076
 30
0.0
 10
1012.850391661869
 20
864.3263192706395
 30
0.0
  0
SPLINE
  5
D1
330
1F
100
AcDbEntity
  8
0
  6
Continuous
 62
     7
370
    25
100
AcDbSpline
210
0.0
220
0.0
230
1.0
 70
     8
 71
     3
 72
    23
 73
    19
 74
     0
 42
0.00000001
 43
0.00000001
 40
0.0
 40
0.0
 40
0.0
 40
0.0
 40
0.0687907943906147
 40
0.1351032894311228
 40
0.1989786743106483
 40
0.2619042997808551
 40
0.3234949693679676
 40
0.3851953779660491
 40
0.4469692387407732
 40
0.5097647767031295
 40
0.5722505688473671
 40
0.6334051756611517
 40
0.6932511629217506
 40
0.752583162785668
 40
0.8125792661534207
 40
0.8732750849201913
 40
0.9355499428950275
 40
1.0
 40
1.0
 40
1.0
 40
1.0
 10
1007.824750636228
 20
864.037857732178
 30
0.0
 10
1007.829429843103
 20
864.1331054756473
 30
0.0
 10
1007.838619680877
 20
864.3201695089613
 30
0.0
 10
1007.881655770618
 20
864.5929098664449
 30
0.0
 10
1007.943234918515
 20
864.8536065492444
 30
0.0
 10
1008.030301099121
 20
865.1001663526039
 30
0.0
 10
1008.138429734023
 20
865.3347693405588
 30
0.0
 10
1008.268098368036
 20
865.556483662139
 30
0.0
 10
1008.421684312067
 20
865.7644635220579
 30
0.0
 10
1008.595871132742
 20
865.9567808781619
 30
0.0
 10
1008.785056593439
 20
866.1332096114176
 30
0.0
 10
1008.989184455087
 20
866.2855644521173
 30
0.0
 10
1009.203687374599
 20
866.4142905580876
 30
0.0
 10
1009.427914572234
 20
866.5219048251134
 30
0.0
 10
1009.66439586037
 20
866.6026816157936
 30
0.0
 10
1009.910985249718
 20
866.6626167920327
 30
0.0
 10
1010.168766132939
 20
866.6986770108248
 30
0.0
 10
1010.344400469046
 20
866.702553092206
 30
0.0
 10
1010.433724995203
 20
866.7045243988446
 30
0.0
  0
LINE
  5
D2
330
1F
100
AcDbEntity
  8
0
  6
Continuous
 62
     7
370
    25
100
AcDbLine
 10
1008.5426993542
 20
864.0378577322
 30
0.0
 11
1007.8247506362
 21
864.0378577322
 31
0.0
  0
SPLINE
  5
D3
330
1F
100
AcDbEntity
  8
0
  6
Continuous
 62
     7
370
    25
100
AcDbSpline
210
0.0
220
0.0
230
1.0
 70
     8
 71
     3
 72
    23
 73
    19
 74
     0
 42
0.00000001
 43
0.00000001
 40
0.0
 40
0.0
 40
0.0
 40
0.0
 40
0.064438671595241
 40
0.1265469112716763
 40
0.1868871534365685
 40
0.2458775355894543
 40
0.3040408846912667
 40
0.3621912180726614
 40
0.4209759327916427
 40
0.4806602832796648
 40
0.5406002749537592
 40
0.600689098349455
 40
0.6619357897571946
 40
0.7244425059139789
 40
0.7890383938817452
 40
0.856313757050997
 40
0.9263520282058665
 40
1.0
 40
1.0
 40
1.0
 40
1.0
 10
1010.396866020844
 20
865.8840115783318
 30
0.0
 10
1010.334304117401
 20
865.8823772188714
 30
0.0
 10
1010.211442868899
 20
865.879167606747
 30
0.0
 10
1010.031056507901
 20
865.8567158033368
 30
0.0
 10
1009.858974730703
 20
865.8179824538581
 30
0.0
 10
1009.694764666811
 20
865.7650071981162
 30
0.0
 10
1009.538148470668
 20
865.6976733722366
 30
0.0
 10
1009.389887798582
 20
865.6138065272567
 30
0.0
 10
1009.250315480274
 20
865.5137299714795
 30
0.0
 10
1009.119169141199
 20
865.4002658427388
 30
0.0
 10
1008.998337189053
 20
865.2739398971023
 30
0.0
 10
1008.892172901362
 20
865.1331171243779
 30
0.0
 10
1008.799409440463
 20
864.9803687463868
 30
0.0
 10
1008.718474049652
 20
864.8161069165141
 30
0.0
 10
1008.652746758034
 20
864.6388411336923
 30
0.0
 10
1008.602522414191
 20
864.4492006654673
 30
0.0
 10
1008.562781050256
 20
864.2480089364648
 30
0.0
 10
1008.549504431731
 20
864.1090715996497
 30
0.0
 10
1008.542699354177
 20
864.0378577321779
 30
0.0
  0
SPLINE
  5
D4
330
1F
100
AcDbEntity
  8
0
  6
Continuous
 62
     7
370
    25
100
AcDbSpline
210
0.0
220
0.0
230
1.0
 70
     8
 71
     3
 72
    23
 73
    19
 74
     0
 42
0.00000001
 43
0.00000001
 40
0.0
 40
0.0
 40
0.0
 40
0.0
 40
0.0619654006870585
 40
0.1221219056382949
 40
0.1809884968498405
 40
0.2399332164519059
 40
0.2999058311065253
 40
0.3599888474769848
 40
0.4217757417416478
 40
0.4865758264211228
 40
0.5515348046197431
 40
0.6150175427599758
 40
0.6772586166616542
 40
0.7397299623627112
 40
0.8030501026629525
 40
0.8664951320156944
 40
0.9319734741771483
 40
1.0
 40
1.0
 40
1.0
 40
1.0
 10
1012.13244294392
 20
864.262216706537
 30
0.0
 10
1012.130989818665
 20
864.3168027600474
 30
0.0
 10
1012.128125987827
 20
864.4243813894445
 30
0.0
 10
1012.102851250698
 20
864.5821088386301
 30
0.0
 10
1012.064655808196
 20
864.7342569844947
 30
0.0
 10
1012.009923789801
 20
864.8812938281927
 30
0.0
 10
1011.937679812463
 20
865.0217410329153
 30
0.0
 10
1011.849740658366
 20
865.155769559095
 30
0.0
 10
1011.748277656268
 20
865.2853443366952
 30
0.0
 10
1011.630903326369
 20
865.4068375893993
 30
0.0
 10
1011.501962709668
 20
865.5181089162164
 30
0.0
 10
1011.365747282045
 20
865.6166782543063
 30
0.0
 10
1011.221632758022
 20
865.6990533647036
 30
0.0
 10
1011.070226764477
 20
865.7665813582589
 30
0.0
 10
1010.91195140583
 20
865.8195536581362
 30
0.0
 10
1010.746500559836
 20
865.8562589825318
 30
0.0
 10
1010.574331379761
 20
865.8793046601243
 30
0.0
 10
1010.456769103897
 20
865.8824227673434
 30
0.0
 10
1010.396866020844
 20
865.8840115783318
 30
0.0
  0
SPLINE
  5
D5
330
1F
100
AcDbEntity
  8
0
  6
Continuous
 62
     7
370
    25
100
AcDbSpline
210
0.0
220
0.0
230
1.0
 70
     8
 71
     3
 72
    15
 73
    11
 74
     0
 42
0.00000001
 43
0.00000001
 40
0.0
 40
0.0
 40
0.0
 40
0.0
 40
0.1022030370352191
 40
0.21102334237388
 40
0.3250996615652123
 40
0.4465020971348908
 40
0.5737877176488593
 40
0.7089007097660692
 40
0.8503578712933977
 40
1.0
 40
1.0
 40
1.0
 40
1.0
 10
1016.356801918279
 20
862.9096526039727
 30
0.0
 10
1016.294792938151
 20
862.9083255384697
 30
0.0
 10
1016.16676012598
 20
862.905585484885
 30
0.0
 10
1015.970365093456
 20
862.8854106349962
 30
0.0
 10
1015.763984012366
 20
862.8528636763033
 30
0.0
 10
1015.548408022523
 20
862.8080951106596
 30
0.0
 10
1015.322989718288
 20
862.7495097923539
 30
0.0
 10
1015.08820480234
 20
862.6793052194956
 30
0.0
 10
1014.843559621542
 20
862.595369222436
 30
0.0
 10
1014.67871910863
 20
862.5319813053007
 30
0.0
 10
1014.593981405459
 20
862.4993961937164
 30
0.0
  0
SPLINE
  5
D6
330
1F
100
AcDbEntity
  8
0
  6
Continuous
 62
     7
370
    25
100
AcDbSpline
210
0.0
220
0.0
230
1.0
 70
     8
 71
     3
 72
    23
 73
    19
 74
     0
 42
0.00000001
 43
0.00000001
 40
0.0
 40
0.0
 40
0.0
 40
0.0
 40
0.0653513820266008
 40
0.1279160318306172
 40
0.1883602055717011
 40
0.2472160772654495
 40
0.3056301291974128
 40
0.3637698398318243
 40
0.4226609139127817
 40
0.4826872940903938
 40
0.54330022123956
 40
0.6041179553231012
 40
0.6649648912652862
 40
0.727413494112567
 40
0.7914676251494234
 40
0.8580554427291023
 40
0.9270368146149475
 40
1.0
 40
1.0
 40
1.0
 40
1.0
 10
1018.286289097767
 20
861.1436269629471
 30
0.0
 10
1018.284784001855
 20
861.2078001095099
 30
0.0
 10
1018.281837990759
 20
861.3334099130647
 30
0.0
 10
1018.257768115781
 20
861.5171795277874
 30
0.0
 10
1018.215900750401
 20
861.691060767334
 30
0.0
 10
1018.157789024808
 20
861.855893302127
 30
0.0
 10
1018.084007292845
 20
862.0118325989225
 30
0.0
 10
1017.99384429326
 20
862.159039593666
 30
0.0
 10
1017.885607955103
 20
862.2955740696052
 30
0.0
 10
1017.761969352615
 20
862.421499906427
 30
0.0
 10
1017.626522401887
 20
862.5377167632797
 30
0.0
 10
1017.476936704523
 20
862.6367889608842
 30
0.0
 10
1017.316342586134
 20
862.7201350583742
 30
0.0
 10
1017.146674930205
 20
862.7920619117291
 30
0.0
 10
1016.963898019148
 20
862.8437207583561
 30
0.0
 10
1016.771631430852
 20
862.8825044965093
 30
0.0
 10
1016.567798955545
 20
862.9049396112026
 30
0.0
 10
1016.428437382667
 20
862.9080524989187
 30
0.0
 10
1016.356801918279
 20
862.9096526039727
 30
0.0
  0
SPLINE
  5
D7
330
1F
100
AcDbEntity
  8
0
  6
Continuous
 62
     7
370
    25
100
AcDbSpline
210
0.0
220
0.0
230
1.0
 70
     8
 71
     3
 72
    23
 73
    19
 74
     0
 42
0.00000001
 43
0.00000001
 40
0.0
 40
0.0
 40
0.0
 40
0.0
 40
0.0642072952829855
 40
0.1264246897797411
 40
0.1876802842649214
 40
0.2482164244552132
 40
0.3083050600086137
 40
0.3696609913251414
 40
0.4316985517867837
 40
0.4959468922087674
 40
0.5597580239721177
 40
0.6222954078261597
 40
0.6839106352841751
 40
0.745092408056629
 40
0.8067402253892925
 40
0.8690866181212069
 40
0.9332900029748018
 40
1.0
 40
1.0
 40
1.0
 40
1.0
 10
1016.255840379818
 20
859.114780809101
 30
0.0
 10
1016.3243168242
 20
859.116656872884
 30
0.0
 10
1016.459147503489
 20
859.1203508578237
 30
0.0
 10
1016.657573530216
 20
859.1487828854576
 30
0.0
 10
1016.849145814106
 20
859.1925716198749
 30
0.0
 10
1017.031974058126
 20
859.2581027169808
 30
0.0
 10
1017.209257577187
 20
859.3377477876683
 30
0.0
 10
1017.376511909583
 20
859.4399536752476
 30
0.0
 10
1017.538575628761
 20
859.5575765745504
 30
0.0
 10
1017.690411362524
 20
859.6923345860781
 30
0.0
 10
1017.829472960832
 20
859.840836745208
 30
0.0
 10
1017.952344094852
 20
859.9996422158933
 30
0.0
 10
1018.05469132554
 20
860.1690521508485
 30
0.0
 10
1018.140940717242
 20
860.3461336430793
 30
0.0
 10
1018.206433971694
 20
860.5328274880585
 30
0.0
 10
1018.253156214489
 20
860.7282587455954
 30
0.0
 10
1018.280591777503
 20
860.9329101289245
 30
0.0
 10
1018.284365903153
 20
861.0724971226987
 30
0.0
 10
1018.286289097767
 20
861.1436269629471
 30
0.0
  0
SPLINE
  5
D8
330
1F
100
AcDbEntity
  8
0
  6
Continuous
 62
     7
370
    25
100
AcDbSpline
210
0.0
220
0.0
230
1.0
 70
     8
 71
     3
 72
    19
 73
    15
 74
     0
 42
0.00000001
 43
0.00000001
 40
0.0
 40
0.0
 40
0.0
 40
0.0
 40
0.0946872518675575
 40
0.1819941557072734
 40
0.2643769486105104
 40
0.3421798619477688
 40
0.4186176108621415
 40
0.4965090753719102
 40
0.577369091611731
 40
0.6615105924541941
 40
0.7467325508291928
 40
0.8312579843277432
 40
0.9152056162136545
 40
1.0
 40
1.0
 40
1.0
 40
1.0
 10
1014.491417302895
 20
860.5506782449984
 30
0.0
 10
1014.50908257693
 20
860.47438921083
 30
0.0
 10
1014.543036214509
 20
860.3277574511228
 30
0.0
 10
1014.617563640228
 20
860.1217429566472
 30
0.0
 10
1014.708685641308
 20
859.9381561596736
 30
0.0
 10
1014.81703843769
 20
859.7745685407625
 30
0.0
 10
1014.94629565023
 20
859.63191940414
 30
0.0
 10
1015.093791487809
 20
859.5047946911394
 30
0.0
 10
1015.259157712264
 20
859.390108681248
 30
0.0
 10
1015.442913665453
 20
859.2945137847969
 30
0.0
 10
1015.636772132471
 20
859.2129852055969
 30
0.0
 10
1015.839668612493
 20
859.158695617136
 30
0.0
 10
1016.046078547284
 20
859.1205221477809
 30
0.0
 10
1016.18568625059
 20
859.1167009802343
 30
0.0
 10
1016.255840379818
 20
859.114780809101
 30
0.0
  0
LINE
  5
D9
330
1F
100
AcDbEntity
  8
0
  6
Continuous
 62
     7
370
    25
100
AcDbLine
 10
1013.7734685849
 20
860.550678245
 30
0.0
 11
1014.4914173029
 21
860.550678245
 31
0.0
  0
SPLINE
  5
DA
330
1F
100
AcDbEntity
  8
0
  6
Continuous
 62
     7
370
    25
100
AcDbSpline
210
0.0
220
0.0
230
1.0
 70
     8
 71
     3
 72
    23
 73
    19
 74
     0
 42
0.00000001
 43
0.00000001
 40
0.0
 40
0.0
 40
0.0
 40
0.0
 40
0.0654211437588934
 40
0.128708371881884
 40
0.1902361418635403
 40
0.2507244020335407
 40
0.3106371794134461
 40
0.3707664082897288
 40
0.4316147444123576
 40
0.4935229735663543
 40
0.5558834553775378
 40
0.6173423673185109
 40
0.6786680390972787
 40
0.7407113595451524
 40
0.8029853625127431
 40
0.8668025802655155
 40
0.9323471713458904
 40
0.9999999999999999
 40
0.9999999999999999
 40
0.9999999999999999
 40
0.9999999999999999
 10
1016.214173713151
 20
858.2942679885882
 30
0.0
 10
1016.134461300118
 20
858.2958470468377
 30
0.0
 10
1015.977636544223
 20
858.2989536574031
 30
0.0
 10
1015.74787524806
 20
858.3314530522696
 30
0.0
 10
1015.526813292189
 20
858.377999146881
 30
0.0
 10
1015.316230203829
 20
858.4480249065344
 30
0.0
 10
1015.114238743931
 20
858.5357672943978
 30
0.0
 10
1014.923558246128
 20
858.6466614006731
 30
0.0
 10
1014.739316472304
 20
858.7723279235234
 30
0.0
 10
1014.569003245448
 20
858.9206258731573
 30
0.0
 10
1014.410932128946
 20
859.0827188606601
 30
0.0
 10
1014.269431537243
 20
859.2586220404677
 30
0.0
 10
1014.143411933273
 20
859.4454321938072
 30
0.0
 10
1014.034891368727
 20
859.6440565459803
 30
0.0
 10
1013.942324462861
 20
859.8539731881234
 30
0.0
 10
1013.869604489657
 20
860.0759686187336
 30
0.0
 10
1013.81091110693
 20
860.3088829134522
 30
0.0
 10
1013.786080431556
 20
860.4692337943907
 30
0.0
 10
1013.773468584946
 20
860.5506782449984
 30
0.0
  0
SPLINE
  5
DB
330
1F
100
AcDbEntity
  8
0
  6
Continuous
 62
     7
370
    25
100
AcDbSpline
210
0.0
220
0.0
230
1.0
 70
     8
 71
     3
 72
    31
 73
    27
 74
     0
 42
0.00000001
 43
0.00000001
 40
0.0
 40
0.0
 40
0.0
 40
0.0
 40
0.0440144705761367
 40
0.0874341236677011
 40
0.1301183986578954
 40
0.1725536945581833
 40
0.2145547559681404
 40
0.2562980920971301
 40
0.2984382251332484
 40
0.3408490025880952
 40
0.3827151889670267
 40
0.4239240454075298
 40
0.4642462432504169
 40
0.5040736714617933
 40
0.543861905868489
 40
0.5835667249796541
 40
0.6230943188523342
 40
0.6632290607685833
 40
0.7035512586114718
 40
0.7439378946861861
 40
0.7845412548000941
 40
0.8257501112405983
 40
0.8677573633885093
 40
0.9107451640323095
 40
0.9549144468914776
 40
1.0
 40
1.0
 40
1.0
 40
1.0
 10
1019.004237815715
 20
861.1131782449985
 30
0.0
 10
1019.002717643662
 20
861.0479845984796
 30
0.0
 10
1018.999697843365
 20
860.9184783411636
 30
0.0
 10
1018.984341071599
 20
860.7261487395971
 30
0.0
 10
1018.954773720595
 20
860.5378908354089
 30
0.0
 10
1018.9150760655
 20
860.3536796540632
 30
0.0
 10
1018.863550538722
 20
860.1738639462253
 30
0.0
 10
1018.801175558373
 20
859.9979290252498
 30
0.0
 10
1018.724841781208
 20
859.8269699241225
 30
0.0
 10
1018.641112923473
 20
859.6593690212111
 30
0.0
 10
1018.546835259393
 20
859.4989152904802
 30
0.0
 10
1018.442198671189
 20
859.348860464097
 30
0.0
 10
1018.331648976967
 20
859.206953535
 30
0.0
 10
1018.212697238776
 20
859.0747164309789
 30
0.0
 10
1018.084237821376
 20
858.9530181043665
 30
0.0
 10
1017.94782646855
 20
858.841136318067
 30
0.0
 10
1017.804551682197
 20
858.7371789916601
 30
0.0
 10
1017.652196842607
 20
858.6453659741161
 30
0.0
 10
1017.494156881547
 20
858.5608792171954
 30
0.0
 10
1017.328149528083
 20
858.4915682747146
 30
0.0
 10
1017.157953641323
 20
858.4296013533775
 30
0.0
 10
1016.981119639963
 20
858.3802081474082
 30
0.0
 10
1016.79804806827
 20
858.3415051656498
 30
0.0
 10
1016.608437152883
 20
858.3152180785585
 30
0.0
 10
1016.413281335685
 20
858.2960719357693
 30
0.0
 10
1016.280995592646
 20
858.2948734055964
 30
0.0
 10
1016.214173713151
 20
858.2942679885882
 30
0.0
  0
SPLINE
  5
DC
330
1F
100
AcDbEntity
  8
0
  6
Continuous
 62
     7
370
    25
100
AcDbSpline
210
0.0
220
0.0
230
1.0
 70
     8
 71
     3
 72
    23
 73
    19
 74
     0
 42
0.00000001
 43
0.00000001
 40
0.0
 40
0.0
 40
0.0
 40
0.0
 40
0.065807645810693
 40
0.1293942736680565
 40
0.1908940606321875
 40
0.2512810689298345
 40
0.3108149644652744
 40
0.3703709874482429
 40
0.4307682625897246
 40
0.4928812506175039
 40
0.5551039481552502
 40
0.6160670509938422
 40
0.67725603317465
 40
0.7382598051991143
 40
0.8007621343762915
 40
0.8647775815744837
 40
0.9310452949994044
 40
1.0
 40
1.0
 40
1.0
 40
1.0
 10
1016.486609610587
 20
863.7301654244857
 30
0.0
 10
1016.575943872787
 20
863.7282318571836
 30
0.0
 10
1016.751597352387
 20
863.724429980767
 30
0.0
 10
1017.008600659801
 20
863.687922896323
 30
0.0
 10
1017.253932987156
 20
863.6304602343109
 30
0.0
 10
1017.487081261845
 20
863.5501847560557
 30
0.0
 10
1017.708476806159
 20
863.4475339373257
 30
0.0
 10
1017.916082660972
 20
863.3193055022223
 30
0.0
 10
1018.113015033513
 20
863.1695150310229
 30
0.0
 10
1018.295740962551
 20
862.9972978608296
 30
0.0
 10
1018.461510809786
 20
862.8077627368245
 30
0.0
 10
1018.607261643311
 20
862.6039733172967
 30
0.0
 10
1018.731061849721
 20
862.3879100895604
 30
0.0
 10
1018.830629289438
 20
862.1575086981587
 30
0.0
 10
1018.910136339212
 20
861.9153163475065
 30
0.0
 10
1018.963055184569
 20
861.6587847302443
 30
0.0
 10
1018.998293376481
 20
861.3903318844993
 30
0.0
 10
1019.002230259497
 20
861.2067785814659
 30
0.0
 10
1019.004237815715
 20
861.1131782449985
 30
0.0
  0
SPLINE
  5
DD
330
1F
100
AcDbEntity
  8
0
  6
Continuous
 62
     7
370
    25
100
AcDbSpline
210
0.0
220
0.0
230
1.0
 70
     8
 71
     3
 72
    11
 73
     7
 74
     0
 42
0.00000001
 43
0.00000001
 40
0.0
 40
0.0
 40
0.0
 40
0.0
 40
0.2750683690187469
 40
0.5329014600899354
 40
0.7739734595924479
 40
0.9999999999999999
 40
0.9999999999999999
 40
0.9999999999999999
 40
0.9999999999999999
 10
1015.54430191828
 20
863.5747167065368
 30
0.0
 10
1015.629001059705
 20
863.5981001849603
 30
0.0
 10
1015.793092250179
 20
863.6434019760688
 30
0.0
 10
1016.035286218096
 20
863.6937008799077
 30
0.0
 10
1016.265211254601
 20
863.7240218948962
 30
0.0
 10
1016.414412101254
 20
863.7281620332097
 30
0.0
 10
1016.486609610587
 20
863.7301654244857
 30
0.0
  0
LINE
  5
DE
330
1F
100
AcDbEntity
  8
0
  6
Continuous
 62
     7
370
    25
100
AcDbLine
 10
1015.9753916619
 20
865.6788833732
 30
0.0
 11
1015.5443019183
 21
863.5747167065
 31
0.0
  0
LINE
  5
DF
330
1F
100
AcDbEntity
  8
0
  6
Continuous
 62
     7
370
    25
100
AcDbLine
 10
1018.696545508
 20
865.6788833732
 30
0.0
 11
1015.9753916619
 21
865.6788833732
 31
0.0
  0
LINE
  5
E0
330
1F
100
AcDbEntity
  8
0
  6
Continuous
 62
     7
370
    25
100
AcDbLine
 10
1018.696545508
 20
866.4993961937
 30
0.0
 11
1018.696545508
 21
865.6788833732
 31
0.0
  0
LINE
  5
E1
330
1F
100
AcDbEntity
  8
0
  6
Continuous
 62
     7
370
    25
100
AcDbLine
 10
1015.414494226
 20
866.4993961937
 30
0.0
 11
1018.696545508
 21
866.4993961937
 31
0.0
  0
LINE
  5
E2
330
1F
100
AcDbEntity
  8
0
  6
Continuous
 62
     7
370
    25
100
AcDbLine
 10
1014.5939814055
 20
862.4993961937
 30
0.0
 11
1015.414494226
 21
866.4993961937
 31
0.0
  0
ARC
  5
E3
330
1F
100
AcDbEntity
  8
0
  6
Continuous
 62
     7
370
    25
100
AcDbCircle
 10
991.5218898087
 20
577.9922324032
 30
0.0
 40
2.0
100
AcDbArc
 50
0.0
 51
15.0
  0
LINE
  5
E4
330
1F
100
AcDbEntity
  8
0
  6
Continuous
 62
     7
370
    25
100
AcDbLine
 10
993.4537414613
 20
578.5098704934
 30
0.0
 11
992.741008093
 21
581.1698276362
 31
0.0
  0
ARC
  5
E5
330
1F
100
AcDbEntity
  8
0
  6
Continuous
 62
     7
370
    25
100
AcDbCircle
 10
990.8091564404
 20
580.652189546
 30
0.0
 40
1.999999999999922
100
AcDbArc
 50
15.0
 51
104.0205372609
  0
ARC
  5
E6
330
1F
100
AcDbEntity
  8
0
  6
Continuous
 62
     7
370
    25
100
AcDbCircle
 10
962.4636043964
 20
694.1666365531
 30
0.0
 40
115.0000000000001
100
AcDbArc
 50
255.9794627391
 51
284.0205372609
  0
ARC
  5
E7
330
1F
100
AcDbEntity
  8
0
  6
Continuous
 62
     7
370
    25
100
AcDbCircle
 10
934.1180523524
 20
580.652189546
 30
0.0
 40
2.00000000000003
100
AcDbArc
 50
75.9794627391
 51
165.0
  0
LINE
  5
E8
330
1F
100
AcDbEntity
  8
0
  6
Continuous
 62
     7
370
    25
100
AcDbLine
 10
932.1862006998
 20
581.1698276362
 30
0.0
 11
931.4734673315
 21
578.5098704934
 31
0.0
  0
ARC
  5
E9
330
1F
100
AcDbEntity
  8
0
  6
Continuous
 62
     7
370
    25
100
AcDbCircle
 10
933.4053189841
 20
577.9922324032
 30
0.0
 40
2.0
100
AcDbArc
 50
165.0
 51
180.0
  0
LINE
  5
EA
330
1F
100
AcDbEntity
  8
0
  6
Continuous
 62
     7
370
    25
100
AcDbLine
 10
931.4053189841
 20
577.9922324032
 30
0.0
 11
931.4053189841
 21
559.1666365531
 31
0.0
  0
ARC
  5
EB
330
1F
100
AcDbEntity
  8
0
  6
Continuous
 62
     7
370
    25
100
AcDbCircle
 10
936.4053189841
 20
559.1666365531
 30
0.0
 40
5.0
100
AcDbArc
 50
180.0
 51
270.0
  0
LINE
  5
EC
330
1F
100
AcDbEntity
  8
0
  6
Continuous
 62
     7
370
    25
100
AcDbLine
 10
988.5218898087
 20
554.1666365531
 30
0.0
 11
936.4053189841
 21
554.1666365531
 31
0.0
  0
ARC
  5
ED
330
1F
100
AcDbEntity
  8
0
  6
Continuous
 62
     7
370
    25
100
AcDbCircle
 10
988.5218898087
 20
559.1666365531
 30
0.0
 40
5.0
100
AcDbArc
 50
270.0
 51
0.0
  0
LINE
  5
EE
330
1F
100
AcDbEntity
  8
0
  6
Continuous
 62
     7
370
    25
100
AcDbLine
 10
993.5218898087
 20
559.1666365531
 30
0.0
 11
993.5218898087
 21
577.9922324032
 31
0.0
  0
ARC
  5
EF
330
1F
100
AcDbEntity
  8
0
  6
Continuous
 62
     7
370
    25
100
AcDbCircle
 10
999.775239052
 20
784.2448909729
 30
0.0
 40
12.49999999999997
100
AcDbArc
 50
295.8943462161
 51
199.1056537839
  0
ARC
  5
F0
330
1F
100
AcDbEntity
  8
0
  6
Continuous
 62
     7
370
    25
100
AcDbCircle
 10
998.8185304711
 20
781.9351921416
 30
0.0
 40
11.0
100
AcDbArc
 50
189.3213685251
 51
305.6786314749
  0
ARC
  5
F1
330
1F
100
AcDbEntity
  8
0
  6
Continuous
 62
     7
370
    25
100
AcDbCircle
 10
1052.5418588163
 20
731.4782712087
 30
0.0
 40
12.5
100
AcDbArc
 50
250.8943462161
 51
154.1056537839
  0
ARC
  5
F2
330
1F
100
AcDbEntity
  8
0
  6
Continuous
 62
     7
370
    25
100
AcDbCircle
 10
1050.232159985
 20
730.5215626277
 30
0.0
 40
11.00000000000013
100
AcDbArc
 50
144.3213685251
 51
260.6786314749
  0
ARC
  5
F3
330
1F
100
AcDbEntity
  8
0
  6
Continuous
 62
     7
370
    25
100
AcDbCircle
 10
1052.5418588163
 20
656.8550018975
 30
0.0
 40
12.49999999999997
100
AcDbArc
 50
205.8943462161
 51
109.1056537839
  0
ARC
  5
F4
330
1F
100
AcDbEntity
  8
0
  6
Continuous
 62
     7
370
    25
100
AcDbCircle
 10
1050.232159985
 20
657.8117104784
 30
0.0
 40
11.00000000000001
100
AcDbArc
 50
99.3213685251
 51
215.6786314749
  0
ARC
  5
F5
330
1F
100
AcDbEntity
  8
0
  6
Continuous
 62
     7
370
    25
100
AcDbCircle
 10
999.775239052
 20
604.0883821332
 30
0.0
 40
12.49999999999999
100
AcDbArc
 50
160.8943462161
 51
64.1056537839
  0
ARC
  5
F6
330
1F
100
AcDbEntity
  8
0
  6
Continuous
 62
     7
370
    25
100
AcDbCircle
 10
998.8185304711
 20
606.3980809645
 30
0.0
 40
11.00000000000004
100
AcDbArc
 50
54.3213685251
 51
170.6786314749
  0
ARC
  5
F7
330
1F
100
AcDbEntity
  8
0
  6
Continuous
 62
     7
370
    25
100
AcDbCircle
 10
925.1519697408
 20
604.0883821332
 30
0.0
 40
12.49999999999997
100
AcDbArc
 50
115.8943462161
 51
19.1056537839
  0
ARC
  5
F8
330
1F
100
AcDbEntity
  8
0
  6
Continuous
 62
     7
370
    25
100
AcDbCircle
 10
926.1086783217
 20
606.3980809645
 30
0.0
 40
11.0
100
AcDbArc
 50
9.3213685251
 51
125.6786314749
  0
ARC
  5
F9
330
1F
100
AcDbEntity
  8
0
  6
Continuous
 62
     7
370
    25
100
AcDbCircle
 10
872.3853499766
 20
656.8550018975
 30
0.0
 40
12.50000000000014
100
AcDbArc
 50
70.8943462161
 51
334.1056537839
  0
ARC
  5
FA
330
1F
100
AcDbEntity
  8
0
  6
Continuous
 62
     7
370
    25
100
AcDbCircle
 10
874.6950488078
 20
657.8117104784
 30
0.0
 40
11.00000000000013
100
AcDbArc
 50
324.3213685251
 51
80.6786314749
  0
ARC
  5
FB
330
1F
100
AcDbEntity
  8
0
  6
Continuous
 62
     7
370
    25
100
AcDbCircle
 10
872.3853499766
 20
731.4782712087
 30
0.0
 40
12.50000000000011
100
AcDbArc
 50
25.8943462161
 51
289.1056537839
  0
ARC
  5
FC
330
1F
100
AcDbEntity
  8
0
  6
Continuous
 62
     7
370
    25
100
AcDbCircle
 10
874.6950488078
 20
730.5215626277
 30
0.0
 40
11.00000000000011
100
AcDbArc
 50
279.3213685251
 51
35.6786314749
  0
ARC
  5
FD
330
1F
100
AcDbEntity
  8
0
  6
Continuous
 62
     7
370
    25
100
AcDbCircle
 10
925.1519697408
 20
784.2448909729
 30
0.0
 40
12.49999999999997
100
AcDbArc
 50
340.8943462161
 51
244.1056537839
  0
ARC
  5
FE
330
1F
100
AcDbEntity
  8
0
  6
Continuous
 62
     7
370
    25
100
AcDbCircle
 10
926.1086783217
 20
781.9351921416
 30
0.0
 40
11.0
100
AcDbArc
 50
234.3213685251
 51
350.6786314749
  0
ARC
  5
FF
330
1F
100
AcDbEntity
  8
0
  6
Continuous
 62
     7
370
    25
100
AcDbCircle
 10
867.4636043964
 20
504.1666365531
 30
0.0
 40
5.0
100
AcDbArc
 50
180.0
 51
270.0
  0
LINE
  5
100
330
1F
100
AcDbEntity
  8
0
  6
Continuous
 62
     7
370
    25
100
AcDbLine
 10
862.4636043964
 20
626.3433367218
 30
0.0
 11
862.4636043964
 21
504.1666365531
 31
0.0
  0
ARC
  5
101
330
1F
100
AcDbEntity
  8
0
  6
Continuous
 62
     7
370
    25
100
AcDbCircle
 10
857.4636043964
 20
626.3433367218
 30
0.0
 40
5.0
100
AcDbArc
 50
0.0
 51
32.8598803789
  0
ARC
  5
102
330
1F
100
AcDbEntity
  8
0
  6
Continuous
 62
     7
370
    25
100
AcDbCircle
 10
962.4636043964
 20
694.1666365531
 30
0.0
 40
120.0
100
AcDbArc
 50
195.971161409
 51
212.8598803789
  0
ARC
  5
103
330
1F
100
AcDbEntity
  8
0
  6
Continuous
 62
     7
370
    25
100
AcDbCircle
 10
849.0183677846
 20
661.698524657
 30
0.0
 40
2.000000000000091
100
AcDbArc
 50
105.0
 51
195.971161409
  0
LINE
  5
104
330
1F
100
AcDbEntity
  8
0
  6
Continuous
 62
     7
370
    25
100
AcDbLine
 10
848.5007296944
 20
663.6303763095
 30
0.0
 11
849.4667954795
 21
663.8892328565
 31
0.0
  0
ARC
  5
105
330
1F
100
AcDbEntity
  8
0
  6
Continuous
 62
     7
370
    25
100
AcDbCircle
 10
848.9491573893
 20
665.8210845091
 30
0.0
 40
2.000000000000113
100
AcDbArc
 50
285.0
 51
14.0205372609
  0
ARC
  5
106
330
1F
100
AcDbEntity
  8
0
  6
Continuous
 62
     7
370
    25
100
AcDbCircle
 10
962.4636043964
 20
694.1666365531
 30
0.0
 40
114.9999999999999
100
AcDbArc
 50
165.9794627391
 51
194.0205372609
  0
ARC
  5
107
330
1F
100
AcDbEntity
  8
0
  6
Continuous
 62
     7
370
    25
100
AcDbCircle
 10
848.9491573893
 20
722.512188597
 30
0.0
 40
2.000000000000113
100
AcDbArc
 50
345.9794627391
 51
75.0
  0
LINE
  5
108
330
1F
100
AcDbEntity
  8
0
  6
Continuous
 62
     7
370
    25
100
AcDbLine
 10
849.4667954795
 20
724.4440402496
 30
0.0
 11
848.5007296944
 21
724.7028967966
 31
0.0
  0
ARC
  5
109
330
1F
100
AcDbEntity
  8
0
  6
Continuous
 62
     7
370
    25
100
AcDbCircle
 10
849.0183677846
 20
726.6347484492
 30
0.0
 40
1.999999999999951
100
AcDbArc
 50
164.028838591
 51
255.0
  0
ARC
  5
10A
330
1F
100
AcDbEntity
  8
0
  6
Continuous
 62
     7
370
    25
100
AcDbCircle
 10
962.4636043964
 20
694.1666365531
 30
0.0
 40
120.0
100
AcDbArc
 50
147.1401196211
 51
164.028838591
  0
ARC
  5
10B
330
1F
100
AcDbEntity
  8
0
  6
Continuous
 62
     7
370
    25
100
AcDbCircle
 10
857.4636043964
 20
761.9899363843
 30
0.0
 40
5.0
100
AcDbArc
 50
327.1401196211
 51
0.0
  0
LINE
  5
10C
330
1F
100
AcDbEntity
  8
0
  6
Continuous
 62
     7
370
    25
100
AcDbLine
 10
862.4636043964
 20
884.1666365531
 30
0.0
 11
862.4636043964
 21
761.9899363843
 31
0.0
  0
ARC
  5
10D
330
1F
100
AcDbEntity
  8
0
  6
Continuous
 62
     7
370
    25
100
AcDbCircle
 10
867.4636043964
 20
884.1666365531
 30
0.0
 40
5.0
100
AcDbArc
 50
90.0
 51
180.0
  0
LINE
  5
10E
330
1F
100
AcDbEntity
  8
0
  6
Continuous
 62
     7
370
    25
100
AcDbLine
 10
1057.4636043964
 20
889.1666365531
 30
0.0
 11
867.4636043964
 21
889.1666365531
 31
0.0
  0
ARC
  5
10F
330
1F
100
AcDbEntity
  8
0
  6
Continuous
 62
     7
370
    25
100
AcDbCircle
 10
1057.4636043964
 20
884.1666365531
 30
0.0
 40
5.000000000000114
100
AcDbArc
 50
0.0
 51
90.0
  0
LINE
  5
110
330
1F
100
AcDbEntity
  8
0
  6
Continuous
 62
     7
370
    25
100
AcDbLine
 10
1062.4636043964
 20
761.9899363843
 30
0.0
 11
1062.4636043964
 21
884.1666365531
 31
0.0
  0
ARC
  5
111
330
1F
100
AcDbEntity
  8
0
  6
Continuous
 62
     7
370
    25
100
AcDbCircle
 10
1067.4636043964
 20
761.9899363843
 30
0.0
 40
5.000000000000093
100
AcDbArc
 50
180.0
 51
212.8598803789
  0
ARC
  5
112
330
1F
100
AcDbEntity
  8
0
  6
Continuous
 62
     7
370
    25
100
AcDbCircle
 10
962.4636043964
 20
694.1666365531
 30
0.0
 40
120.0000000000001
100
AcDbArc
 50
15.971161409
 51
32.8598803789
  0
ARC
  5
113
330
1F
100
AcDbEntity
  8
0
  6
Continuous
 62
     7
370
    25
100
AcDbCircle
 10
1075.9088410082
 20
726.6347484492
 30
0.0
 40
2.000000000000002
100
AcDbArc
 50
285.0
 51
15.971161409
  0
LINE
  5
114
330
1F
100
AcDbEntity
  8
0
  6
Continuous
 62
     7
370
    25
100
AcDbLine
 10
1076.4264790984
 20
724.7028967966
 30
0.0
 11
1075.4604133133
 21
724.4440402496
 31
0.0
  0
ARC
  5
115
330
1F
100
AcDbEntity
  8
0
  6
Continuous
 62
     7
370
    25
100
AcDbCircle
 10
1075.9780514035
 20
722.5121885971
 30
0.0
 40
2.000000000000002
100
AcDbArc
 50
105.0
 51
194.0205372609
  0
ARC
  5
116
330
1F
100
AcDbEntity
  8
0
  6
Continuous
 62
     7
370
    25
100
AcDbCircle
 10
962.4636043964
 20
694.1666365531
 30
0.0
 40
115.0000000000002
100
AcDbArc
 50
345.9794627391
 51
14.0205372609
  0
ARC
  5
117
330
1F
100
AcDbEntity
  8
0
  6
Continuous
 62
     7
370
    25
100
AcDbCircle
 10
1075.9780514035
 20
665.8210845091
 30
0.0
 40
2.000000000000002
100
AcDbArc
 50
165.9794627391
 51
255.0
  0
LINE
  5
118
330
1F
100
AcDbEntity
  8
0
  6
Continuous
 62
     7
370
    25
100
AcDbLine
 10
1075.4604133133
 20
663.8892328565
 30
0.0
 11
1076.4264790984
 21
663.6303763095
 31
0.0
  0
ARC
  5
119
330
1F
100
AcDbEntity
  8
0
  6
Continuous
 62
     7
370
    25
100
AcDbCircle
 10
1075.9088410082
 20
661.698524657
 30
0.0
 40
1.999999999999907
100
AcDbArc
 50
344.028838591
 51
75.0
  0
ARC
  5
11A
330
1F
100
AcDbEntity
  8
0
  6
Continuous
 62
     7
370
    25
100
AcDbCircle
 10
962.4636043964
 20
694.1666365531
 30
0.0
 40
120.0000000000001
100
AcDbArc
 50
327.1401196211
 51
344.028838591
  0
ARC
  5
11B
330
1F
100
AcDbEntity
  8
0
  6
Continuous
 62
     7
370
    25
100
AcDbCircle
 10
1067.4636043964
 20
626.3433367218
 30
0.0
 40
5.000000000000093
100
AcDbArc
 50
147.1401196211
 51
180.0
  0
LINE
  5
11C
330
1F
100
AcDbEntity
  8
0
  6
Continuous
 62
     7
370
    25
100
AcDbLine
 10
1062.4636043964
 20
504.1666365531
 30
0.0
 11
1062.4636043964
 21
626.3433367218
 31
0.0
  0
ARC
  5
11D
330
1F
100
AcDbEntity
  8
0
  6
Continuous
 62
     7
370
    25
100
AcDbCircle
 10
1057.4636043964
 20
504.1666365531
 30
0.0
 40
5.000000000000057
100
AcDbArc
 50
270.0
 51
0.0
  0
LINE
  5
11E
330
1F
100
AcDbEntity
  8
0
  6
Continuous
 62
     7
370
    25
100
AcDbLine
 10
867.4636043964
 20
499.1666365531
 30
0.0
 11
1057.4636043964
 21
499.1666365531
 31
0.0
  0
LINE
  5
11F
330
1F
100
AcDbEntity
  8
0
  6
Continuous
 62
     7
370
    25
100
AcDbLine
 10
931.4053189841
 20
810.0777357077
 30
0.0
 11
932.1862006998
 21
807.1634454699
 31
0.0
  0
ARC
  5
120
330
1F
100
AcDbEntity
  8
0
  6
Continuous
 62
     7
370
    25
100
AcDbCircle
 10
934.1180523524
 20
807.6810835601
 30
0.0
 40
1.999999999999922
100
AcDbArc
 50
195.0
 51
284.0205372609
  0
ARC
  5
121
330
1F
100
AcDbEntity
  8
0
  6
Continuous
 62
     7
370
    25
100
AcDbCircle
 10
962.4636043964
 20
694.1666365531
 30
0.0
 40
115.0
100
AcDbArc
 50
75.9794627391
 51
104.0205372609
  0
ARC
  5
122
330
1F
100
AcDbEntity
  8
0
  6
Continuous
 62
     7
370
    25
100
AcDbCircle
 10
990.8091564404
 20
807.6810835601
 30
0.0
 40
2.00000000000003
100
AcDbArc
 50
255.9794627391
 51
345.0
  0
LINE
  5
123
330
1F
100
AcDbEntity
  8
0
  6
Continuous
 62
     7
370
    25
100
AcDbLine
 10
992.741008093
 20
807.1634454699
 30
0.0
 11
993.5218898087
 21
810.0777357077
 31
0.0
  0
LINE
  5
124
330
1F
100
AcDbEntity
  8
0
  6
Continuous
 62
     7
370
    25
100
AcDbLine
 10
993.5218898087
 20
810.0777357077
 30
0.0
 11
993.5218898087
 21
829.1666365531
 31
0.0
  0
ARC
  5
125
330
1F
100
AcDbEntity
  8
0
  6
Continuous
 62
     7
370
    25
100
AcDbCircle
 10
988.5218898087
 20
829.1666365531
 30
0.0
 40
5.0
100
AcDbArc
 50
0.0
 51
90.0
  0
LINE
  5
126
330
1F
100
AcDbEntity
  8
0
  6
Continuous
 62
     7
370
    25
100
AcDbLine
 10
988.5218898087
 20
834.1666365531
 30
0.0
 11
936.4053189841
 21
834.1666365531
 31
0.0
  0
ARC
  5
127
330
1F
100
AcDbEntity
  8
0
  6
Continuous
 62
     7
370
    25
100
AcDbCircle
 10
936.4053189841
 20
829.1666365531
 30
0.0
 40
5.0
100
AcDbArc
 50
90.0
 51
180.0
  0
LINE
  5
128
330
1F
100
AcDbEntity
  8
0
  6
Continuous
 62
     7
370
    25
100
AcDbLine
 10
931.4053189841
 20
829.1666365531
 30
0.0
 11
931.4053189841
 21
810.0777357077
 31
0.0
  0
CIRCLE
  5
129
330
1F
100
AcDbEntity
  8
0
  6
Continuous
 62
     7
370
    25
100
AcDbCircle
 10
962.4636043964
 20
694.1666365531
 30
0.0
 40
70.20000000000016
  0
LINE
  5
12A
330
1F
100
AcDbEntity
  8
0
  6
Continuous
 62
     7
370
    25
100
AcDbLine
 10
994.1837249952
 20
862.191703886
 30
0.0
 11
994.1837249952
 21
858.4993961937
 31
0.0
  0
LINE
  5
12B
330
1F
100
AcDbEntity
  8
0
  6
Continuous
 62
     7
370
    25
100
AcDbLine
 10
994.7558403798
 20
862.191703886
 30
0.0
 11
994.1837249952
 21
862.191703886
 31
0.0
  0
SPLINE
  5
12C
330
1F
100
AcDbEntity
  8
0
  6
Continuous
 62
     7
370
    25
100
AcDbSpline
210
0.0
220
0.0
230
1.0
 70
     8
 71
     3
 72
    15
 73
    11
 74
     0
 42
0.00000001
 43
0.00000001
 40
0.0
 40
0.0
 40
0.0
 40
0.0
 40
0.0751731173762211
 40
0.1647462575117996
 40
0.2680168809877781
 40
0.3859118756529541
 40
0.5177894792733966
 40
0.6636909770022769
 40
0.8244132205366392
 40
1.0
 40
1.0
 40
1.0
 40
1.0
 10
996.7926993541769
 20
862.3231141424343
 30
0.0
 10
996.7425797336251
 20
862.3124558999706
 30
0.0
 10
996.6327396710866
 20
862.2890977419103
 30
0.0
 10
996.4518420203946
 20
862.263021269122
 30
0.0
 10
996.2412239954122
 20
862.2407638961267
 30
0.0
 10
996.0011730698909
 20
862.2240755816557
 30
0.0
 10
995.7319047157845
 20
862.2097890251712
 30
0.0
 10
995.4332732704593
 20
862.1984333819925
 30
0.0
 10
995.1046925226208
 20
862.1921937160835
 30
0.0
 10
994.8755011075855
 20
862.1918719039726
 30
0.0
 10
994.7558403798179
 20
862.191703886024
 30
0.0
  0
SPLINE
  5
12D
330
1F
100
AcDbEntity
  8
0
  6
Continuous
 62
     7
370
    25
100
AcDbSpline
210
0.0
220
0.0
230
1.0
 70
     8
 71
     3
 72
    23
 73
    19
 74
     0
 42
0.00000001
 43
0.00000001
 40
0.0
 40
0.0
 40
0.0
 40
0.0
 40
0.0701188944197078
 40
0.1371923527859666
 40
0.2020161807247467
 40
0.2646314069747401
 40
0.3261165471458125
 40
0.3860103046676417
 40
0.4458118469576789
 40
0.5052976967309529
 40
0.5646332777264879
 40
0.6242826253338352
 40
0.683902031903748
 40
0.7439527709382653
 40
0.8053877310076312
 40
0.8683880308962778
 40
0.9330840282524734
 40
1.0
 40
1.0
 40
1.0
 40
1.0
 10
998.3888532003308
 20
864.3535628603831
 30
0.0
 10
998.3878899438074
 20
864.2877850848688
 30
0.0
 10
998.3860052673609
 20
864.1590864244221
 30
0.0
 10
998.3633851866092
 20
863.9708057657051
 30
0.0
 10
998.332916177195
 20
863.7908780168328
 30
0.0
 10
998.2860657718758
 20
863.6197021300455
 30
0.0
 10
998.2247042333651
 20
863.4582946546838
 30
0.0
 10
998.1527223982893
 20
863.3041889814936
 30
0.0
 10
998.0659029003011
 20
863.1600068742968
 30
0.0
 10
997.9661432895342
 20
863.0252248913444
 30
0.0
 10
997.8551682166362
 20
862.8997165203406
 30
0.0
 10
997.7334472151567
 20
862.7843912757859
 30
0.0
 10
997.601471689442
 20
862.6799242165343
 30
0.0
 10
997.4596610652673
 20
862.5860811452648
 30
0.0
 10
997.3066328393553
 20
862.5050382206987
 30
0.0
 10
997.1447079169074
 20
862.4324500951545
 30
0.0
 10
996.9724788508001
 20
862.3714876708382
 30
0.0
 10
996.8532959617136
 20
862.3394189590064
 30
0.0
 10
996.7926993541769
 20
862.3231141424343
 30
0.0
  0
SPLINE
  5
12E
330
1F
100
AcDbEntity
  8
0
  6
Continuous
 62
     7
370
    25
100
AcDbSpline
210
0.0
220
0.0
230
1.0
 70
     8
 71
     3
 72
    23
 73
    19
 74
     0
 42
0.00000001
 43
0.00000001
 40
0.0
 40
0.0
 40
0.0
 40
0.0
 40
0.0624813386352055
 40
0.1234903826872939
 40
0.18341109420631
 40
0.2431532209997799
 40
0.3021267353720838
 40
0.3617096708329082
 40
0.4218422916948788
 40
0.4829319014466699
 40
0.5445522544313272
 40
0.6056807199653567
 40
0.6676797383436921
 40
0.7299843875380668
 40
0.7945509212861307
 40
0.8603456197120763
 40
0.9289073562657046
 40
1.0
 40
1.0
 40
1.0
 40
1.0
 10
996.8568019182795
 20
866.3792038860241
 30
0.0
 10
996.9121014240745
 20
866.3640680006945
 30
0.0
 10
997.0213973719879
 20
866.3341528882387
 30
0.0
 10
997.178885470506
 20
866.2742358060086
 30
0.0
 10
997.328722831604
 20
866.203190857036
 30
0.0
 10
997.4714235366214
 20
866.1222218516625
 30
0.0
 10
997.605234012212
 20
866.0278548478062
 30
0.0
 10
997.7321506772772
 20
865.9239151501165
 30
0.0
 10
997.8510534893817
 20
865.8080029933794
 30
0.0
 10
997.9612738136884
 20
865.6814184451567
 30
0.0
 10
998.0624962081658
 20
865.5462865368563
 30
0.0
 10
998.1496497686852
 20
865.4005900113534
 30
0.0
 10
998.2226262876184
 20
865.2467813178223
 30
0.0
 10
998.2852166224393
 20
865.0849674408913
 30
0.0
 10
998.330264518369
 20
864.9137895586254
 30
0.0
 10
998.3642002891243
 20
864.7344370731986
 30
0.0
 10
998.3857400093885
 20
864.5469292098809
 30
0.0
 10
998.387803007686
 20
864.4187923698332
 30
0.0
 10
998.3888532003308
 20
864.3535628603831
 30
0.0
  0
SPLINE
  5
12F
330
1F
100
AcDbEntity
  8
0
  6
Continuous
 62
     7
370
    25
100
AcDbSpline
210
0.0
220
0.0
230
1.0
 70
     8
 71
     3
 72
    15
 73
    11
 74
     0
 42
0.00000001
 43
0.00000001
 40
0.0
 40
0.0
 40
0.0
 40
0.0
 40
0.1769557521312534
 40
0.3390550796425822
 40
0.4863182249420797
 40
0.6187809228353778
 40
0.7356188277673846
 40
0.838742476720111
 40
0.926457067876319
 40
1.0
 40
1.0
 40
1.0
 40
1.0
 10
995.0346865336642
 20
866.4993961937164
 30
0.0
 10
995.1425971762965
 20
866.4992775737373
 30
0.0
 10
995.3493587598638
 20
866.4990502925896
 30
0.0
 10
995.6458503157698
 20
866.492159444988
 30
0.0
 10
995.9151297023443
 20
866.4829555773474
 30
0.0
 10
996.1566162873197
 20
866.4701969643346
 30
0.0
 10
996.3710530829461
 20
866.4551190437688
 30
0.0
 10
996.557469767624
 20
866.433971525192
 30
0.0
 10
996.7173316106728
 20
866.4118908496414
 30
0.0
 10
996.8131177808363
 20
866.3894419204543
 30
0.0
 10
996.8568019182795
 20
866.3792038860241
 30
0.0
  0
LINE
  5
130
330
1F
100
AcDbEntity
  8
0
  6
Continuous
 62
     7
370
    25
100
AcDbLine
 10
993.4657762773
 20
866.4993961937
 30
0.0
 11
995.0346865337
 21
866.4993961937
 31
0.0
  0
LINE
  5
131
330
1F
100
AcDbEntity
  8
0
  6
Continuous
 62
     7
370
    25
100
AcDbLine
 10
993.4657762773
 20
858.4993961937
 30
0.0
 11
993.4657762773
 21
866.4993961937
 31
0.0
  0
LINE
  5
132
330
1F
100
AcDbEntity
  8
0
  6
Continuous
 62
     7
370
    25
100
AcDbLine
 10
994.1837249952
 20
858.4993961937
 30
0.0
 11
993.4657762773
 21
858.4993961937
 31
0.0
  0
SPLINE
  5
133
330
1F
100
AcDbEntity
  8
0
  6
Continuous
 62
     7
370
    25
100
AcDbSpline
210
0.0
220
0.0
230
1.0
 70
     8
 71
     3
 72
    31
 73
    27
 74
     0
 42
0.00000001
 43
0.00000001
 40
0.0
 40
0.0
 40
0.0
 40
0.0
 40
0.03378811616271
 40
0.0671939323738797
 40
0.099862410856826
 40
0.1325666121262591
 40
0.1651511732547866
 40
0.1979131873557927
 40
0.2313190035669621
 40
0.2650832782673754
 40
0.2992553087581145
 40
0.3343985665049798
 40
0.3699428235093105
 40
0.4062835607000635
 40
0.4440638196985083
 40
0.482997706872776
 40
0.5233544466133079
 40
0.5655365896041489
 40
0.6096129240658221
 40
0.6563908113764183
 40
0.7058854949364574
 40
0.7583245002617307
 40
0.8138317829411494
 40
0.8727945590393934
 40
0.9347222295400781
 40
0.9999999999999999
 40
0.9999999999999999
 40
0.9999999999999999
 40
0.9999999999999999
 10
968.1404557644333
 20
866.7045243988446
 30
0.0
 10
968.2040797152547
 20
866.7034093927289
 30
0.0
 10
968.3306077355877
 20
866.7011919963762
 30
0.0
 10
968.5176714504354
 20
866.6798801277257
 30
0.0
 10
968.7004135800688
 20
866.6445175606469
 30
0.0
 10
968.8780550399625
 20
866.5944124758867
 30
0.0
 10
969.0520550090317
 20
866.5322509292364
 30
0.0
 10
969.2210525122218
 20
866.4543375187013
 30
0.0
 10
969.3860972702607
 20
866.363642964771
 30
0.0
 10
969.5445664988777
 20
866.2570741023559
 30
0.0
 10
969.6981999053829
 20
866.138257471049
 30
0.0
 10
969.8432238207478
 20
866.0039427994985
 30
0.0
 10
969.9796514456563
 20
865.8554862983129
 30
0.0
 10
970.1091950008248
 20
865.694476323715
 30
0.0
 10
970.2281792229945
 20
865.5178247012383
 30
0.0
 10
970.341489925247
 20
865.3286038788059
 30
0.0
 10
970.4429117215935
 20
865.1235047592772
 30
0.0
 10
970.5405909791447
 20
864.9059494042119
 30
0.0
 10
970.6249040916914
 20
864.6699181840825
 30
0.0
 10
970.7009412237425
 20
864.4167415886126
 30
0.0
 10
970.7623788661995
 20
864.1434291615191
 30
0.0
 10
970.8135543458295
 20
863.8514148865589
 30
0.0
 10
970.8531998222766
 20
863.5396263534385
 30
0.0
 10
970.8820744327419
 20
863.2087319179832
 30
0.0
 10
970.8973271985506
 20
862.8585138822327
 30
0.0
 10
970.9001996584517
 20
862.6190673698278
 30
0.0
 10
970.9016737131512
 20
862.4961910655113
 30
0.0
  0
SPLINE
  5
134
330
1F
100
AcDbEntity
  8
0
  6
Continuous
 62
     7
370
    25
100
AcDbSpline
210
0.0
220
0.0
230
1.0
 70
     8
 71
     3
 72
    31
 73
    27
 74
     0
 42
0.00000001
 43
0.00000001
 40
0.0
 40
0.0
 40
0.0
 40
0.0
 40
0.0685946222587403
 40
0.1332460424432979
 40
0.1943125864682527
 40
0.2512792231169642
 40
0.3045134392563472
 40
0.3542349066533244
 40
0.4004805887739883
 40
0.4434107549384927
 40
0.4840148686163459
 40
0.5232523007732008
 40
0.5610423727283569
 40
0.5979002393644001
 40
0.6335184888561936
 40
0.6683143511696512
 40
0.7024956712863814
 40
0.7366853535134592
 40
0.7702931693607888
 40
0.803437255019248
 40
0.8359129516660284
 40
0.8684602457892905
 40
0.9008465382431826
 40
0.9334665246307072
 40
0.9662575752981237
 40
0.9999999999999999
 40
0.9999999999999999
 40
0.9999999999999999
 40
0.9999999999999999
 10
965.4657762772538
 20
862.4961910655113
 30
0.0
 10
965.4665260330423
 20
862.6244136660467
 30
0.0
 10
965.4679824444682
 20
862.8734879157553
 30
0.0
 10
965.4841845494791
 20
863.2364242404793
 30
0.0
 10
965.5110996176235
 20
863.5769049010397
 30
0.0
 10
965.5479850412812
 20
863.8949461948419
 30
0.0
 10
965.5928718532209
 20
864.1906302280253
 30
0.0
 10
965.6527929654525
 20
864.4631668157651
 30
0.0
 10
965.7209365142867
 20
864.7138173451665
 30
0.0
 10
965.799913533282
 20
864.9433991702547
 30
0.0
 10
965.8890284796098
 20
865.155005348591
 30
0.0
 10
965.9860210755459
 20
865.3525486658339
 30
0.0
 10
966.094740605657
 20
865.5357302254675
 30
0.0
 10
966.2089735494903
 20
865.7074737464276
 30
0.0
 10
966.3333439989253
 20
865.8649679059529
 30
0.0
 10
966.4643126628505
 20
866.0104368488524
 30
0.0
 10
966.6069912371753
 20
866.1405185641983
 30
0.0
 10
966.7565295418003
 20
866.2590243982213
 30
0.0
 10
966.91428146041
 20
866.3629089049
 30
0.0
 10
967.0757504115944
 20
866.4544123074502
 30
0.0
 10
967.242047796408
 20
866.5325834326105
 30
0.0
 10
967.4136276430319
 20
866.5940472860037
 30
0.0
 10
967.5889477753512
 20
866.6448149357698
 30
0.0
 10
967.7686210706455
 20
866.6795325303906
 30
0.0
 10
967.9529441882144
 20
866.7013768926519
 30
0.0
 10
968.0773588963243
 20
866.7034652760582
 30
0.0
 10
968.1404557644333
 20
866.7045243988446
 30
0.0
  0
SPLINE
  5
135
330
1F
100
AcDbEntity
  8
0
  6
Continuous
 62
     7
370
    25
100
AcDbSpline
210
0.0
220
0.0
230
1.0
 70
     8
 71
     3
 72
    31
 73
    27
 74
     0
 42
0.00000001
 43
0.00000001
 40
0.0
 40
0.0
 40
0.0
 40
0.0
 40
0.0337871463469904
 40
0.0666216577242942
 40
0.099284878095972
 40
0.1313611650426515
 40
0.1635851875953428
 40
0.1961039269870661
 40
0.2289022543238159
 40
0.2621580559050083
 40
0.2959912222583144
 40
0.3302178457247985
 40
0.3650598258919542
 40
0.4009507373401089
 40
0.4376203820767348
 40
0.4757075294370914
 40
0.515380691625048
 40
0.5564135414931631
 40
0.5997648298727302
 40
0.6464241555840858
 40
0.6964314445175632
 40
0.7497815178015564
 40
0.8065733069755284
 40
0.8674355315653955
 40
0.9318867532508699
 40
1.0
 40
1.0
 40
1.0
 40
1.0
 10
968.1404557644333
 20
858.2942679885882
 30
0.0
 10
968.0773606467527
 20
858.2953339439226
 30
0.0
 10
967.9529493901458
 20
858.2974357997796
 30
0.0
 10
967.7686009891414
 20
858.3191814717526
 30
0.0
 10
967.5896696898501
 20
858.3541426219523
 30
0.0
 10
967.4152725377642
 20
858.4030948598746
 30
0.0
 10
967.2445147890014
 20
858.4630144857387
 30
0.0
 10
967.0797232766454
 20
858.5410800482597
 30
0.0
 10
966.9190657139238
 20
858.6309864915877
 30
0.0
 10
966.7629707287397
 20
858.7333760263037
 30
0.0
 10
966.6143715035057
 20
858.8506827305972
 30
0.0
 10
966.472431834217
 20
858.9804296761663
 30
0.0
 10
966.3407175048524
 20
859.1258546162746
 30
0.0
 10
966.2181252862986
 20
859.2846612976637
 30
0.0
 10
966.1016130847082
 20
859.45538870871
 30
0.0
 10
965.9944373742643
 20
859.6403678470996
 30
0.0
 10
965.8953039935373
 20
859.8388652425044
 30
0.0
 10
965.8046903005807
 20
860.0521633240475
 30
0.0
 10
965.7243504982608
 20
860.2833745877268
 30
0.0
 10
965.6533843082873
 20
860.5351441385898
 30
0.0
 10
965.5973519483557
 20
860.8096941639933
 30
0.0
 10
965.5493909075948
 20
861.1048195745199
 30
0.0
 10
965.5107066034955
 20
861.4217885582589
 30
0.0
 10
965.4842967170534
 20
861.7607731941148
 30
0.0
 10
965.4679737112574
 20
862.1215622430888
 30
0.0
 10
965.4665221217257
 20
862.3690360129552
 30
0.0
 10
965.4657762772538
 20
862.4961910655113
 30
0.0
  0
SPLINE
  5
136
330
1F
100
AcDbEntity
  8
0
  6
Continuous
 62
     7
370
    25
100
AcDbSpline
210
0.0
220
0.0
230
1.0
 70
     8
 71
     3
 72
    31
 73
    27
 74
     0
 42
0.00000001
 43
0.00000001
 40
0.0
 40
0.0
 40
0.0
 40
0.0
 40
0.0650632896172805
 40
0.1267731664665253
 40
0.1855157632260813
 40
0.2407646791677175
 40
0.2929797960236003
 40
0.3422503727797692
 40
0.3889192861856605
 40
0.4327756640583094
 40
0.4746284326311184
 40
0.5147746906379532
 40
0.5536058934984424
 40
0.5914264064311743
 40
0.6280281199460676
 40
0.6638036341103216
 40
0.6989843361316639
 40
0.7335914893067048
 40
0.7676284691511402
 40
0.8012083477865918
 40
0.8342638397266235
 40
0.8669806947287756
 40
0.8997197415181608
 40
0.9327019124985387
 40
0.9661758834327498
 40
1.0
 40
1.0
 40
1.0
 40
1.0
 10
970.9016737131512
 20
862.4961910655113
 30
0.0
 10
970.9001843770509
 20
862.3738507045035
 30
0.0
 10
970.8972824663961
 20
862.1354755002548
 30
0.0
 10
970.8822454223556
 20
861.7868332709525
 30
0.0
 10
970.8526256939471
 20
861.4576948862699
 30
0.0
 10
970.8155742920984
 20
861.1472709720787
 30
0.0
 10
970.764257805302
 20
860.8568535576032
 30
0.0
 10
970.701160282442
 20
860.5854376753908
 30
0.0
 10
970.6311024017065
 20
860.33185122587
 30
0.0
 10
970.5446228723126
 20
860.0981716564758
 30
0.0
 10
970.4499698200904
 20
859.8811391470704
 30
0.0
 10
970.3469865145466
 20
859.6784713794599
 30
0.0
 10
970.2366554834937
 20
859.4883769961921
 30
0.0
 10
970.1164526377725
 20
859.3123775746351
 30
0.0
 10
969.9883305504663
 20
859.1492263584685
 30
0.0
 10
969.8495470332252
 20
859.0018032209794
 30
0.0
 10
969.7040142672778
 20
858.8665559707778
 30
0.0
 10
969.5499287453716
 20
858.7462093937215
 30
0.0
 10
969.3889880568411
 20
858.6408726974097
 30
0.0
 10
969.224510166727
 20
858.5466696108091
 30
0.0
 10
969.0535767190761
 20
858.4707091649808
 30
0.0
 10
968.8800613985514
 20
858.4054862141745
 30
0.0
 10
968.7014822760029
 20
858.3556566098633
 30
0.0
 10
968.5180619544271
 20
858.3212020829591
 30
0.0
 10
968.3307334151615
 20
858.2970378579197
 30
0.0
 10
968.2041012664045
 20
858.2951944753476
 30
0.0
 10
968.1404557644333
 20
858.2942679885882
 30
0.0
  0
SPLINE
  5
137
330
1F
100
AcDbEntity
  8
0
  6
Continuous
 62
     7
370
    25
100
AcDbSpline
210
0.0
220
0.0
230
1.0
 70
     8
 71
     3
 72
    19
 73
    15
 74
     0
 42
0.00000001
 43
0.00000001
 40
0.0
 40
0.0
 40
0.0
 40
0.0
 40
0.1101655532114446
 40
0.2157872561749708
 40
0.3180274349094147
 40
0.4175739541655084
 40
0.5116504876474457
 40
0.5961620971027599
 40
0.6729345334849953
 40
0.743669557349856
 40
0.8106770010653602
 40
0.8740589623137297
 40
0.9366963019193726
 40
1.0
 40
1.0
 40
1.0
 40
1.0
 10
961.568340379818
 20
863.3199090142292
 30
0.0
 10
961.6673144728928
 20
863.321588565592
 30
0.0
 10
961.8611804078828
 20
863.3248783941239
 30
0.0
 10
962.1443673901912
 20
863.3646681321698
 30
0.0
 10
962.4151635322146
 20
863.4197095677257
 30
0.0
 10
962.6675675139309
 20
863.5040185786294
 30
0.0
 10
962.8976217158754
 20
863.6019392571649
 30
0.0
 10
963.097209377777
 20
863.7158871646294
 30
0.0
 10
963.2635342858317
 20
863.842549448622
 30
0.0
 10
963.395788163526
 20
863.9838811271188
 30
0.0
 10
963.4952835432919
 20
864.1354583785093
 30
0.0
 10
963.5680305088371
 20
864.2934393103664
 30
0.0
 10
963.6110026831116
 20
864.4592085925066
 30
0.0
 10
963.6167390646382
 20
864.5723392620632
 30
0.0
 10
963.6196224311
 20
864.6292038860241
 30
0.0
  0
LINE
  5
138
330
1F
100
AcDbEntity
  8
0
  6
Continuous
 62
     7
370
    25
100
AcDbLine
 10
961.5683403798
 20
862.4993961937
 30
0.0
 11
961.5683403798
 21
863.3199090142
 31
0.0
  0
SPLINE
  5
139
330
1F
100
AcDbEntity
  8
0
  6
Continuous
 62
     7
370
    25
100
AcDbSpline
210
0.0
220
0.0
230
1.0
 70
     8
 71
     3
 72
    23
 73
    19
 74
     0
 42
0.00000001
 43
0.00000001
 40
0.0
 40
0.0
 40
0.0
 40
0.0
 40
0.0669091856056544
 40
0.1334854404229662
 40
0.2010351165700766
 40
0.2712343400187582
 40
0.3428799841615826
 40
0.4138361296100175
 40
0.4859766219744185
 40
0.5602295572555475
 40
0.5998841807523898
 40
0.6440548396425958
 40
0.6918919315842542
 40
0.744687524473771
 40
0.8014917751698756
 40
0.8628576982200913
 40
0.9293283793947429
 40
0.9999999999999999
 40
0.9999999999999999
 40
0.9999999999999999
 40
0.9999999999999999
 10
964.0298788413564
 20
860.8070885014088
 30
0.0
 10
964.0263810092974
 20
860.8816287045402
 30
0.0
 10
964.0194027499047
 20
861.0303382091346
 30
0.0
 10
963.9661259968957
 20
861.2491212360432
 30
0.0
 10
963.8784943072784
 20
861.4599176073324
 30
0.0
 10
963.7558142814315
 20
861.6591308417508
 30
0.0
 10
963.6064754730993
 20
861.8437614738294
 30
0.0
 10
963.4319271145644
 20
862.0084962909222
 30
0.0
 10
963.2307197354254
 20
862.144427927656
 30
0.0
 10
963.0455314633494
 20
862.2383448565673
 30
0.0
 10
962.8814968198933
 20
862.3024295998445
 30
0.0
 10
962.7411187983217
 20
862.3451152328714
 30
0.0
 10
962.5839608477538
 20
862.3812607315597
 30
0.0
 10
962.4119234788919
 20
862.414888780759
 30
0.0
 10
962.2237104127365
 20
862.4435090051061
 30
0.0
 10
962.0195265545008
 20
862.4673760125197
 30
0.0
 10
961.7993305279753
 20
862.4864732489642
 30
0.0
 10
961.6468935774419
 20
862.4950014667503
 30
0.0
 10
961.568340379818
 20
862.4993961937164
 30
0.0
  0
SPLINE
  5
13A
330
1F
100
AcDbEntity
  8
0
  6
Continuous
 62
     7
370
    25
100
AcDbSpline
210
0.0
220
0.0
230
1.0
 70
     8
 71
     3
 72
    23
 73
    19
 74
     0
 42
0.00000001
 43
0.00000001
 40
0.0
 40
0.0
 40
0.0
 40
0.0
 40
0.0760717369555649
 40
0.1487517145745117
 40
0.2184027938458461
 40
0.2857595810623842
 40
0.3505980236748766
 40
0.4149640445981262
 40
0.4780693385717779
 40
0.5417606760069055
 40
0.6043498585387149
 40
0.6640750210708982
 40
0.7214636230802002
 40
0.7775871282364419
 40
0.8326444469271275
 40
0.8878435110684585
 40
0.943460342651944
 40
1.0
 40
1.0
 40
1.0
 40
1.0
 10
961.9930198669974
 20
859.114780809101
 30
0.0
 10
962.0678850159079
 20
859.116188592523
 30
0.0
 10
962.2142773517214
 20
859.118941391475
 30
0.0
 10
962.427888458763
 20
859.1442572928377
 30
0.0
 10
962.6311054817705
 20
859.1811268092822
 30
0.0
 10
962.8216721692422
 20
859.2380707700091
 30
0.0
 10
963.0020847574732
 20
859.3084270019107
 30
0.0
 10
963.1698142423257
 20
859.3967662143373
 30
0.0
 10
963.3270624850536
 20
859.5004112923652
 30
0.0
 10
963.4718154117426
 20
859.618215083545
 30
0.0
 10
963.601976571772
 20
859.7471785008728
 30
0.0
 10
963.7165811734666
 20
859.8820655205539
 30
0.0
 10
963.8140089711338
 20
860.022307416576
 30
0.0
 10
963.8926000069943
 20
860.1686802643856
 30
0.0
 10
963.9546584076813
 20
860.3205779303972
 30
0.0
 10
963.9969057232673
 20
860.4784266832074
 30
0.0
 10
964.0262806149815
 20
860.6409347202452
 30
0.0
 10
964.0286728713874
 20
860.7514009349691
 30
0.0
 10
964.0298788413564
 20
860.8070885014088
 30
0.0
  0
SPLINE
  5
13B
330
1F
100
AcDbEntity
  8
0
  6
Continuous
 62
     7
370
    25
100
AcDbSpline
210
0.0
220
0.0
230
1.0
 70
     8
 71
     3
 72
    15
 73
    11
 74
     0
 42
0.00000001
 43
0.00000001
 40
0.0
 40
0.0
 40
0.0
 40
0.0
 40
0.118271304835726
 40
0.2361775330837663
 40
0.3556629329485134
 40
0.4759041646706883
 40
0.600127341711081
 40
0.728608116155122
 40
0.8613134756739409
 40
1.0
 40
1.0
 40
1.0
 40
1.0
 10
960.656481405459
 20
859.5474731167934
 30
0.0
 10
960.7012735803736
 20
859.5129397821979
 30
0.0
 10
960.790719666958
 20
859.4439797095476
 30
0.0
 10
960.9364756237545
 20
859.3559759871756
 30
0.0
 10
961.0897667919504
 20
859.2797222149818
 30
0.0
 10
961.2539146187411
 20
859.2214737676304
 30
0.0
 10
961.4253769512075
 20
859.1721534001122
 30
0.0
 10
961.6069252145944
 20
859.1398779278094
 30
0.0
 10
961.7969577108499
 20
859.1177335361677
 30
0.0
 10
961.9267125988113
 20
859.1157794070423
 30
0.0
 10
961.9930198669974
 20
859.114780809101
 30
0.0
  0
SPLINE
  5
13C
330
1F
100
AcDbEntity
  8
0
  6
Continuous
 62
     7
370
    25
100
AcDbSpline
210
0.0
220
0.0
230
1.0
 70
     8
 71
     3
 72
    15
 73
    11
 74
     0
 42
0.00000001
 43
0.00000001
 40
0.0
 40
0.0
 40
0.0
 40
0.0
 40
0.1497703860319608
 40
0.2913164099952359
 40
0.4259663731047379
 40
0.5521595739695356
 40
0.6715274135235989
 40
0.7861216286916711
 40
0.8953250730704484
 40
1.0
 40
1.0
 40
1.0
 40
1.0
 10
960.0298788413563
 20
860.6532423475626
 30
0.0
 10
960.0485835075057
 20
860.5916446029485
 30
0.0
 10
960.0849657078664
 20
860.47183163925
 30
0.0
 10
960.1468955319467
 20
860.2993966548503
 30
0.0
 10
960.2174515823936
 20
860.1413211046222
 30
0.0
 10
960.2931420021331
 20
859.996445397244
 30
0.0
 10
960.3726355930422
 20
859.8633427630401
 30
0.0
 10
960.461583993354
 20
859.7455327766764
 30
0.0
 10
960.5533991822621
 20
859.6378408859113
 30
0.0
 10
960.6226091327795
 20
859.5771674871908
 30
0.0
 10
960.656481405459
 20
859.5474731167934
 30
0.0
  0
LINE
  5
13D
330
1F
100
AcDbEntity
  8
0
  6
Continuous
 62
     7
370
    25
100
AcDbLine
 10
959.3119301234
 20
860.6532423476
 30
0.0
 11
960.0298788414
 21
860.6532423476
 31
0.0
  0
SPLINE
  5
13E
330
1F
100
AcDbEntity
  8
0
  6
Continuous
 62
     7
370
    25
100
AcDbSpline
210
0.0
220
0.0
230
1.0
 70
     8
 71
     3
 72
    23
 73
    19
 74
     0
 42
0.00000001
 43
0.00000001
 40
0.0
 40
0.0
 40
0.0
 40
0.0
 40
0.0655411703374043
 40
0.1289631677825933
 40
0.1903771361885627
 40
0.250092361669054
 40
0.3085484324592029
 40
0.3663979630552959
 40
0.4245421892666795
 40
0.4831699964229055
 40
0.5422433998311204
 40
0.6017393520173326
 40
0.662506002249607
 40
0.7248555134488467
 40
0.7891278292811826
 40
0.8563463998785135
 40
0.926295234986907
 40
1.0
 40
1.0
 40
1.0
 40
1.0
 10
961.9801993541769
 20
858.2942679885882
 30
0.0
 10
961.8946695249583
 20
858.2962524760361
 30
0.0
 10
961.726375341941
 20
858.3001572855842
 30
0.0
 10
961.4789616313437
 20
858.3268512311763
 30
0.0
 10
961.2427977470819
 20
858.3756055288627
 30
0.0
 10
961.0175643805524
 20
858.4412130839852
 30
0.0
 10
960.8030614402243
 20
858.5243942087407
 30
0.0
 10
960.5999434855323
 20
858.6279798042181
 30
0.0
 10
960.4069608717722
 20
858.7498346660507
 30
0.0
 10
960.2259346977274
 20
858.8913971524657
 30
0.0
 10
960.0568865429702
 20
859.0497545004812
 30
0.0
 10
959.9043088875871
 20
859.2277179518359
 30
0.0
 10
959.765657932291
 20
859.4219977322268
 30
0.0
 10
959.6446461866647
 20
859.6348504321096
 30
0.0
 10
959.5357617235427
 20
859.8635253058875
 30
0.0
 10
959.4462052512059
 20
860.1109504450454
 30
0.0
 10
959.367381094323
 20
860.3749139238774
 30
0.0
 10
959.3307331760462
 20
860.5588630442794
 30
0.0
 10
959.3119301234077
 20
860.6532423475626
 30
0.0
  0
SPLINE
  5
13F
330
1F
100
AcDbEntity
  8
0
  6
Continuous
 62
     7
370
    25
100
AcDbSpline
210
0.0
220
0.0
230
1.0
 70
     8
 71
     3
 72
    19
 73
    15
 74
     0
 42
0.00000001
 43
0.00000001
 40
0.0
 40
0.0
 40
0.0
 40
0.0
 40
0.0796482511802309
 40
0.1589216764181176
 40
0.2396194947370366
 40
0.3226094298185649
 40
0.4060346366179277
 40
0.4876020954923886
 40
0.5696846265959318
 40
0.6530361450088356
 40
0.7374357177222896
 40
0.8224778158555117
 40
0.909747655118407
 40
1.0
 40
1.0
 40
1.0
 40
1.0
 10
964.747827559305
 20
860.8759987578189
 30
0.0
 10
964.7437258141201
 20
860.7639765379624
 30
0.0
 10
964.7355416266284
 20
860.5404592766052
 30
0.0
 10
964.6623894567824
 20
860.2102313414432
 30
0.0
 10
964.5489877637675
 20
859.8874301933836
 30
0.0
 10
964.3879433386987
 20
859.5786877036791
 30
0.0
 10
964.1916747470908
 20
859.2898182613926
 30
0.0
 10
963.9581722918263
 20
859.0313581264489
 30
0.0
 10
963.6900890726027
 20
858.8091898879665
 30
0.0
 10
963.3911047323726
 20
858.6235665095554
 30
0.0
 10
963.0671798672656
 20
858.4751826873991
 30
0.0
 10
962.7207213712724
 20
858.3721942466069
 30
0.0
 10
962.3567212479238
 20
858.30511767593
 30
0.0
 10
962.107104567804
 20
858.2979248327525
 30
0.0
 10
961.9801993541769
 20
858.2942679885882
 30
0.0
  0
SPLINE
  5
140
330
1F
100
AcDbEntity
  8
0
  6
Continuous
 62
     7
370
    25
100
AcDbSpline
210
0.0
220
0.0
230
1.0
 70
     8
 71
     3
 72
    15
 73
    11
 74
     0
 42
0.00000001
 43
0.00000001
 40
0.0
 40
0.0
 40
0.0
 40
0.0
 40
0.1281355097972527
 40
0.2541727119019846
 40
0.3781116451390071
 40
0.501712263007297
 40
0.6239863093684993
 40
0.7470956136177481
 40
0.8728746366500686
 40
1.0
 40
1.0
 40
1.0
 40
1.0
 10
964.2702634567411
 20
862.2974731167934
 30
0.0
 10
964.3087579535472
 20
862.244769684545
 30
0.0
 10
964.3851165731213
 20
862.1402258752425
 30
0.0
 10
964.4793692216969
 20
861.9721426160792
 30
0.0
 10
964.5648757686826
 20
861.8021963548629
 30
0.0
 10
964.6315048414294
 20
861.625831998232
 30
0.0
 10
964.6831022513422
 20
861.4450936812075
 30
0.0
 10
964.7199846107476
 20
861.2596710616457
 30
0.0
 10
964.7428969327608
 20
861.0694127246759
 30
0.0
 10
964.7461781945083
 20
860.9406984841719
 30
0.0
 10
964.747827559305
 20
860.8759987578189
 30
0.0
  0
SPLINE
  5
141
330
1F
100
AcDbEntity
  8
0
  6
Continuous
 62
     7
370
    25
100
AcDbSpline
210
0.0
220
0.0
230
1.0
 70
     8
 71
     3
 72
    11
 73
     7
 74
     0
 42
0.00000001
 43
0.00000001
 40
0.0
 40
0.0
 40
0.0
 40
0.0
 40
0.2538796003266542
 40
0.5030089172783688
 40
0.7502910806899725
 40
1.0
 40
1.0
 40
1.0
 40
1.0
 10
963.4032762772539
 20
862.9801654244857
 30
0.0
 10
963.4883774305644
 20
862.9390724609623
 30
0.0
 10
963.6569874288894
 20
862.8576554149961
 30
0.0
 10
963.8868172106788
 20
862.6979851120994
 30
0.0
 10
964.0954523543519
 20
862.5136277467193
 30
0.0
 10
964.2118037120749
 20
862.3697588257739
 30
0.0
 10
964.2702634567411
 20
862.2974731167934
 30
0.0
  0
SPLINE
  5
142
330
1F
100
AcDbEntity
  8
0
  6
Continuous
 62
     7
370
    25
100
AcDbSpline
210
0.0
220
0.0
230
1.0
 70
     8
 71
     3
 72
    15
 73
    11
 74
     0
 42
0.00000001
 43
0.00000001
 40
0.0
 40
0.0
 40
0.0
 40
0.0
 40
0.1280675485958871
 40
0.2506083188676684
 40
0.3706301659144956
 40
0.490072246729951
 40
0.6103747641546137
 40
0.7343130699115247
 40
0.8632165042449866
 40
1.0
 40
1.0
 40
1.0
 40
1.0
 10
964.3375711490487
 20
864.6259987578189
 30
0.0
 10
964.3349115123697
 20
864.5414117984918
 30
0.0
 10
964.3297070161158
 20
864.3758882454333
 30
0.0
 10
964.2855156891161
 20
864.1342391091176
 30
0.0
 10
964.2111470882562
 20
863.9064868799011
 30
0.0
 10
964.1081304880782
 20
863.6916727950475
 30
0.0
 10
963.9747783732432
 20
863.4911588754518
 30
0.0
 10
963.8132407803512
 20
863.3044939820562
 30
0.0
 10
963.6223775534357
 20
863.1308501920489
 30
0.0
 10
963.477739980811
 20
863.0313771109621
 30
0.0
 10
963.4032762772539
 20
862.9801654244857
 30
0.0
  0
SPLINE
  5
143
330
1F
100
AcDbEntity
  8
0
  6
Continuous
 62
     7
370
    25
100
AcDbSpline
210
0.0
220
0.0
230
1.0
 70
     8
 71
     3
 72
    19
 73
    15
 74
     0
 42
0.00000001
 43
0.00000001
 40
0.0
 40
0.0
 40
0.0
 40
0.0
 40
0.0902542493426759
 40
0.1785397915286853
 40
0.2660930338538204
 40
0.3546309779571716
 40
0.4418861533505611
 40
0.525746915163646
 40
0.6081136336036361
 40
0.6901972728278817
 40
0.7708214843303286
 40
0.8483261812554107
 40
0.924011740024738
 40
1.0
 40
1.0
 40
1.0
 40
1.0
 10
962.0010326875102
 20
866.7045243988446
 30
0.0
 10
962.1054503836818
 20
866.7013718725705
 30
0.0
 10
962.3120081229812
 20
866.6951355857708
 30
0.0
 10
962.6154665160109
 20
866.6381883023901
 30
0.0
 10
962.9080992453871
 20
866.548073714152
 30
0.0
 10
963.1867032403959
 20
866.4235623378388
 30
0.0
 10
963.4454882291874
 20
866.2699913363255
 30
0.0
 10
963.6757423703236
 20
866.0872147948518
 30
0.0
 10
963.8743446807327
 20
865.8787592485949
 30
0.0
 10
964.0409604010987
 20
865.6485133872952
 30
0.0
 10
964.1714175417928
 20
865.4024436515538
 30
0.0
 10
964.2676149668893
 20
865.1491861495027
 30
0.0
 10
964.3261788091719
 20
864.8893416434709
 30
0.0
 10
964.3337686533097
 20
864.7138964339277
 30
0.0
 10
964.3375711490487
 20
864.6259987578189
 30
0.0
  0
SPLINE
  5
144
330
1F
100
AcDbEntity
  8
0
  6
Continuous
 62
     7
370
    25
100
AcDbSpline
210
0.0
220
0.0
230
1.0
 70
     8
 71
     3
 72
    23
 73
    19
 74
     0
 42
0.00000001
 43
0.00000001
 40
0.0
 40
0.0
 40
0.0
 40
0.0
 40
0.0726253460834354
 40
0.1419766113262387
 40
0.2089849284189415
 40
0.2739568703644497
 40
0.3368893473968432
 40
0.3987449534945947
 40
0.4601158852788622
 40
0.5208249225900292
 40
0.580994458632489
 40
0.6401519276014641
 40
0.698622450756255
 40
0.7572710809271653
 40
0.8164266940046606
 40
0.8762540482034723
 40
0.9371652930625372
 40
1.0
 40
1.0
 40
1.0
 40
1.0
 10
959.6196224311
 20
864.6532423475626
 30
0.0
 10
959.6390728326566
 20
864.7337737395063
 30
0.0
 10
959.677096776787
 20
864.8912060238277
 30
0.0
 10
959.7564055161446
 20
865.1161369057645
 30
0.0
 10
959.8428038137322
 20
865.3289906689432
 30
0.0
 10
959.9465503384516
 20
865.5257816945327
 30
0.0
 10
960.0597132052543
 20
865.7104649007789
 30
0.0
 10
960.1893651401933
 20
865.8788514709919
 30
0.0
 10
960.3295245060583
 20
866.0352239634881
 30
0.0
 10
960.4845529616052
 20
866.1739970779046
 30
0.0
 10
960.6471327596414
 20
866.2996604589483
 30
0.0
 10
960.819554747643
 20
866.4068034471596
 30
0.0
 10
960.9983499331759
 20
866.4989729394213
 30
0.0
 10
961.1847570942012
 20
866.5749048979936
 30
0.0
 10
961.3793312009258
 20
866.6321060949446
 30
0.0
 10
961.5803131970875
 20
866.6736073648665
 30
0.0
 10
961.7882297687784
 20
866.7005584830707
 30
0.0
 10
961.9293671187171
 20
866.7031887986968
 30
0.0
 10
962.0010326875102
 20
866.7045243988446
 30
0.0
  0
LINE
  5
145
330
1F
100
AcDbEntity
  8
0
  6
Continuous
 62
     7
370
    25
100
AcDbLine
 10
960.337571149
 20
864.6532423476
 30
0.0
 11
959.6196224311
 21
864.6532423476
 31
0.0
  0
SPLINE
  5
146
330
1F
100
AcDbEntity
  8
0
  6
Continuous
 62
     7
370
    25
100
AcDbSpline
210
0.0
220
0.0
230
1.0
 70
     8
 71
     3
 72
    19
 73
    15
 74
     0
 42
0.00000001
 43
0.00000001
 40
0.0
 40
0.0
 40
0.0
 40
0.0
 40
0.122711942365779
 40
0.239684964016773
 40
0.3518158552560897
 40
0.463766132862082
 40
0.5208177931608243
 40
0.5794482914480004
 40
0.6406041451203157
 40
0.7052975118059854
 40
0.7736338807131329
 40
0.8446693818863801
 40
0.9200565080211484
 40
1.0
 40
1.0
 40
1.0
 40
1.0
 10
962.0106480721257
 20
865.8840115783318
 30
0.0
 10
961.9195585452617
 20
865.8808313223246
 30
0.0
 10
961.7416395135214
 20
865.8746195426729
 30
0.0
 10
961.4851482748805
 20
865.8202126547869
 30
0.0
 10
961.2467040828794
 20
865.7334056068021
 30
0.0
 10
961.0644442735323
 20
865.629787276672
 30
0.0
 10
960.9298555325986
 20
865.527500570727
 30
0.0
 10
960.8336796738482
 20
865.4381694018786
 30
0.0
 10
960.7392327929228
 20
865.3388943763666
 30
0.0
 10
960.6527283886962
 20
865.2235609471608
 30
0.0
 10
960.5652450134397
 20
865.099979712439
 30
0.0
 10
960.4856003013745
 20
864.9618684403438
 30
0.0
 10
960.4082067190856
 20
864.8128298247966
 30
0.0
 10
960.3615723199571
 20
864.7074683743922
 30
0.0
 10
960.3375711490487
 20
864.6532423475626
 30
0.0
  0
SPLINE
  5
147
330
1F
100
AcDbEntity
  8
0
  6
Continuous
 62
     7
370
    25
100
AcDbSpline
210
0.0
220
0.0
230
1.0
 70
     8
 71
     3
 72
    23
 73
    19
 74
     0
 42
0.00000001
 43
0.00000001
 40
0.0
 40
0.0
 40
0.0
 40
0.0
 40
0.0552745490875204
 40
0.1099660938819754
 40
0.163247442851804
 40
0.218076185482354
 40
0.2733008743735902
 40
0.3309093000114369
 40
0.3909945233652042
 40
0.454175953430823
 40
0.5188615408488264
 40
0.5833105320111649
 40
0.6485166818638256
 40
0.7150308870971839
 40
0.7825020728543335
 40
0.8523226850768563
 40
0.9249284897844291
 40
1.0
 40
1.0
 40
1.0
 40
1.0
 10
963.6196224311
 20
864.6292038860241
 30
0.0
 10
963.6186752060446
 20
864.670981589207
 30
0.0
 10
963.6167907467214
 20
864.754096348282
 30
0.0
 10
963.5930255403592
 20
864.8755250767128
 30
0.0
 10
963.5573134466844
 20
864.9932415245439
 30
0.0
 10
963.5082169225543
 20
865.1067450908391
 30
0.0
 10
963.4425021826532
 20
865.2152485740346
 30
0.0
 10
963.3638599277406
 20
865.3196770287551
 30
0.0
 10
963.2702185556731
 20
865.419434237912
 30
0.0
 10
963.1629146767963
 20
865.5124178254656
 30
0.0
 10
963.04768769401
 20
865.601033224701
 30
0.0
 10
962.9214024939005
 20
865.6762643949396
 30
0.0
 10
962.7878667802731
 20
865.7405959654
 30
0.0
 10
962.6469327120448
 20
865.7936462559232
 30
0.0
 10
962.4981429284599
 20
865.8335532004186
 30
0.0
 10
962.3421965109542
 20
865.8622065521942
 30
0.0
 10
962.1787960914972
 20
865.8801211915808
 30
0.0
 10
962.0673178469094
 20
865.8827004279428
 30
0.0
 10
962.0106480721257
 20
865.8840115783318
 30
0.0
  0
SPLINE
  5
148
330
1F
100
AcDbEntity
  8
0
  6
Continuous
 62
     7
370
    25
100
AcDbSpline
210
0.0
220
0.0
230
1.0
 70
     8
 71
     3
 72
    19
 73
    15
 74
     0
 42
0.00000001
 43
0.00000001
 40
0.0
 40
0.0
 40
0.0
 40
0.0
 40
0.096972310381516
 40
0.1877734389628654
 40
0.2723961390136916
 40
0.35132099737529
 40
0.4243347744514694
 40
0.4919087840005265
 40
0.5542332197968018
 40
0.6112676582441536
 40
0.7163478449915511
 40
0.8145400858216122
 40
0.9084954561491878
 40
1.0
 40
1.0
 40
1.0
 40
1.0
 10
956.5042378157153
 20
863.041062860383
 30
0.0
 10
956.591062760418
 20
862.9778826099837
 30
0.0
 10
956.7591872321402
 20
862.8555428116913
 30
0.0
 10
956.9984045576524
 20
862.6717355430573
 30
0.0
 10
957.2153046904406
 20
862.4919692148874
 30
0.0
 10
957.4106491557438
 20
862.3173918272391
 30
0.0
 10
957.5863678036062
 20
862.1493276146595
 30
0.0
 10
957.7405111651485
 20
861.9857546310475
 30
0.0
 10
957.8746498630849
 20
861.827844750631
 30
0.0
 10
958.0190595052795
 20
861.6253931490512
 30
0.0
 10
958.1666202356121
 20
861.3767506707098
 30
0.0
 10
958.2933436811576
 20
861.0721146968921
 30
0.0
 10
958.3732484753393
 20
860.7662945357562
 30
0.0
 10
958.3836976534695
 20
860.560747480956
 30
0.0
 10
958.3888532003307
 20
860.4593320911523
 30
0.0
  0
SPLINE
  5
149
330
1F
100
AcDbEntity
  8
0
  6
Continuous
 62
     7
370
    25
100
AcDbSpline
210
0.0
220
0.0
230
1.0
 70
     8
 71
     3
 72
    15
 73
    11
 74
     0
 42
0.00000001
 43
0.00000001
 40
0.0
 40
0.0
 40
0.0
 40
0.0
 40
0.0525942815291407
 40
0.1249519739750411
 40
0.2180938989286025
 40
0.3335024107325218
 40
0.4687891785044553
 40
0.6249375859646028
 40
0.8016830479282309
 40
1.0
 40
1.0
 40
1.0
 40
1.0
 10
955.4289173028949
 20
863.8375372193574
 30
0.0
 10
955.4464290112553
 20
863.8219097317784
 30
0.0
 10
955.488032821854
 20
863.7847823984544
 30
0.0
 10
955.5640920806875
 20
863.7240000426972
 30
0.0
 10
955.664532762356
 20
863.6490222774509
 30
0.0
 10
955.7867320793316
 20
863.5562512683658
 30
0.0
 10
955.9329431918505
 20
863.4486364978119
 30
0.0
 10
956.1031821773239
 20
863.3275539557233
 30
0.0
 10
956.2955513952323
 20
863.1890729065647
 30
0.0
 10
956.4320586315744
 20
863.0922556708849
 30
0.0
 10
956.5042378157153
 20
863.041062860383
 30
0.0
  0
SPLINE
  5
14A
330
1F
100
AcDbEntity
  8
0
  6
Continuous
 62
     7
370
    25
100
AcDbSpline
210
0.0
220
0.0
230
1.0
 70
     8
 71
     3
 72
    15
 73
    11
 74
     0
 42
0.00000001
 43
0.00000001
 40
0.0
 40
0.0
 40
0.0
 40
0.0
 40
0.107285214268961
 40
0.2147458609696306
 40
0.3229385595552884
 40
0.4341161625174619
 40
0.5534123109628024
 40
0.6860729848107376
 40
0.8342559920595839
 40
1.0
 40
1.0
 40
1.0
 40
1.0
 10
954.9016737131512
 20
864.8711910655113
 30
0.0
 10
954.9025722883167
 20
864.8283305431331
 30
0.0
 10
954.9043709079949
 20
864.7425394129906
 30
0.0
 10
954.9294561598496
 20
864.6157933056671
 30
0.0
 10
954.9616831974674
 20
864.4893673869962
 30
0.0
 10
955.0127520700468
 20
864.3638300548038
 30
0.0
 10
955.0832556211685
 20
864.2369858055414
 30
0.0
 10
955.175838880383
 20
864.1066504054075
 30
0.0
 10
955.2924407364974
 20
863.9716750713
 30
0.0
 10
955.381759621872
 20
863.8838867883858
 30
0.0
 10
955.4289173028949
 20
863.8375372193574
 30
0.0
  0
SPLINE
  5
14B
330
1F
100
AcDbEntity
  8
0
  6
Continuous
 62
     7
370
    25
100
AcDbSpline
210
0.0
220
0.0
230
1.0
 70
     8
 71
     3
 72
    15
 73
    11
 74
     0
 42
0.00000001
 43
0.00000001
 40
0.0
 40
0.0
 40
0.0
 40
0.0
 40
0.143073083730361
 40
0.2759029640930086
 40
0.4023708562739932
 40
0.5284136450935919
 40
0.6503563791869442
 40
0.7658950861246988
 40
0.8807741308440136
 40
1.0
 40
1.0
 40
1.0
 40
1.0
 10
956.0747506362281
 20
865.8840115783318
 30
0.0
 10
955.9921071564443
 20
865.8812419784417
 30
0.0
 10
955.8327369909257
 20
865.8759010659578
 30
0.0
 10
955.6064735941085
 20
865.8175696710055
 30
0.0
 10
955.402830336821
 20
865.7257254188778
 30
0.0
 10
955.227853045264
 20
865.5970054689449
 30
0.0
 10
955.0821685263085
 20
865.4445003428075
 30
0.0
 10
954.9767846205601
 20
865.2690058169219
 30
0.0
 10
954.9133556730126
 20
865.0752174681115
 30
0.0
 10
954.9056156052388
 20
864.9400365393534
 30
0.0
 10
954.9016737131512
 20
864.8711910655112
 30
0.0
  0
SPLINE
  5
14C
330
1F
100
AcDbEntity
  8
0
  6
Continuous
 62
     7
370
    25
100
AcDbSpline
210
0.0
220
0.0
230
1.0
 70
     8
 71
     3
 72
    19
 73
    15
 74
     0
 42
0.00000001
 43
0.00000001
 40
0.0
 40
0.0
 40
0.0
 40
0.0
 40
0.0984694310255565
 40
0.1896291011376255
 40
0.2741840894379698
 40
0.3521831609671567
 40
0.4231988731834647
 40
0.4885509460005356
 40
0.5484733460279397
 40
0.6014401636178709
 40
0.7011980824257653
 40
0.7995918021381815
 40
0.8985450984822271
 40
1.0
 40
1.0
 40
1.0
 40
1.0
 10
957.6372506362281
 20
864.8583705526908
 30
0.0
 10
957.5980599334343
 20
864.9088589879425
 30
0.0
 10
957.5225878029838
 20
865.0060879095978
 30
0.0
 10
957.4080061187311
 20
865.1422509166978
 30
0.0
 10
957.3000092091991
 20
865.2666314413422
 30
0.0
 10
957.1936082954065
 20
865.3746660196967
 30
0.0
 10
957.0944228520559
 20
865.4722708958975
 30
0.0
 10
956.99815532692
 20
865.5558360543533
 30
0.0
 10
956.9061910955202
 20
865.6261802724794
 30
0.0
 10
956.7902667283294
 20
865.7012512666718
 30
0.0
 10
956.6446262293049
 20
865.7756661319398
 30
0.0
 10
956.4618044321865
 20
865.8386354532602
 30
0.0
 10
956.2707500892493
 20
865.876475594789
 30
0.0
 10
956.1406252172707
 20
865.8814787663724
 30
0.0
 10
956.0747506362281
 20
865.8840115783318
 30
0.0
  0
LINE
  5
14D
330
1F
100
AcDbEntity
  8
0
  6
Continuous
 62
     7
370
    25
100
AcDbLine
 10
958.2862890978
 20
865.3503577322
 30
0.0
 11
957.6372506362
 21
864.8583705527
 31
0.0
  0
SPLINE
  5
14E
330
1F
100
AcDbEntity
  8
0
  6
Continuous
 62
     7
370
    25
100
AcDbSpline
210
0.0
220
0.0
230
1.0
 70
     8
 71
     3
 72
    19
 73
    15
 74
     0
 42
0.00000001
 43
0.00000001
 40
0.0
 40
0.0
 40
0.0
 40
0.0
 40
0.1072327993600888
 40
0.2132518127818512
 40
0.3188304473075887
 40
0.4267935306342785
 40
0.4836459507827202
 40
0.5436038220211419
 40
0.6083076495640828
 40
0.6771267602600426
 40
0.7506856360204985
 40
0.8287134184432844
 40
0.912190348223458
 40
1.0
 40
1.0
 40
1.0
 40
1.0
 10
956.1548788413564
 20
866.7045243988446
 30
0.0
 10
956.2491510706091
 20
866.7012728523322
 30
0.0
 10
956.4366284460302
 20
866.6948065641047
 30
0.0
 10
956.7123980816178
 20
866.6385836353737
 30
0.0
 10
956.9779082905334
 20
866.5455535284299
 30
0.0
 10
957.1914928958352
 20
866.4399794530524
 30
0.0
 10
957.3586534934622
 20
866.3345362171364
 30
0.0
 10
957.4861340253226
 20
866.2384909044991
 30
0.0
 10
957.6153167699775
 20
866.1279192276895
 30
0.0
 10
957.7472437524434
 20
866.0025266652191
 30
0.0
 10
957.8796795454471
 20
865.8611626627285
 30
0.0
 10
958.0145902934337
 20
865.7047953737931
 30
0.0
 10
958.1522914792868
 20
865.5343803889602
 30
0.0
 10
958.2408763024272
 20
865.4127243872357
 30
0.0
 10
958.2862890977667
 20
865.3503577321779
 30
0.0
  0
SPLINE
  5
14F
330
1F
100
AcDbEntity
  8
0
  6
Continuous
 62
     7
370
    25
100
AcDbSpline
210
0.0
220
0.0
230
1.0
 70
     8
 71
     3
 72
    19
 73
    15
 74
     0
 42
0.00000001
 43
0.00000001
 40
0.0
 40
0.0
 40
0.0
 40
0.0
 40
0.0837853706537074
 40
0.1657798879221367
 40
0.246280007893257
 40
0.3274609277363847
 40
0.4087969540320626
 40
0.4897152412309894
 40
0.5713760321300511
 40
0.6555233211112775
 40
0.7410194827999708
 40
0.82654676050376
 40
0.9119888516548339
 40
0.9999999999999999
 40
0.9999999999999999
 40
0.9999999999999999
 40
0.9999999999999999
 10
954.1837249952025
 20
864.8375372193574
 30
0.0
 10
954.1867083300444
 20
864.9221767040768
 30
0.0
 10
954.192611233044
 20
865.0896465640425
 30
0.0
 10
954.2425324153763
 20
865.3342884621959
 30
0.0
 10
954.3213276008723
 20
865.5678574158361
 30
0.0
 10
954.4317159159846
 20
865.7880410357782
 30
0.0
 10
954.5740184369405
 20
865.9891061349513
 30
0.0
 10
954.7386949497752
 20
866.1733655337674
 30
0.0
 10
954.9348354897465
 20
866.3282651502722
 30
0.0
 10
955.1500414857773
 20
866.463606998019
 30
0.0
 10
955.3855989076804
 20
866.5695405413495
 30
0.0
 10
955.6324352583036
 20
866.6494513531449
 30
0.0
 10
955.8909428515041
 20
866.6947296564384
 30
0.0
 10
956.0660357306433
 20
866.7012274048103
 30
0.0
 10
956.1548788413564
 20
866.7045243988446
 30
0.0
  0
SPLINE
  5
150
330
1F
100
AcDbEntity
  8
0
  6
Continuous
 62
     7
370
    25
100
AcDbSpline
210
0.0
220
0.0
230
1.0
 70
     8
 71
     3
 72
    15
 73
    11
 74
     0
 42
0.00000001
 43
0.00000001
 40
0.0
 40
0.0
 40
0.0
 40
0.0
 40
0.1335067689985141
 40
0.262558978730374
 40
0.3882644471488688
 40
0.5126673546814323
 40
0.6337222699657599
 40
0.7553938601370792
 40
0.8775529450912615
 40
1.0
 40
1.0
 40
1.0
 40
1.0
 10
954.630840379818
 20
863.6195885014088
 30
0.0
 10
954.5954745621468
 20
863.6666765856469
 30
0.0
 10
954.5259229353687
 20
863.7592816228348
 30
0.0
 10
954.4341149228773
 20
863.9040241548753
 30
0.0
 10
954.3560825507666
 20
864.0521916186678
 30
0.0
 10
954.2949115058838
 20
864.204182166244
 30
0.0
 10
954.2434001485361
 20
864.3578620036852
 30
0.0
 10
954.2087534497526
 20
864.5152362795701
 30
0.0
 10
954.1870588282309
 20
864.6755988360604
 30
0.0
 10
954.1848371447267
 20
864.7835154089119
 30
0.0
 10
954.1837249952025
 20
864.8375372193575
 30
0.0
  0
SPLINE
  5
151
330
1F
100
AcDbEntity
  8
0
  6
Continuous
 62
     7
370
    25
100
AcDbSpline
210
0.0
220
0.0
230
1.0
 70
     8
 71
     3
 72
    15
 73
    11
 74
     0
 42
0.00000001
 43
0.00000001
 40
0.0
 40
0.0
 40
0.0
 40
0.0
 40
0.181535301376285
 40
0.3470816724816275
 40
0.4955678164315567
 40
0.6283573018772123
 40
0.7455196699921547
 40
0.8458307507576452
 40
0.9307818073847574
 40
1.0
 40
1.0
 40
1.0
 40
1.0
 10
955.9417378157153
 20
862.5314474757677
 30
0.0
 10
955.8575686815918
 20
862.5913985331832
 30
0.0
 10
955.6966437065514
 20
862.7060203897428
 30
0.0
 10
955.4715955183311
 20
862.8761330389168
 30
0.0
 10
955.2703510314514
 20
863.0316618835841
 30
0.0
 10
955.0938047079694
 20
863.174071054104
 30
0.0
 10
954.9420342008927
 20
863.3033798649152
 30
0.0
 10
954.8138435471461
 20
863.4183465829545
 30
0.0
 10
954.712498273785
 20
863.5220804363679
 30
0.0
 10
954.6561426608511
 20
863.5893749317854
 30
0.0
 10
954.630840379818
 20
863.6195885014088
 30
0.0
  0
SPLINE
  5
152
330
1F
100
AcDbEntity
  8
0
  6
Continuous
 62
     7
370
    25
100
AcDbSpline
210
0.0
220
0.0
230
1.0
 70
     8
 71
     3
 72
    15
 73
    11
 74
     0
 42
0.00000001
 43
0.00000001
 40
0.0
 40
0.0
 40
0.0
 40
0.0
 40
0.0902792146500098
 40
0.1895299184469503
 40
0.2991978724002808
 40
0.4189258867738159
 40
0.5483762854012427
 40
0.6881363695386767
 40
0.83908350165892
 40
0.9999999999999999
 40
0.9999999999999999
 40
0.9999999999999999
 40
0.9999999999999999
 10
957.3840455080231
 20
861.2558064501267
 30
0.0
 10
957.3482269613246
 20
861.30162776122
 30
0.0
 10
957.2730304029476
 20
861.3978238722332
 30
0.0
 10
957.1437560884492
 20
861.5410129818912
 30
0.0
 10
956.9920621128941
 20
861.6887122252103
 30
0.0
 10
956.8231397016674
 20
861.8465614982374
 30
0.0
 10
956.6308354986031
 20
862.0072193192385
 30
0.0
 10
956.4211726085389
 20
862.1783468116705
 30
0.0
 10
956.1887980737591
 20
862.3534361306343
 30
0.0
 10
956.0258277957752
 20
862.4708591375978
 30
0.0
 10
955.9417378157153
 20
862.5314474757677
 30
0.0
  0
SPLINE
  5
153
330
1F
100
AcDbEntity
  8
0
  6
Continuous
 62
     7
370
    25
100
AcDbSpline
210
0.0
220
0.0
230
1.0
 70
     8
 71
     3
 72
    11
 73
     7
 74
     0
 42
0.00000001
 43
0.00000001
 40
0.0
 40
0.0
 40
0.0
 40
0.0
 40
0.2347233736739037
 40
0.4771583189289887
 40
0.728556284203041
 40
1.0
 40
1.0
 40
1.0
 40
1.0
 10
957.670904482382
 20
860.4705500398703
 30
0.0
 10
957.667534629355
 20
860.5371576963445
 30
0.0
 10
957.6606842105825
 20
860.6725613286865
 30
0.0
 10
957.6027836847026
 20
860.8723319640098
 30
0.0
 10
957.5116996919176
 20
861.0700292669225
 30
0.0
 10
957.4276707920204
 20
861.1923178739573
 30
0.0
 10
957.3840455080231
 20
861.2558064501267
 30
0.0
  0
SPLINE
  5
154
330
1F
100
AcDbEntity
  8
0
  6
Continuous
 62
     7
370
    25
100
AcDbSpline
210
0.0
220
0.0
230
1.0
 70
     8
 71
     3
 72
    19
 73
    15
 74
     0
 42
0.00000001
 43
0.00000001
 40
0.0
 40
0.0
 40
0.0
 40
0.0
 40
0.0912636048966265
 40
0.18093031108508
 40
0.2700882198317223
 40
0.360156133387725
 40
0.4483425324981527
 40
0.5326658421383295
 40
0.6138337041070455
 40
0.6939815272835561
 40
0.7727159770890016
 40
0.8493351720622498
 40
0.9239673265752375
 40
1.0
 40
1.0
 40
1.0
 40
1.0
 10
956.1035967900744
 20
859.114780809101
 30
0.0
 10
956.1737381855291
 20
859.1167343462718
 30
0.0
 10
956.3127936667801
 20
859.1206072383017
 30
0.0
 10
956.5175073649768
 20
859.1578205001289
 30
0.0
 10
956.7163229130135
 20
859.2149910805025
 30
0.0
 10
956.9051426563976
 20
859.2968674953792
 30
0.0
 10
957.0813612038983
 20
859.3959268913218
 30
0.0
 10
957.2358907932392
 20
859.5155752970529
 30
0.0
 10
957.369481909078
 20
859.6495323386841
 30
0.0
 10
957.4787598852315
 20
859.7989784064372
 30
0.0
 10
957.5625999658905
 20
859.9597033175395
 30
0.0
 10
957.6270389794065
 20
860.1246769205985
 30
0.0
 10
957.6627991477638
 20
860.2964907909505
 30
0.0
 10
957.6681860128078
 20
860.4121718488883
 30
0.0
 10
957.670904482382
 20
860.4705500398703
 30
0.0
  0
SPLINE
  5
155
330
1F
100
AcDbEntity
  8
0
  6
Continuous
 62
     7
370
    25
100
AcDbSpline
210
0.0
220
0.0
230
1.0
 70
     8
 71
     3
 72
    15
 73
    11
 74
     0
 42
0.00000001
 43
0.00000001
 40
0.0
 40
0.0
 40
0.0
 40
0.0
 40
0.1590042985173755
 40
0.3046460998968209
 40
0.4385469045795896
 40
0.5623222987759281
 40
0.6774325425257339
 40
0.7868973929387543
 40
0.8936108891042673
 40
1.0
 40
1.0
 40
1.0
 40
1.0
 10
954.3471865336642
 20
860.4481141424344
 30
0.0
 10
954.4100853616653
 20
860.3428241196981
 30
0.0
 10
954.5305970888156
 20
860.1410924993348
 30
0.0
 10
954.7316287668784
 20
859.8685026926404
 30
0.0
 10
954.9399325638292
 20
859.6368177629056
 30
0.0
 10
955.1570510405135
 20
859.4473855171003
 30
0.0
 10
955.3816589219362
 20
859.2982452045343
 30
0.0
 10
955.6152224733343
 20
859.1926401034634
 30
0.0
 10
955.8569546121033
 20
859.1267750169002
 30
0.0
 10
956.0214662040563
 20
859.1187748190611
 30
0.0
 10
956.1035967900744
 20
859.114780809101
 30
0.0
  0
LINE
  5
156
330
1F
100
AcDbEntity
  8
0
  6
Continuous
 62
     7
370
    25
100
AcDbLine
 10
953.6709044824
 20
860.0426654245
 30
0.0
 11
954.3471865337
 21
860.4481141424
 31
0.0
  0
SPLINE
  5
157
330
1F
100
AcDbEntity
  8
0
  6
Continuous
 62
     7
370
    25
100
AcDbSpline
210
0.0
220
0.0
230
1.0
 70
     8
 71
     3
 72
    23
 73
    19
 74
     0
 42
0.00000001
 43
0.00000001
 40
0.0
 40
0.0
 40
0.0
 40
0.0
 40
0.0572082694335108
 40
0.113696059657492
 40
0.169177916417196
 40
0.2241592165805445
 40
0.278719878381045
 40
0.3337942174469906
 40
0.3892414593400036
 40
0.4458220733936251
 40
0.5037042811090247
 40
0.5642938918193632
 40
0.6279754158952282
 40
0.695038259684056
 40
0.7653727258510138
 40
0.8396114430907409
 40
0.9175377500777949
 40
0.9999999999999999
 40
0.9999999999999999
 40
0.9999999999999999
 40
0.9999999999999999
 10
956.1035967900744
 20
858.2942679885882
 30
0.0
 10
956.043173148975
 20
858.295436403668
 30
0.0
 10
955.923086840279
 20
858.2977585188435
 30
0.0
 10
955.745465167426
 20
858.3182871598085
 30
0.0
 10
955.5714318206876
 20
858.347331968017
 30
0.0
 10
955.4031706046095
 20
858.3934441279641
 30
0.0
 10
955.2385136637141
 20
858.4493915040605
 30
0.0
 10
955.0781771276548
 20
858.5182791214278
 30
0.0
 10
954.9220832902699
 20
858.6008327247359
 30
0.0
 10
954.7693573865708
 20
858.6952213524586
 30
0.0
 10
954.6203878446597
 20
858.8050676257468
 30
0.0
 10
954.4765719179652
 20
858.933007046177
 30
0.0
 10
954.3331909225062
 20
859.0755110575856
 30
0.0
 10
954.1944768737712
 20
859.2364494881266
 30
0.0
 10
954.0576239725008
 20
859.4132222489444
 30
0.0
 10
953.9253304649889
 20
859.6074832395672
 30
0.0
 10
953.7948579674367
 20
859.8181743338733
 30
0.0
 10
953.7129940409743
 20
859.9664373869472
 30
0.0
 10
953.670904482382
 20
860.0426654244857
 30
0.0
  0
SPLINE
  5
158
330
1F
100
AcDbEntity
  8
0
  6
Continuous
 62
     7
370
    25
100
AcDbSpline
210
0.0
220
0.0
230
1.0
 70
     8
 71
     3
 72
    23
 73
    19
 74
     0
 42
0.00000001
 43
0.00000001
 40
0.0
 40
0.0
 40
0.0
 40
0.0
 40
0.0614842551968947
 40
0.1217745277022082
 40
0.1809195598139297
 40
0.2402561150782733
 40
0.3001144444023553
 40
0.3611459476126088
 40
0.4235005824125885
 40
0.4886693612807194
 40
0.5539541046535627
 40
0.6175812610152605
 40
0.6802384268167385
 40
0.742187388772453
 40
0.8046632117692911
 40
0.8682589893126632
 40
0.9330202571803768
 40
0.9999999999999999
 40
0.9999999999999999
 40
0.9999999999999999
 40
0.9999999999999999
 10
958.3888532003307
 20
860.4593320911523
 30
0.0
 10
958.3873511703331
 20
860.387610113791
 30
0.0
 10
958.3843762787455
 20
860.2455589514067
 30
0.0
 10
958.3501799043944
 20
860.0369759185334
 30
0.0
 10
958.3000778125943
 20
859.8343910735414
 30
0.0
 10
958.224564134993
 20
859.64030853081
 30
0.0
 10
958.1323969161133
 20
859.4511776446764
 30
0.0
 10
958.0154454924194
 20
859.2719595865943
 30
0.0
 10
957.8798850701619
 20
859.0986878183955
 30
0.0
 10
957.724379321809
 20
858.935982695298
 30
0.0
 10
957.5542172593713
 20
858.7866199616171
 30
0.0
 10
957.3743688144278
 20
858.6537535353943
 30
0.0
 10
957.1845396191497
 20
858.542968796205
 30
0.0
 10
956.9857594667309
 20
858.4525668715195
 30
0.0
 10
956.7779826971148
 20
858.3818616886023
 30
0.0
 10
956.5612791912074
 20
858.330632273446
 30
0.0
 10
956.3352917369912
 20
858.2991906485009
 30
0.0
 10
956.1816906362542
 20
858.2959271937248
 30
0.0
 10
956.1035967900744
 20
858.2942679885882
 30
0.0
  0
LINE
  5
159
330
1F
100
AcDbEntity
  8
0
  6
Continuous
 62
     7
370
    25
100
AcDbLine
 10
952.4401352516
 20
866.4993961937
 30
0.0
 11
952.4401352516
 21
858.4993961937
 31
0.0
  0
LINE
  5
15A
330
1F
100
AcDbEntity
  8
0
  6
Continuous
 62
     7
370
    25
100
AcDbLine
 10
951.7221865337
 20
866.4993961937
 30
0.0
 11
952.4401352516
 21
866.4993961937
 31
0.0
  0
LINE
  5
15B
330
1F
100
AcDbEntity
  8
0
  6
Continuous
 62
     7
370
    25
100
AcDbLine
 10
951.7221865337
 20
858.4993961937
 30
0.0
 11
951.7221865337
 21
866.4993961937
 31
0.0
  0
LINE
  5
15C
330
1F
100
AcDbEntity
  8
0
  6
Continuous
 62
     7
370
    25
100
AcDbLine
 10
952.4401352516
 20
858.4993961937
 30
0.0
 11
951.7221865337
 21
858.4993961937
 31
0.0
  0
SPLINE
  5
15D
330
1F
100
AcDbEntity
  8
0
  6
Continuous
 62
     7
370
    25
100
AcDbSpline
210
0.0
220
0.0
230
1.0
 70
     8
 71
     3
 72
    11
 73
     7
 74
     0
 42
0.00000001
 43
0.00000001
 40
0.0
 40
0.0
 40
0.0
 40
0.0
 40
0.2629516255674845
 40
0.5157066923583663
 40
0.7621092269531029
 40
1.0
 40
1.0
 40
1.0
 40
1.0
 10
947.3215455080231
 20
859.2301654244856
 30
0.0
 10
947.3656239344439
 20
859.2128866648518
 30
0.0
 10
947.4520715441319
 20
859.1789991695396
 30
0.0
 10
947.5842431548004
 20
859.1411799733999
 30
0.0
 10
947.7156603821404
 20
859.1205116078681
 30
0.0
 10
947.8027865395501
 20
859.1166685606943
 30
0.0
 10
947.8455839695615
 20
859.114780809101
 30
0.0
  0
SPLINE
  5
15E
330
1F
100
AcDbEntity
  8
0
  6
Continuous
 62
     7
370
    25
100
AcDbSpline
210
0.0
220
0.0
230
1.0
 70
     8
 71
     3
 72
    11
 73
     7
 74
     0
 42
0.00000001
 43
0.00000001
 40
0.0
 40
0.0
 40
0.0
 40
0.0
 40
0.2991842876765398
 40
0.5648989463568076
 40
0.7985478688426192
 40
1.0
 40
1.0
 40
1.0
 40
1.0
 10
946.2991096105872
 20
859.8327295270498
 30
0.0
 10
946.3967157340671
 20
859.7654211928995
 30
0.0
 10
946.5810088222505
 20
859.6383342815585
 30
0.0
 10
946.8518761157045
 20
859.4748449091219
 30
0.0
 10
947.0918696082895
 20
859.3346731021335
 30
0.0
 10
947.2488592021784
 20
859.2632393213528
 30
0.0
 10
947.3215455080231
 20
859.2301654244856
 30
0.0
  0
LINE
  5
15F
330
1F
100
AcDbEntity
  8
0
  6
Continuous
 62
     7
370
    25
100
AcDbLine
 10
945.8760326875
 20
859.2173449117
 30
0.0
 11
946.2991096106
 21
859.832729527
 31
0.0
  0
SPLINE
  5
160
330
1F
100
AcDbEntity
  8
0
  6
Continuous
 62
     7
370
    25
100
AcDbSpline
210
0.0
220
0.0
230
1.0
 70
     8
 71
     3
 72
    15
 73
    11
 74
     0
 42
0.00000001
 43
0.00000001
 40
0.0
 40
0.0
 40
0.0
 40
0.0
 40
0.1060709021051299
 40
0.2134216804124519
 40
0.3216854881303259
 40
0.4338579390981596
 40
0.554081282774354
 40
0.68758704396656
 40
0.8364658500651108
 40
1.0
 40
1.0
 40
1.0
 40
1.0
 10
947.8055198669974
 20
858.2942679885882
 30
0.0
 10
947.727900762395
 20
858.2967379523118
 30
0.0
 10
947.5717259830017
 20
858.3017076829165
 30
0.0
 10
947.3392900772595
 20
858.3422144556015
 30
0.0
 10
947.1075141324437
 20
858.4046511261075
 30
0.0
 10
946.8751679636661
 20
858.496085629876
 30
0.0
 10
946.6376611262992
 20
858.6204412835551
 30
0.0
 10
946.3917769052852
 20
858.7831494357356
 30
0.0
 10
946.1343524688078
 20
858.9839072103582
 30
0.0
 10
945.9647906719924
 20
859.1371363431766
 30
0.0
 10
945.8760326875102
 20
859.2173449116651
 30
0.0
  0
SPLINE
  5
161
330
1F
100
AcDbEntity
  8
0
  6
Continuous
 62
     7
370
    25
100
AcDbSpline
210
0.0
220
0.0
230
1.0
 70
     8
 71
     3
 72
    23
 73
    19
 74
     0
 42
0.00000001
 43
0.00000001
 40
0.0
 40
0.0
 40
0.0
 40
0.0
 40
0.0773606839426995
 40
0.1485419530250462
 40
0.2140077372521346
 40
0.2729945033606899
 40
0.3264091957674666
 40
0.3738804007298062
 40
0.4160199382657581
 40
0.4521255195126365
 40
0.5180017107054589
 40
0.5823669297335129
 40
0.6470437823418088
 40
0.7133304210644763
 40
0.780911970350969
 40
0.8503949591306448
 40
0.9229229735922772
 40
1.0
 40
1.0
 40
1.0
 40
1.0
 10
949.670904482382
 20
861.0971526039727
 30
0.0
 10
949.6701869540807
 20
860.9972550704967
 30
0.0
 10
949.6688092121866
 20
860.8054396163326
 30
0.0
 10
949.661233416677
 20
860.5291564257232
 30
0.0
 10
949.647214038605
 20
860.2768805715438
 30
0.0
 10
949.6267911529148
 20
860.048038406989
 30
0.0
 10
949.5995449064608
 20
859.8433468520454
 30
0.0
 10
949.568365413615
 20
859.66122429704
 30
0.0
 10
949.530621873556
 20
859.5031907374338
 30
0.0
 10
949.4737842362277
 20
859.325738495747
 30
0.0
 10
949.380586639551
 20
859.1311240849278
 30
0.0
 10
949.240319123791
 20
858.9209408835432
 30
0.0
 10
949.0660727319404
 20
858.7370930877709
 30
0.0
 10
948.864241798971
 20
858.5774297165352
 30
0.0
 10
948.63306231536
 20
858.4502131881321
 30
0.0
 10
948.377294957362
 20
858.3588870660526
 30
0.0
 10
948.0985141860523
 20
858.3031822509114
 30
0.0
 10
947.9051445578183
 20
858.2972990392608
 30
0.0
 10
947.8055198669974
 20
858.2942679885882
 30
0.0
  0
LINE
  5
162
330
1F
100
AcDbEntity
  8
0
  6
Continuous
 62
     7
370
    25
100
AcDbLine
 10
949.6709044824
 20
866.4993961937
 30
0.0
 11
949.6709044824
 21
861.097152604
 31
0.0
  0
LINE
  5
163
330
1F
100
AcDbEntity
  8
0
  6
Continuous
 62
     7
370
    25
100
AcDbLine
 10
948.9529557644
 20
866.4993961937
 30
0.0
 11
949.6709044824
 21
866.4993961937
 31
0.0
  0
LINE
  5
164
330
1F
100
AcDbEntity
  8
0
  6
Continuous
 62
     7
370
    25
100
AcDbLine
 10
948.9529557644
 20
861.1772808091
 30
0.0
 11
948.9529557644
 21
866.4993961937
 31
0.0
  0
SPLINE
  5
165
330
1F
100
AcDbEntity
  8
0
  6
Continuous
 62
     7
370
    25
100
AcDbSpline
210
0.0
220
0.0
230
1.0
 70
     8
 71
     3
 72
    23
 73
    19
 74
     0
 42
0.00000001
 43
0.00000001
 40
0.0
 40
0.0
 40
0.0
 40
0.0
 40
0.0623263659914398
 40
0.1231962451944447
 40
0.1840362202545495
 40
0.2469640854288896
 40
0.3106993957895692
 40
0.3732676370734424
 40
0.4365875799673847
 40
0.5021247910366422
 40
0.5390047220341619
 40
0.5832553755259786
 40
0.6344465152828109
 40
0.6926760461021108
 40
0.7585704862865288
 40
0.8316586747921112
 40
0.9119171022748281
 40
1.0
 40
1.0
 40
1.0
 40
1.0
 10
947.8455839695615
 20
859.114780809101
 30
0.0
 10
947.9008589145385
 20
859.1171184889502
 30
0.0
 10
948.0101171003186
 20
859.1217392200851
 30
0.0
 10
948.1688919437659
 20
859.1625375635625
 30
0.0
 10
948.3207960151025
 20
859.2248104847368
 30
0.0
 10
948.4603838040875
 20
859.3159905847745
 30
0.0
 10
948.5890361174177
 20
859.4244052606592
 30
0.0
 10
948.6951911473315
 20
859.5555047090395
 30
0.0
 10
948.7836877061543
 20
859.7007983867684
 30
0.0
 10
948.8369441480984
 20
859.8383331384074
 30
0.0
 10
948.8708750555521
 20
859.9637654361746
 30
0.0
 10
948.8924102026541
 20
860.0790411753223
 30
0.0
 10
948.9112414264057
 20
860.2138102690388
 30
0.0
 10
948.9276564021804
 20
860.3682335840333
 30
0.0
 10
948.9372666206018
 20
860.542620286049
 30
0.0
 10
948.9480489584873
 20
860.7364583270305
 30
0.0
 10
948.9519466976637
 20
860.9502364120502
 30
0.0
 10
948.9526091453657
 20
861.0992900164382
 30
0.0
 10
948.9529557644332
 20
861.177280809101
 30
0.0
  0
LINE
  5
166
330
1F
100
AcDbEntity
  8
0
  6
Continuous
 62
     7
370
    25
100
AcDbLine
 10
945.055519867
 20
861.9865756809
 30
0.0
 11
945.055519867
 21
861.1660628604
 31
0.0
  0
LINE
  5
167
330
1F
100
AcDbEntity
  8
0
  6
Continuous
 62
     7
370
    25
100
AcDbLine
 10
941.9785967901
 20
861.9865756809
 30
0.0
 11
945.055519867
 21
861.9865756809
 31
0.0
  0
LINE
  5
168
330
1F
100
AcDbEntity
  8
0
  6
Continuous
 62
     7
370
    25
100
AcDbLine
 10
941.9785967901
 20
861.1660628604
 30
0.0
 11
941.9785967901
 21
861.9865756809
 31
0.0
  0
LINE
  5
169
330
1F
100
AcDbEntity
  8
0
  6
Continuous
 62
     7
370
    25
100
AcDbLine
 10
945.055519867
 20
861.1660628604
 30
0.0
 11
941.9785967901
 21
861.1660628604
 31
0.0
  0
SPLINE
  5
16A
330
1F
100
AcDbEntity
  8
0
  6
Continuous
 62
     7
370
    25
100
AcDbSpline
210
0.0
220
0.0
230
1.0
 70
     8
 71
     3
 72
    31
 73
    27
 74
     0
 42
0.00000001
 43
0.00000001
 40
0.0
 40
0.0
 40
0.0
 40
0.0
 40
0.03378811616271
 40
0.0671939323738809
 40
0.0998624108568261
 40
0.1325666121262591
 40
0.1651511732547866
 40
0.1979131873557938
 40
0.2313190035669632
 40
0.2650832782673755
 40
0.2992553087581146
 40
0.33439856650498
 40
0.3699428235093098
 40
0.4062835607000636
 40
0.4440638196985083
 40
0.4829977068727761
 40
0.523354446613308
 40
0.565536589604149
 40
0.6096129240658222
 40
0.6563908113764184
 40
0.7058854949364578
 40
0.7583245002617308
 40
0.8138317829411496
 40
0.8727945590393935
 40
0.934722229540078
 40
1.0
 40
1.0
 40
1.0
 40
1.0
 10
923.935327559305
 20
866.7045243988446
 30
0.0
 10
923.9989515101264
 20
866.7034093927289
 30
0.0
 10
924.1254795304594
 20
866.7011919963762
 30
0.0
 10
924.3125432453073
 20
866.6798801277257
 30
0.0
 10
924.4952853749406
 20
866.6445175606468
 30
0.0
 10
924.6729268348342
 20
866.5944124758867
 30
0.0
 10
924.8469268039034
 20
866.5322509292365
 30
0.0
 10
925.0159243070935
 20
866.4543375187012
 30
0.0
 10
925.1809690651326
 20
866.363642964771
 30
0.0
 10
925.3394382937495
 20
866.2570741023559
 30
0.0
 10
925.4930717002547
 20
866.138257471049
 30
0.0
 10
925.6380956156196
 20
866.0039427994984
 30
0.0
 10
925.774523240528
 20
865.8554862983129
 30
0.0
 10
925.9040667956966
 20
865.694476323715
 30
0.0
 10
926.0230510178664
 20
865.5178247012383
 30
0.0
 10
926.1363617201187
 20
865.3286038788059
 30
0.0
 10
926.2377835164654
 20
865.1235047592772
 30
0.0
 10
926.3354627740165
 20
864.9059494042119
 30
0.0
 10
926.4197758865632
 20
864.6699181840826
 30
0.0
 10
926.4958130186143
 20
864.4167415886125
 30
0.0
 10
926.5572506610713
 20
864.1434291615192
 30
0.0
 10
926.6084261407012
 20
863.851414886559
 30
0.0
 10
926.6480716171485
 20
863.5396263534385
 30
0.0
 10
926.6769462276136
 20
863.2087319179831
 30
0.0
 10
926.6921989934225
 20
862.8585138822327
 30
0.0
 10
926.6950714533234
 20
862.6190673698278
 30
0.0
 10
926.6965455080231
 20
862.4961910655113
 30
0.0
  0
SPLINE
  5
16B
330
1F
100
AcDbEntity
  8
0
  6
Continuous
 62
     7
370
    25
100
AcDbSpline
210
0.0
220
0.0
230
1.0
 70
     8
 71
     3
 72
    31
 73
    27
 74
     0
 42
0.00000001
 43
0.00000001
 40
0.0
 40
0.0
 40
0.0
 40
0.0
 40
0.0685946222587403
 40
0.1332460424432979
 40
0.1943125864682527
 40
0.2512792231169642
 40
0.3045134392563472
 40
0.3542349066533244
 40
0.4004805887739883
 40
0.4434107549384927
 40
0.4840148686163459
 40
0.5232523007732008
 40
0.5610423727283569
 40
0.5979002393644001
 40
0.6335184888561936
 40
0.6683143511696512
 40
0.7024956712863822
 40
0.7366853535134592
 40
0.7702931693607888
 40
0.803437255019248
 40
0.8359129516660284
 40
0.8684602457892905
 40
0.9008465382431826
 40
0.9334665246307086
 40
0.9662575752981225
 40
0.9999999999999999
 40
0.9999999999999999
 40
0.9999999999999999
 40
0.9999999999999999
 10
921.2606480721256
 20
862.4961910655113
 30
0.0
 10
921.2613978279142
 20
862.6244136660467
 30
0.0
 10
921.2628542393401
 20
862.8734879157553
 30
0.0
 10
921.2790563443509
 20
863.2364242404793
 30
0.0
 10
921.3059714124953
 20
863.5769049010397
 30
0.0
 10
921.342856836153
 20
863.8949461948419
 30
0.0
 10
921.3877436480927
 20
864.1906302280253
 30
0.0
 10
921.4476647603243
 20
864.4631668157651
 30
0.0
 10
921.5158083091585
 20
864.7138173451665
 30
0.0
 10
921.5947853281539
 20
864.9433991702547
 30
0.0
 10
921.6839002744815
 20
865.155005348591
 30
0.0
 10
921.7808928704178
 20
865.3525486658339
 30
0.0
 10
921.8896124005288
 20
865.5357302254675
 30
0.0
 10
922.003845344362
 20
865.7074737464276
 30
0.0
 10
922.1282157937972
 20
865.8649679059528
 30
0.0
 10
922.2591844577223
 20
866.0104368488524
 30
0.0
 10
922.4018630320471
 20
866.1405185641981
 30
0.0
 10
922.5514013366721
 20
866.2590243982212
 30
0.0
 10
922.7091532552818
 20
866.3629089049
 30
0.0
 10
922.8706222064662
 20
866.4544123074502
 30
0.0
 10
923.0369195912798
 20
866.5325834326105
 30
0.0
 10
923.2084994379037
 20
866.5940472860036
 30
0.0
 10
923.383819570223
 20
866.6448149357698
 30
0.0
 10
923.5634928655173
 20
866.6795325303905
 30
0.0
 10
923.7478159830861
 20
866.7013768926519
 30
0.0
 10
923.8722306911961
 20
866.7034652760581
 30
0.0
 10
923.935327559305
 20
866.7045243988446
 30
0.0
  0
SPLINE
  5
16C
330
1F
100
AcDbEntity
  8
0
  6
Continuous
 62
     7
370
    25
100
AcDbSpline
210
0.0
220
0.0
230
1.0
 70
     8
 71
     3
 72
    31
 73
    27
 74
     0
 42
0.00000001
 43
0.00000001
 40
0.0
 40
0.0
 40
0.0
 40
0.0
 40
0.0337871463469916
 40
0.066621657724293
 40
0.099284878095972
 40
0.1313611650426515
 40
0.1635851875953428
 40
0.1961039269870661
 40
0.2289022543238159
 40
0.2621580559050083
 40
0.2959912222583144
 40
0.3302178457247985
 40
0.3650598258919542
 40
0.4009507373401089
 40
0.4376203820767348
 40
0.4757075294370908
 40
0.5153806916250478
 40
0.556413541493163
 40
0.5997648298727302
 40
0.6464241555840854
 40
0.6964314445175632
 40
0.7497815178015564
 40
0.8065733069755284
 40
0.8674355315653955
 40
0.9318867532508699
 40
1.0
 40
1.0
 40
1.0
 40
1.0
 10
923.935327559305
 20
858.2942679885882
 30
0.0
 10
923.8722324416245
 20
858.2953339439226
 30
0.0
 10
923.7478211850176
 20
858.2974357997797
 30
0.0
 10
923.5634727840131
 20
858.3191814717525
 30
0.0
 10
923.3845414847219
 20
858.3541426219523
 30
0.0
 10
923.2101443326359
 20
858.4030948598746
 30
0.0
 10
923.0393865838732
 20
858.4630144857385
 30
0.0
 10
922.8745950715171
 20
858.5410800482597
 30
0.0
 10
922.7139375087957
 20
858.6309864915877
 30
0.0
 10
922.5578425236114
 20
858.7333760263037
 30
0.0
 10
922.4092432983775
 20
858.8506827305972
 30
0.0
 10
922.2673036290887
 20
858.9804296761663
 30
0.0
 10
922.1355892997243
 20
859.1258546162746
 30
0.0
 10
922.0129970811704
 20
859.2846612976637
 30
0.0
 10
921.89648487958
 20
859.45538870871
 30
0.0
 10
921.789309169136
 20
859.6403678470995
 30
0.0
 10
921.6901757884091
 20
859.8388652425043
 30
0.0
 10
921.5995620954525
 20
860.0521633240475
 30
0.0
 10
921.5192222931327
 20
860.2833745877269
 30
0.0
 10
921.4482561031591
 20
860.5351441385898
 30
0.0
 10
921.3922237432275
 20
860.8096941639933
 30
0.0
 10
921.3442627024666
 20
861.1048195745199
 30
0.0
 10
921.3055783983673
 20
861.4217885582589
 30
0.0
 10
921.2791685119253
 20
861.7607731941148
 30
0.0
 10
921.2628455061292
 20
862.1215622430888
 30
0.0
 10
921.2613939165975
 20
862.3690360129552
 30
0.0
 10
921.2606480721256
 20
862.4961910655113
 30
0.0
  0
SPLINE
  5
16D
330
1F
100
AcDbEntity
  8
0
  6
Continuous
 62
     7
370
    25
100
AcDbSpline
210
0.0
220
0.0
230
1.0
 70
     8
 71
     3
 72
    31
 73
    27
 74
     0
 42
0.00000001
 43
0.00000001
 40
0.0
 40
0.0
 40
0.0
 40
0.0
 40
0.0650632896172805
 40
0.1267731664665252
 40
0.1855157632260813
 40
0.2407646791677175
 40
0.2929797960236004
 40
0.3422503727797692
 40
0.3889192861856605
 40
0.4327756640583094
 40
0.4746284326311184
 40
0.5147746906379527
 40
0.5536058934984424
 40
0.5914264064311744
 40
0.6280281199460677
 40
0.6638036341103225
 40
0.6989843361316638
 40
0.7335914893067047
 40
0.7676284691511401
 40
0.8012083477865916
 40
0.8342638397266234
 40
0.8669806947287754
 40
0.8997197415181607
 40
0.9327019124985375
 40
0.9661758834327498
 40
1.0
 40
1.0
 40
1.0
 40
1.0
 10
926.6965455080231
 20
862.4961910655113
 30
0.0
 10
926.6950561719227
 20
862.3738507045034
 30
0.0
 10
926.6921542612679
 20
862.1354755002548
 30
0.0
 10
926.6771172172273
 20
861.7868332709525
 30
0.0
 10
926.6474974888188
 20
861.45769488627
 30
0.0
 10
926.6104460869702
 20
861.1472709720786
 30
0.0
 10
926.5591296001737
 20
860.8568535576032
 30
0.0
 10
926.4960320773137
 20
860.5854376753908
 30
0.0
 10
926.4259741965783
 20
860.33185122587
 30
0.0
 10
926.3394946671843
 20
860.0981716564758
 30
0.0
 10
926.2448416149621
 20
859.8811391470705
 30
0.0
 10
926.1418583094185
 20
859.6784713794598
 30
0.0
 10
926.0315272783655
 20
859.4883769961921
 30
0.0
 10
925.9113244326443
 20
859.3123775746351
 30
0.0
 10
925.7832023453382
 20
859.1492263584686
 30
0.0
 10
925.6444188280971
 20
859.0018032209794
 30
0.0
 10
925.4988860621496
 20
858.8665559707778
 30
0.0
 10
925.3448005402435
 20
858.7462093937215
 30
0.0
 10
925.1838598517128
 20
858.6408726974097
 30
0.0
 10
925.0193819615987
 20
858.5466696108091
 30
0.0
 10
924.8484485139479
 20
858.4707091649808
 30
0.0
 10
924.6749331934232
 20
858.4054862141745
 30
0.0
 10
924.4963540708749
 20
858.3556566098633
 30
0.0
 10
924.3129337492988
 20
858.3212020829592
 30
0.0
 10
924.1256052100334
 20
858.2970378579196
 30
0.0
 10
923.9989730612762
 20
858.2951944753476
 30
0.0
 10
923.935327559305
 20
858.2942679885882
 30
0.0
  0
SPLINE
  5
16E
330
1F
100
AcDbEntity
  8
0
  6
Continuous
 62
     7
370
    25
100
AcDbSpline
210
0.0
220
0.0
230
1.0
 70
     8
 71
     3
 72
    15
 73
    11
 74
     0
 42
0.00000001
 43
0.00000001
 40
0.0
 40
0.0
 40
0.0
 40
0.0
 40
0.1105883385953299
 40
0.2245417540535971
 40
0.3425034940500984
 40
0.4643240984173589
 40
0.5907560327017589
 40
0.7222274753555105
 40
0.8588428362087219
 40
1.0
 40
1.0
 40
1.0
 40
1.0
 10
969.8808403798179
 20
860.4881782449985
 30
0.0
 10
969.9049587062036
 20
860.5595605066358
 30
0.0
 10
969.9539292521065
 20
860.7044971106208
 30
0.0
 10
970.0170418790109
 20
860.9293283153763
 30
0.0
 10
970.0667456486195
 20
861.1652203472344
 30
0.0
 10
970.1114619131895
 20
861.4107634711623
 30
0.0
 10
970.141983183812
 20
861.6677685020444
 30
0.0
 10
970.1665496141738
 20
861.9354402367089
 30
0.0
 10
970.1810197557493
 20
862.2139804932473
 30
0.0
 10
970.1828134724836
 20
862.4032261874079
 30
0.0
 10
970.1837249952025
 20
862.4993961937164
 30
0.0
  0
SPLINE
  5
16F
330
1F
100
AcDbEntity
  8
0
  6
Continuous
 62
     7
370
    25
100
AcDbSpline
210
0.0
220
0.0
230
1.0
 70
     8
 71
     3
 72
    19
 73
    15
 74
     0
 42
0.00000001
 43
0.00000001
 40
0.0
 40
0.0
 40
0.0
 40
0.0
 40
0.1128134007444561
 40
0.2253938839207267
 40
0.3395948145627011
 40
0.4596754102248625
 40
0.5217351900879318
 40
0.5839258387389136
 40
0.6481741447653642
 40
0.7138810381130672
 40
0.7810044549073872
 40
0.8514509275565568
 40
0.9240506926641736
 40
1.0
 40
1.0
 40
1.0
 40
1.0
 10
968.1644942259718
 20
859.114780809101
 30
0.0
 10
968.2530831897564
 20
859.1184328795274
 30
0.0
 10
968.4300782141785
 20
859.1257294802178
 30
0.0
 10
968.6886697459371
 20
859.1961265942159
 30
0.0
 10
968.9397103632679
 20
859.3023426844188
 30
0.0
 10
969.1364462267626
 20
859.4279369825199
 30
0.0
 10
969.2861206119087
 20
859.5475445926942
 30
0.0
 10
969.3933594464364
 20
859.6495209316952
 30
0.0
 10
969.4917869857125
 20
859.7637057712527
 30
0.0
 10
969.5851402996658
 20
859.8869041619155
 30
0.0
 10
969.6707610440656
 20
860.0214698400268
 30
0.0
 10
969.7486196445118
 20
860.1667557263493
 30
0.0
 10
969.8196672960436
 20
860.3231652758627
 30
0.0
 10
969.8601451153585
 20
860.4323532509846
 30
0.0
 10
969.8808403798179
 20
860.4881782449985
 30
0.0
  0
SPLINE
  5
170
330
1F
100
AcDbEntity
  8
0
  6
Continuous
 62
     7
370
    25
100
AcDbSpline
210
0.0
220
0.0
230
1.0
 70
     8
 71
     3
 72
    27
 73
    23
 74
     0
 42
0.00000001
 43
0.00000001
 40
0.0
 40
0.0
 40
0.0
 40
0.0
 40
0.0729510658758663
 40
0.1415836941865439
 40
0.2059264601708646
 40
0.2653013571846032
 40
0.3205972327139258
 40
0.3718165030988135
 40
0.4187897697094551
 40
0.4616987286157679
 40
0.5021335821035657
 40
0.540804315292646
 40
0.5781805253279672
 40
0.6142968652075143
 40
0.6496782432647855
 40
0.6842994600896383
 40
0.7183589527723608
 40
0.7520808646475954
 40
0.8176524386023857
 40
0.8797220764054376
 40
0.9399655597309878
 40
1.0
 40
1.0
 40
1.0
 40
1.0
 10
966.1837249952025
 20
862.4993961937164
 30
0.0
 10
966.1839980170712
 20
862.392542025022
 30
0.0
 10
966.1845278989075
 20
862.185159065481
 30
0.0
 10
966.198370643084
 20
861.883803040393
 30
0.0
 10
966.2172283162257
 20
861.6027280030967
 30
0.0
 10
966.2415512812204
 20
861.3415770626051
 30
0.0
 10
966.2776723064227
 20
861.1012341768683
 30
0.0
 10
966.3181449642916
 20
860.8800463298622
 30
0.0
 10
966.3673977405641
 20
860.6791840736021
 30
0.0
 10
966.4256720671173
 20
860.497269077706
 30
0.0
 10
966.4920471457309
 20
860.3312140640024
 30
0.0
 10
966.5645176912625
 20
860.1766970008542
 30
0.0
 10
966.642370772188
 20
860.0318925747152
 30
0.0
 10
966.7295002591662
 20
859.8981014698601
 30
0.0
 10
966.8243918322611
 20
859.7748873805507
 30
0.0
 10
966.9249021388611
 20
859.6600694780998
 30
0.0
 10
967.0347823314145
 20
859.5576763779042
 30
0.0
 10
967.1867908857989
 20
859.4348721378369
 30
0.0
 10
967.3874685416323
 20
859.3079712607405
 30
0.0
 10
967.6403152964463
 20
859.1974659125539
 30
0.0
 10
967.9001288986896
 20
859.1280202978515
 30
0.0
 10
968.076474613174
 20
859.1191888556684
 30
0.0
 10
968.1644942259718
 20
859.114780809101
 30
0.0
  0
SPLINE
  5
171
330
1F
100
AcDbEntity
  8
0
  6
Continuous
 62
     7
370
    25
100
AcDbSpline
210
0.0
220
0.0
230
1.0
 70
     8
 71
     3
 72
    27
 73
    23
 74
     0
 42
0.00000001
 43
0.00000001
 40
0.0
 40
0.0
 40
0.0
 40
0.0
 40
0.0603866193110625
 40
0.1208832485859955
 40
0.1827546186251384
 40
0.2478110297583528
 40
0.2812991000432499
 40
0.315087624150657
 40
0.3497023955502742
 40
0.3848565811185577
 40
0.4209661972261024
 40
0.458511188261143
 40
0.4971747221273135
 40
0.5376020478662682
 40
0.5805030184200106
 40
0.6274675400267036
 40
0.6783882095592425
 40
0.7339832205925583
 40
0.7937467045508383
 40
0.8577136721607352
 40
0.9266978643613875
 40
1.0
 40
1.0
 40
1.0
 40
1.0
 10
968.1644942259718
 20
865.8840115783319
 30
0.0
 10
968.0760128726306
 20
865.8793682717095
 30
0.0
 10
967.8988889741046
 20
865.8700731994718
 30
0.0
 10
967.6372936490149
 20
865.8044886198339
 30
0.0
 10
967.386540845261
 20
865.6901732691194
 30
0.0
 10
967.1871283317092
 20
865.5645678463424
 30
0.0
 10
967.034296819692
 20
865.4449374201901
 30
0.0
 10
966.9266792348308
 20
865.3411969537708
 30
0.0
 10
966.8257736983333
 20
865.2277198009361
 30
0.0
 10
966.7328189551615
 20
865.1033725669924
 30
0.0
 10
966.6457577364363
 20
864.9697374416916
 30
0.0
 10
966.5658011362632
 20
864.8257631223195
 30
0.0
 10
966.4937615255752
 20
864.6707200040902
 30
0.0
 10
966.4272825857347
 20
864.5047395802751
 30
0.0
 10
966.3688304988177
 20
864.3228402787082
 30
0.0
 10
966.3206157257206
 20
864.1222254362089
 30
0.0
 10
966.2760738900179
 20
863.9017411121192
 30
0.0
 10
966.2445418468167
 20
863.6600965225302
 30
0.0
 10
966.2165104050756
 20
863.398880171972
 30
0.0
 10
966.1984958954705
 20
863.1171034445906
 30
0.0
 10
966.1844815926837
 20
862.815242003671
 30
0.0
 10
966.1839822455688
 20
862.6067867842364
 30
0.0
 10
966.1837249952025
 20
862.4993961937164
 30
0.0
  0
SPLINE
  5
172
330
1F
100
AcDbEntity
  8
0
  6
Continuous
 62
     7
370
    25
100
AcDbSpline
210
0.0
220
0.0
230
1.0
 70
     8
 71
     3
 72
    27
 73
    23
 74
     0
 42
0.00000001
 43
0.00000001
 40
0.0
 40
0.0
 40
0.0
 40
0.0
 40
0.0656811979906399
 40
0.1284864641740624
 40
0.1881751303280046
 40
0.2451061306699844
 40
0.2994484245294762
 40
0.3508229360093824
 40
0.3999416805337788
 40
0.4466717436323698
 40
0.4912545333735008
 40
0.533376344270434
 40
0.5738527549682234
 40
0.6125263117194503
 40
0.6495971364453307
 40
0.685532041553848
 40
0.7201057860681996
 40
0.7538376629736476
 40
0.8189254160467145
 40
0.8804934616501648
 40
0.9403113338460578
 40
1.0
 40
1.0
 40
1.0
 40
1.0
 10
970.1837249952025
 20
862.4993961937164
 30
0.0
 10
970.182467419813
 20
862.5955506451862
 30
0.0
 10
970.1800073335146
 20
862.7836493075419
 30
0.0
 10
970.1706039330548
 20
863.0591194347695
 30
0.0
 10
970.1463214770731
 20
863.3207600311333
 30
0.0
 10
970.1193520625258
 20
863.569698254366
 30
0.0
 10
970.0795869857438
 20
863.804556089119
 30
0.0
 10
970.0367119985889
 20
864.0272996439909
 30
0.0
 10
969.9791092276397
 20
864.2351694150065
 30
0.0
 10
969.9175783134135
 20
864.43141988749
 30
0.0
 10
969.8471545521988
 20
864.6138213834919
 30
0.0
 10
969.7696328738958
 20
864.7832243237477
 30
0.0
 10
969.6868402824238
 20
864.9404465517634
 30
0.0
 10
969.596915161374
 20
865.0850567039383
 30
0.0
 10
969.5009250286533
 20
865.2177025163065
 30
0.0
 10
969.3963363447732
 20
865.3357244467227
 30
0.0
 10
969.2872977783485
 20
865.4427803738281
 30
0.0
 10
969.13457278218
 20
865.5649805318202
 30
0.0
 10
968.9346315483506
 20
865.6895786929247
 30
0.0
 10
968.6858414972822
 20
865.804243286891
 30
0.0
 10
968.4269371675654
 20
865.8700908128817
 30
0.0
 10
968.2519121296407
 20
865.8793746689688
 30
0.0
 10
968.1644942259718
 20
865.8840115783319
 30
0.0
  0
SPLINE
  5
173
330
1F
100
AcDbEntity
  8
0
  6
Continuous
 62
     7
370
    25
100
AcDbSpline
210
0.0
220
0.0
230
1.0
 70
     8
 71
     3
 72
    11
 73
     7
 74
     0
 42
0.00000001
 43
0.00000001
 40
0.0
 40
0.0
 40
0.0
 40
0.0
 40
0.2874445104112346
 40
0.5487969932534779
 40
0.7854786059930771
 40
1.0
 40
1.0
 40
1.0
 40
1.0
 10
984.4385326875102
 20
863.3343320911523
 30
0.0
 10
984.543268512116
 20
863.4049525101084
 30
0.0
 10
984.7432330393473
 20
863.5397829632278
 30
0.0
 10
985.0121678206064
 20
863.7561608555936
 30
0.0
 10
985.2459839233147
 20
863.9652563550801
 30
0.0
 10
985.3743139316042
 20
864.1165616748718
 30
0.0
 10
985.4353275593052
 20
864.188498757819
 30
0.0
  0
SPLINE
  5
174
330
1F
100
AcDbEntity
  8
0
  6
Continuous
 62
     7
370
    25
100
AcDbSpline
210
0.0
220
0.0
230
1.0
 70
     8
 71
     3
 72
    11
 73
     7
 74
     0
 42
0.00000001
 43
0.00000001
 40
0.0
 40
0.0
 40
0.0
 40
0.0
 40
0.300653393417705
 40
0.5661709989900748
 40
0.7943525702972768
 40
1.0
 40
1.0
 40
1.0
 40
1.0
 10
985.435327559305
 20
864.188498757819
 30
0.0
 10
985.4709371526177
 20
864.2356820470847
 30
0.0
 10
985.5379948325267
 20
864.3245345616548
 30
0.0
 10
985.6108599834769
 20
864.4625355186583
 30
0.0
 10
985.6619088805137
 20
864.5915156787034
 30
0.0
 10
985.6680116120368
 20
864.6768798419655
 30
0.0
 10
985.6709044823821
 20
864.7173449116652
 30
0.0
  0
SPLINE
  5
175
330
1F
100
AcDbEntity
  8
0
  6
Continuous
 62
     7
370
    25
100
AcDbSpline
210
0.0
220
0.0
230
1.0
 70
     8
 71
     3
 72
    15
 73
    11
 74
     0
 42
0.00000001
 43
0.00000001
 40
0.0
 40
0.0
 40
0.0
 40
0.0
 40
0.0955643972837217
 40
0.1925326775458312
 40
0.297697403388348
 40
0.4163526281337528
 40
0.5461247983456328
 40
0.6838497084381403
 40
0.8340508784731526
 40
1.0
 40
1.0
 40
1.0
 40
1.0
 10
985.6709044823821
 20
864.7173449116652
 30
0.0
 10
985.6675045923691
 20
864.7606228912729
 30
0.0
 10
985.6606548664656
 20
864.847814623021
 30
0.0
 10
985.6034417509878
 20
864.972409491212
 30
0.0
 10
985.5098947317592
 20
865.0843483180728
 30
0.0
 10
985.3840209124314
 20
865.1839655468227
 30
0.0
 10
985.2306779981349
 20
865.2685483485587
 30
0.0
 10
985.0513121445633
 20
865.3295900559822
 30
0.0
 10
984.8484899450535
 20
865.3638637882104
 30
0.0
 10
984.705760102122
 20
865.3686688570243
 30
0.0
 10
984.630840379818
 20
865.3711910655113
 30
0.0
  0
SPLINE
  5
176
330
1F
100
AcDbEntity
  8
0
  6
Continuous
 62
     7
370
    25
100
AcDbSpline
210
0.0
220
0.0
230
1.0
 70
     8
 71
     3
 72
    15
 73
    11
 74
     0
 42
0.00000001
 43
0.00000001
 40
0.0
 40
0.0
 40
0.0
 40
0.0
 40
0.159521379978471
 40
0.3069819172131529
 40
0.4433312476005198
 40
0.5741600514121862
 40
0.6948029049600901
 40
0.8006491112498769
 40
0.900946517800653
 40
1.0
 40
1.0
 40
1.0
 40
1.0
 10
984.630840379818
 20
865.3711910655113
 30
0.0
 10
984.5596418073028
 20
865.3687496169316
 30
0.0
 10
984.4226277324716
 20
865.3640513089938
 30
0.0
 10
984.2271891373103
 20
865.3278718870473
 30
0.0
 10
984.0525076340384
 20
865.2645202539521
 30
0.0
 10
983.9010113029628
 20
865.1792646017303
 30
0.0
 10
983.7773835980743
 20
865.0768162714015
 30
0.0
 10
983.6867429797569
 20
864.9614211447372
 30
0.0
 10
983.6297832531894
 20
864.8349227072391
 30
0.0
 10
983.6229952530421
 20
864.7456681036907
 30
0.0
 10
983.6196224311
 20
864.7013192706394
 30
0.0
  0
SPLINE
  5
177
330
1F
100
AcDbEntity
  8
0
  6
Continuous
 62
     7
370
    25
100
AcDbSpline
210
0.0
220
0.0
230
1.0
 70
     8
 71
     3
 72
    11
 73
     7
 74
     0
 42
0.00000001
 43
0.00000001
 40
0.0
 40
0.0
 40
0.0
 40
0.0
 40
0.2502616097092578
 40
0.5005536482118428
 40
0.7486452744417504
 40
1.0
 40
1.0
 40
1.0
 40
1.0
 10
983.6196224311
 20
864.7013192706394
 30
0.0
 10
983.620902612036
 20
864.6670551234823
 30
0.0
 10
983.6234631295629
 20
864.5985226630609
 30
0.0
 10
983.6426680056712
 20
864.497389367353
 30
0.0
 10
983.6770450036677
 20
864.4002926277047
 30
0.0
 10
983.7081400140103
 20
864.3393576244981
 30
0.0
 10
983.7237890977667
 20
864.3086910655113
 30
0.0
  0
SPLINE
  5
178
330
1F
100
AcDbEntity
  8
0
  6
Continuous
 62
     7
370
    25
100
AcDbSpline
210
0.0
220
0.0
230
1.0
 70
     8
 71
     3
 72
    11
 73
     7
 74
     0
 42
0.00000001
 43
0.00000001
 40
0.0
 40
0.0
 40
0.0
 40
0.0
 40
0.2205232541987578
 40
0.4611394031497951
 40
0.7199059026582125
 40
1.0
 40
1.0
 40
1.0
 40
1.0
 10
983.7237890977667
 20
864.3086910655113
 30
0.0
 10
983.7692916856038
 20
864.2322099232349
 30
0.0
 10
983.8644428127411
 20
864.0722790876878
 30
0.0
 10
984.0328890445135
 20
863.8354329538287
 30
0.0
 10
984.2235885574103
 20
863.5853120260739
 30
0.0
 10
984.3650187525805
 20
863.4201707814013
 30
0.0
 10
984.4385326875102
 20
863.3343320911523
 30
0.0
  0
LINE
  5
179
330
1F
100
AcDbEntity
  8
0
  6
Continuous
 62
     7
370
    25
100
AcDbLine
 10
937.055519867
 20
865.6788833732
 30
0.0
 11
937.055519867
 21
863.1147808091
 31
0.0
  0
LINE
  5
17A
330
1F
100
AcDbEntity
  8
0
  6
Continuous
 62
     7
370
    25
100
AcDbLine
 10
937.055519867
 20
863.1147808091
 30
0.0
 11
937.5378916619
 21
863.1147808091
 31
0.0
  0
SPLINE
  5
17B
330
1F
100
AcDbEntity
  8
0
  6
Continuous
 62
     7
370
    25
100
AcDbSpline
210
0.0
220
0.0
230
1.0
 70
     8
 71
     3
 72
    23
 73
    19
 74
     0
 42
0.00000001
 43
0.00000001
 40
0.0
 40
0.0
 40
0.0
 40
0.0
 40
0.0723010339955063
 40
0.1397003317393861
 40
0.2022885114847735
 40
0.2605995332222011
 40
0.3131903291553341
 40
0.3617389329854278
 40
0.4057064756322227
 40
0.4455399848948728
 40
0.5188319558616089
 40
0.5897782395835774
 40
0.658867478656145
 40
0.7284304780610664
 40
0.7972827036081005
 40
0.8648153774014443
 40
0.9313637528792689
 40
1.0
 40
1.0
 40
1.0
 40
1.0
 10
937.5378916618691
 20
863.114780809101
 30
0.0
 10
937.6084031941355
 20
863.1156949188301
 30
0.0
 10
937.7446458438553
 20
863.1174611651111
 30
0.0
 10
937.9419484645612
 20
863.1225206326814
 30
0.0
 10
938.1250913632952
 20
863.1366875890632
 30
0.0
 10
938.2937584103214
 20
863.1508504737593
 30
0.0
 10
938.4476839965308
 20
863.1738781027052
 30
0.0
 10
938.5865271085356
 20
863.2012886693619
 30
0.0
 10
938.7124667586808
 20
863.2302781667253
 30
0.0
 10
938.8577000056213
 20
863.279579851069
 30
0.0
 10
939.0224381735255
 20
863.3524431086322
 30
0.0
 10
939.198056697307
 20
863.4655215911922
 30
0.0
 10
939.3528783420816
 20
863.6002058270758
 30
0.0
 10
939.4836147711542
 20
863.7556137396587
 30
0.0
 10
939.5906124180767
 20
863.9267364501916
 30
0.0
 10
939.6649294812864
 20
864.110843605471
 30
0.0
 10
939.7153232737038
 20
864.3033467644093
 30
0.0
 10
939.7198753453774
 20
864.4355027707861
 30
0.0
 10
939.7221865336642
 20
864.5026013219215
 30
0.0
  0
LINE
  5
17C
330
1F
100
AcDbEntity
  8
0
  6
Continuous
 62
     7
370
    25
100
AcDbLine
 10
938.0298788414
 20
865.6788833732
 30
0.0
 11
937.055519867
 21
865.6788833732
 31
0.0
  0
SPLINE
  5
17D
330
1F
100
AcDbEntity
  8
0
  6
Continuous
 62
     7
370
    25
100
AcDbSpline
210
0.0
220
0.0
230
1.0
 70
     8
 71
     3
 72
    23
 73
    19
 74
     0
 42
0.00000001
 43
0.00000001
 40
0.0
 40
0.0
 40
0.0
 40
0.0
 40
0.0570031325129206
 40
0.1118178691207244
 40
0.1644023722182133
 40
0.2158698048987947
 40
0.2668411100818737
 40
0.3174789632053578
 40
0.3699021362727593
 40
0.4234004494436341
 40
0.4797183982994533
 40
0.5392414966442973
 40
0.6024306889434213
 40
0.6710295461473358
 40
0.744484797560848
 40
0.8234539713786851
 40
0.9087403127306665
 40
1.0
 40
1.0
 40
1.0
 40
1.0
 10
939.7221865336642
 20
864.5026013219216
 30
0.0
 10
939.7209838361011
 20
864.5470030853811
 30
0.0
 10
939.7186246134978
 20
864.6341019930442
 30
0.0
 10
939.6993027789722
 20
864.7610719454018
 30
0.0
 10
939.6664626088337
 20
864.8804862368581
 30
0.0
 10
939.624281367142
 20
864.9939813461707
 30
0.0
 10
939.5653357929332
 20
865.0980084323885
 30
0.0
 10
939.4959335911001
 20
865.1961643082623
 30
0.0
 10
939.4120805847235
 20
865.2851062933981
 30
0.0
 10
939.3166352986527
 20
865.3682365752617
 30
0.0
 10
939.2069013035479
 20
865.4419383530858
 30
0.0
 10
939.0829440651037
 20
865.506488668911
 30
0.0
 10
938.9430865175226
 20
865.5584675870366
 30
0.0
 10
938.7896857061364
 20
865.6039902212711
 30
0.0
 10
938.6203803632825
 20
865.6359634642841
 30
0.0
 10
938.4371242412057
 20
865.6625997789289
 30
0.0
 10
938.2384163120012
 20
865.6761603320822
 30
0.0
 10
938.1009417919423
 20
865.6779554472243
 30
0.0
 10
938.0298788413563
 20
865.6788833732037
 30
0.0
  0
SPLINE
  5
17E
330
1F
100
AcDbEntity
  8
0
  6
Continuous
 62
     7
370
    25
100
AcDbSpline
210
0.0
220
0.0
230
1.0
 70
     8
 71
     3
 72
    15
 73
    11
 74
     0
 42
0.00000001
 43
0.00000001
 40
0.0
 40
0.0
 40
0.0
 40
0.0
 40
0.110588338595331
 40
0.2245417540535972
 40
0.3425034940500986
 40
0.464324098417359
 40
0.5907560327017589
 40
0.7222274753555105
 40
0.8588428362087218
 40
1.0
 40
1.0
 40
1.0
 40
1.0
 10
919.5218660208436
 20
860.4881782449985
 30
0.0
 10
919.5459843472294
 20
860.5595605066359
 30
0.0
 10
919.5949548931321
 20
860.7044971106208
 30
0.0
 10
919.6580675200366
 20
860.9293283153763
 30
0.0
 10
919.707771289645
 20
861.1652203472344
 30
0.0
 10
919.7524875542152
 20
861.4107634711623
 30
0.0
 10
919.7830088248378
 20
861.6677685020445
 30
0.0
 10
919.8075752551994
 20
861.9354402367089
 30
0.0
 10
919.8220453967749
 20
862.2139804932473
 30
0.0
 10
919.8238391135094
 20
862.4032261874079
 30
0.0
 10
919.8247506362281
 20
862.4993961937164
 30
0.0
  0
SPLINE
  5
17F
330
1F
100
AcDbEntity
  8
0
  6
Continuous
 62
     7
370
    25
100
AcDbSpline
210
0.0
220
0.0
230
1.0
 70
     8
 71
     3
 72
    27
 73
    23
 74
     0
 42
0.00000001
 43
0.00000001
 40
0.0
 40
0.0
 40
0.0
 40
0.0
 40
0.0729510658758663
 40
0.141583694186544
 40
0.2059264601708647
 40
0.2653013571846033
 40
0.3205972327139259
 40
0.3718165030988136
 40
0.4187897697094553
 40
0.4616987286157681
 40
0.502133582103566
 40
0.5408043152926463
 40
0.5781805253279682
 40
0.6142968652075144
 40
0.6496782432647856
 40
0.6842994600896384
 40
0.7183589527723611
 40
0.7520808646475956
 40
0.8176524386023871
 40
0.8797220764054391
 40
0.9399655597309877
 40
1.0
 40
1.0
 40
1.0
 40
1.0
 10
915.8247506362281
 20
862.4993961937164
 30
0.0
 10
915.8250236580968
 20
862.392542025022
 30
0.0
 10
915.8255535399331
 20
862.185159065481
 30
0.0
 10
915.8393962841097
 20
861.883803040393
 30
0.0
 10
915.8582539572512
 20
861.6027280030968
 30
0.0
 10
915.8825769222459
 20
861.341577062605
 30
0.0
 10
915.9186979474483
 20
861.1012341768683
 30
0.0
 10
915.9591706053172
 20
860.8800463298622
 30
0.0
 10
916.0084233815898
 20
860.6791840736021
 30
0.0
 10
916.0666977081429
 20
860.497269077706
 30
0.0
 10
916.1330727867565
 20
860.3312140640023
 30
0.0
 10
916.2055433322881
 20
860.1766970008542
 30
0.0
 10
916.2833964132136
 20
860.0318925747154
 30
0.0
 10
916.3705259001919
 20
859.8981014698601
 30
0.0
 10
916.4654174732867
 20
859.7748873805507
 30
0.0
 10
916.5659277798868
 20
859.6600694780998
 30
0.0
 10
916.6758079724402
 20
859.5576763779042
 30
0.0
 10
916.8278165268247
 20
859.4348721378369
 30
0.0
 10
917.0284941826578
 20
859.3079712607405
 30
0.0
 10
917.2813409374718
 20
859.197465912554
 30
0.0
 10
917.5411545397153
 20
859.1280202978515
 30
0.0
 10
917.7175002541996
 20
859.1191888556684
 30
0.0
 10
917.8055198669974
 20
859.114780809101
 30
0.0
  0
SPLINE
  5
180
330
1F
100
AcDbEntity
  8
0
  6
Continuous
 62
     7
370
    25
100
AcDbSpline
210
0.0
220
0.0
230
1.0
 70
     8
 71
     3
 72
    27
 73
    23
 74
     0
 42
0.00000001
 43
0.00000001
 40
0.0
 40
0.0
 40
0.0
 40
0.0
 40
0.0603866193110625
 40
0.1208832485859956
 40
0.1827546186251385
 40
0.2478110297583529
 40
0.28129910004325
 40
0.3150876241506571
 40
0.3497023955502743
 40
0.3848565811185578
 40
0.4209661972261026
 40
0.4585111882611423
 40
0.4971747221273135
 40
0.5376020478662675
 40
0.5805030184200101
 40
0.627467540026703
 40
0.6783882095592423
 40
0.733983220592558
 40
0.7937467045508382
 40
0.8577136721607351
 40
0.9266978643613873
 40
1.0
 40
1.0
 40
1.0
 40
1.0
 10
917.8055198669974
 20
865.8840115783318
 30
0.0
 10
917.7170385136561
 20
865.8793682717095
 30
0.0
 10
917.5399146151302
 20
865.8700731994718
 30
0.0
 10
917.2783192900405
 20
865.8044886198339
 30
0.0
 10
917.0275664862866
 20
865.6901732691194
 30
0.0
 10
916.828153972735
 20
865.5645678463424
 30
0.0
 10
916.6753224607176
 20
865.4449374201901
 30
0.0
 10
916.5677048758565
 20
865.3411969537708
 30
0.0
 10
916.4667993393588
 20
865.2277198009361
 30
0.0
 10
916.373844596187
 20
865.1033725669924
 30
0.0
 10
916.2867833774619
 20
864.9697374416916
 30
0.0
 10
916.2068267772889
 20
864.8257631223196
 30
0.0
 10
916.1347871666007
 20
864.6707200040901
 30
0.0
 10
916.0683082267605
 20
864.5047395802752
 30
0.0
 10
916.0098561398434
 20
864.3228402787082
 30
0.0
 10
915.9616413667462
 20
864.1222254362087
 30
0.0
 10
915.9170995310436
 20
863.9017411121192
 30
0.0
 10
915.8855674878423
 20
863.6600965225302
 30
0.0
 10
915.8575360461012
 20
863.398880171972
 30
0.0
 10
915.839521536496
 20
863.1171034445906
 30
0.0
 10
915.8255072337092
 20
862.815242003671
 30
0.0
 10
915.8250078865943
 20
862.6067867842363
 30
0.0
 10
915.8247506362281
 20
862.4993961937164
 30
0.0
  0
SPLINE
  5
181
330
1F
100
AcDbEntity
  8
0
  6
Continuous
 62
     7
370
    25
100
AcDbSpline
210
0.0
220
0.0
230
1.0
 70
     8
 71
     3
 72
    19
 73
    15
 74
     0
 42
0.00000001
 43
0.00000001
 40
0.0
 40
0.0
 40
0.0
 40
0.0
 40
0.1128134007444589
 40
0.2253938839207267
 40
0.339594814562701
 40
0.4596754102248648
 40
0.5217351900879319
 40
0.5839258387389137
 40
0.6481741447653643
 40
0.7138810381130672
 40
0.7810044549073871
 40
0.8514509275565582
 40
0.9240506926641748
 40
1.0
 40
1.0
 40
1.0
 40
1.0
 10
917.8055198669974
 20
859.114780809101
 30
0.0
 10
917.8941088307819
 20
859.1184328795275
 30
0.0
 10
918.0711038552042
 20
859.1257294802178
 30
0.0
 10
918.3296953869626
 20
859.196126594216
 30
0.0
 10
918.5807360042936
 20
859.3023426844187
 30
0.0
 10
918.7774718677881
 20
859.4279369825199
 30
0.0
 10
918.9271462529342
 20
859.5475445926942
 30
0.0
 10
919.034385087462
 20
859.6495209316952
 30
0.0
 10
919.1328126267381
 20
859.7637057712527
 30
0.0
 10
919.2261659406915
 20
859.8869041619155
 30
0.0
 10
919.3117866850913
 20
860.0214698400268
 30
0.0
 10
919.3896452855374
 20
860.1667557263492
 30
0.0
 10
919.4606929370692
 20
860.3231652758627
 30
0.0
 10
919.501170756384
 20
860.4323532509846
 30
0.0
 10
919.5218660208436
 20
860.4881782449985
 30
0.0
  0
SPLINE
  5
182
330
1F
100
AcDbEntity
  8
0
  6
Continuous
 62
     7
370
    25
100
AcDbSpline
210
0.0
220
0.0
230
1.0
 70
     8
 71
     3
 72
    27
 73
    23
 74
     0
 42
0.00000001
 43
0.00000001
 40
0.0
 40
0.0
 40
0.0
 40
0.0
 40
0.0656811979906398
 40
0.1284864641740623
 40
0.1881751303280046
 40
0.2451061306699841
 40
0.2994484245294761
 40
0.3508229360093824
 40
0.3999416805337787
 40
0.4466717436323697
 40
0.4912545333735001
 40
0.533376344270434
 40
0.5738527549682234
 40
0.6125263117194494
 40
0.6495971364453307
 40
0.685532041553848
 40
0.7201057860681997
 40
0.7538376629736477
 40
0.8189254160467144
 40
0.8804934616501634
 40
0.9403113338460563
 40
1.0
 40
1.0
 40
1.0
 40
1.0
 10
919.8247506362281
 20
862.4993961937164
 30
0.0
 10
919.8234930608387
 20
862.5955506451862
 30
0.0
 10
919.8210329745402
 20
862.783649307542
 30
0.0
 10
919.8116295740805
 20
863.0591194347694
 30
0.0
 10
919.7873471180989
 20
863.3207600311333
 30
0.0
 10
919.7603777035514
 20
863.569698254366
 30
0.0
 10
919.7206126267694
 20
863.8045560891192
 30
0.0
 10
919.6777376396145
 20
864.0272996439908
 30
0.0
 10
919.6201348686654
 20
864.2351694150065
 30
0.0
 10
919.5586039544391
 20
864.43141988749
 30
0.0
 10
919.4881801932245
 20
864.6138213834919
 30
0.0
 10
919.4106585149215
 20
864.7832243237477
 30
0.0
 10
919.3278659234494
 20
864.9404465517634
 30
0.0
 10
919.2379408023996
 20
865.0850567039382
 30
0.0
 10
919.1419506696791
 20
865.2177025163065
 30
0.0
 10
919.0373619857988
 20
865.3357244467227
 30
0.0
 10
918.9283234193741
 20
865.442780373828
 30
0.0
 10
918.7755984232057
 20
865.5649805318202
 30
0.0
 10
918.5756571893763
 20
865.6895786929246
 30
0.0
 10
918.3268671383078
 20
865.804243286891
 30
0.0
 10
918.0679628085909
 20
865.8700908128817
 30
0.0
 10
917.8929377706663
 20
865.8793746689688
 30
0.0
 10
917.8055198669974
 20
865.8840115783318
 30
0.0
  0
LINE
  5
183
330
1F
100
AcDbEntity
  8
0
  6
Continuous
 62
     7
370
    25
100
AcDbLine
 10
994.1837249952
 20
865.6788833732
 30
0.0
 11
994.1837249952
 21
863.0122167065
 31
0.0
  0
LINE
  5
184
330
1F
100
AcDbEntity
  8
0
  6
Continuous
 62
     7
370
    25
100
AcDbLine
 10
994.1837249952
 20
863.0122167065
 30
0.0
 11
995.5843660208
 21
862.9945885014
 31
0.0
  0
SPLINE
  5
185
330
1F
100
AcDbEntity
  8
0
  6
Continuous
 62
     7
370
    25
100
AcDbSpline
210
0.0
220
0.0
230
1.0
 70
     8
 71
     3
 72
    23
 73
    19
 74
     0
 42
0.00000001
 43
0.00000001
 40
0.0
 40
0.0
 40
0.0
 40
0.0
 40
0.0725383714064936
 40
0.1400338305012504
 40
0.2024956806336211
 40
0.2605750556694153
 40
0.313228337846463
 40
0.3615831937532633
 40
0.4048783612951267
 40
0.4441274373055376
 40
0.5163996933371935
 40
0.5865066709977658
 40
0.655085373796045
 40
0.7243837831470401
 40
0.7939735287256668
 40
0.861637682181774
 40
0.9301109423064012
 40
1.0
 40
1.0
 40
1.0
 40
1.0
 10
995.5843660208435
 20
862.9945885014088
 30
0.0
 10
995.6527544227015
 20
862.9945531560576
 30
0.0
 10
995.7847768225479
 20
862.9944849225858
 30
0.0
 10
995.9754881899381
 20
863.0035940048241
 30
0.0
 10
996.1524237037737
 20
863.0141095080569
 30
0.0
 10
996.3150398760555
 20
863.0295059045415
 30
0.0
 10
996.4634100120174
 20
863.0512687787912
 30
0.0
 10
996.5977815065876
 20
863.0732384654611
 30
0.0
 10
996.7171124389188
 20
863.1050221514006
 30
0.0
 10
996.8567677572407
 20
863.1478177380043
 30
0.0
 10
997.0123868371877
 20
863.2208065738008
 30
0.0
 10
997.181684090955
 20
863.3267491796375
 30
0.0
 10
997.3251597169008
 20
863.4617907983805
 30
0.0
 10
997.4493158237842
 20
863.6136258414126
 30
0.0
 10
997.5478435447865
 20
863.7825381372437
 30
0.0
 10
997.619971527224
 20
863.9632671354746
 30
0.0
 10
997.6623513154835
 20
864.1539593629528
 30
0.0
 10
997.6680340438394
 20
864.2844465374789
 30
0.0
 10
997.6709044823821
 20
864.3503577321779
 30
0.0
  0
SPLINE
  5
186
330
1F
100
AcDbEntity
  8
0
  6
Continuous
 62
     7
370
    25
100
AcDbSpline
210
0.0
220
0.0
230
1.0
 70
     8
 71
     3
 72
    23
 73
    19
 74
     0
 42
0.00000001
 43
0.00000001
 40
0.0
 40
0.0
 40
0.0
 40
0.0
 40
0.0700437554181535
 40
0.1392383167626473
 40
0.2081974550441335
 40
0.2791733744245646
 40
0.3499868116864749
 40
0.4183538456626527
 40
0.4876095837571511
 40
0.5574110731083888
 40
0.5953301567632416
 40
0.6379640515652167
 40
0.6859127777112898
 40
0.7381851646524783
 40
0.7961026471849437
 40
0.8585165439469268
 40
0.9266577264685163
 40
1.0
 40
1.0
 40
1.0
 40
1.0
 10
997.6709044823821
 20
864.3503577321779
 30
0.0
 10
997.6680184332494
 20
864.4146743343468
 30
0.0
 10
997.6622813247673
 20
864.5425277792745
 30
0.0
 10
997.6196393518286
 20
864.7299078035251
 30
0.0
 10
997.5479837772833
 20
864.9087322706949
 30
0.0
 10
997.4486544183924
 20
865.0755278943599
 30
0.0
 10
997.3281032641967
 20
865.2268165891377
 30
0.0
 10
997.1879904799498
 20
865.3582385938528
 30
0.0
 10
997.0286458826156
 20
865.4638882000952
 30
0.0
 10
996.8804213545408
 20
865.5320785581495
 30
0.0
 10
996.7487615007639
 20
865.5737134734252
 30
0.0
 10
996.6344027353152
 20
865.6028445373275
 30
0.0
 10
996.5052811936322
 20
865.6261030658873
 30
0.0
 10
996.3613548404655
 20
865.6449362151358
 30
0.0
 10
996.2037392201674
 20
865.6610584122177
 30
0.0
 10
996.0310802146942
 20
865.6719977887526
 30
0.0
 10
995.8440318872325
 20
865.6784011172932
 30
0.0
 10
995.7141791538269
 20
865.6787187293085
 30
0.0
 10
995.6468660208436
 20
865.6788833732037
 30
0.0
  0
LINE
  5
187
330
1F
100
AcDbEntity
  8
0
  6
Continuous
 62
     7
370
    25
100
AcDbLine
 10
995.6468660208
 20
865.6788833732
 30
0.0
 11
994.1837249952
 21
865.6788833732
 31
0.0
  0
SPLINE
  5
188
330
1F
100
AcDbEntity
  8
0
  6
Continuous
 62
     7
370
    25
100
AcDbSpline
210
0.0
220
0.0
230
1.0
 70
     8
 71
     3
 72
    19
 73
    15
 74
     0
 42
0.00000001
 43
0.00000001
 40
0.0
 40
0.0
 40
0.0
 40
0.0
 40
0.1124162647283046
 40
0.216427205778651
 40
0.3117181816538852
 40
0.3990916737062832
 40
0.4778749608871191
 40
0.5481554382000954
 40
0.6109149223270647
 40
0.6655214878729397
 40
0.7614267442079884
 40
0.8480747124229775
 40
0.927081299311977
 40
1.0
 40
1.0
 40
1.0
 40
1.0
 10
984.3920583285359
 20
862.3311269629472
 30
0.0
 10
984.3084119625225
 20
862.2674239738298
 30
0.0
 10
984.1473734391952
 20
862.1447810451774
 30
0.0
 10
983.9204444185481
 20
861.9617401839632
 30
0.0
 10
983.7138477884226
 20
861.7908014800335
 30
0.0
 10
983.5318697208318
 20
861.6273959338273
 30
0.0
 10
983.3713299257897
 20
861.4753200807849
 30
0.0
 10
983.2318816981492
 20
861.3344790196409
 30
0.0
 10
983.116771599774
 20
861.2018462386415
 30
0.0
 10
982.9951055626661
 20
861.043636958708
 30
0.0
 10
982.8789410916654
 20
860.8538315989109
 30
0.0
 10
982.7759047038272
 20
860.6316484075612
 30
0.0
 10
982.7102524458056
 20
860.4165485754751
 30
0.0
 10
982.7009907773906
 20
860.2743683720265
 30
0.0
 10
982.6965455080231
 20
860.2061269629472
 30
0.0
  0
SPLINE
  5
189
330
1F
100
AcDbEntity
  8
0
  6
Continuous
 62
     7
370
    25
100
AcDbSpline
210
0.0
220
0.0
230
1.0
 70
     8
 71
     3
 72
    11
 73
     7
 74
     0
 42
0.00000001
 43
0.00000001
 40
0.0
 40
0.0
 40
0.0
 40
0.0
 40
0.2462769307314226
 40
0.4937630384080785
 40
0.7432885174918327
 40
1.0
 40
1.0
 40
1.0
 40
1.0
 10
984.031481405459
 20
859.012216706537
 30
0.0
 10
984.102155386031
 20
859.0142222121095
 30
0.0
 10
984.2438503441415
 20
859.0182430699386
 30
0.0
 10
984.454225969423
 20
859.0557698524668
 30
0.0
 10
984.6633164802452
 20
859.1123197003395
 30
0.0
 10
984.7970160335528
 20
859.1692466369149
 30
0.0
 10
984.8648147387922
 20
859.1981141424343
 30
0.0
  0
SPLINE
  5
18A
330
1F
100
AcDbEntity
  8
0
  6
Continuous
 62
     7
370
    25
100
AcDbSpline
210
0.0
220
0.0
230
1.0
 70
     8
 71
     3
 72
    15
 73
    11
 74
     0
 42
0.00000001
 43
0.00000001
 40
0.0
 40
0.0
 40
0.0
 40
0.0
 40
0.0992332690068631
 40
0.2051348443530157
 40
0.3189939449799806
 40
0.4399143855081824
 40
0.5682924513562282
 40
0.7042108570168151
 40
0.8482643057446819
 40
1.0
 40
1.0
 40
1.0
 40
1.0
 10
984.8648147387922
 20
859.1981141424343
 30
0.0
 10
984.9201710468865
 20
859.2241712337706
 30
0.0
 10
985.0346035125152
 20
859.2780364085155
 30
0.0
 10
985.2058739339602
 20
859.3748033626963
 30
0.0
 10
985.3871309828018
 20
859.4808473301881
 30
0.0
 10
985.574222751732
 20
859.6038586462727
 30
0.0
 10
985.7698037348695
 20
859.7384650343308
 30
0.0
 10
985.9737270232756
 20
859.8860364953571
 30
0.0
 10
986.1848454444234
 20
860.0480352523305
 30
0.0
 10
986.3270977205472
 20
860.1620579766851
 30
0.0
 10
986.4000711490487
 20
860.2205500398703
 30
0.0
  0
LINE
  5
18B
330
1F
100
AcDbEntity
  8
0
  6
Continuous
 62
     7
370
    25
100
AcDbLine
 10
986.400071149
 20
860.2205500399
 30
0.0
 11
985.1164173029
 21
861.5298449117
 31
0.0
  0
SPLINE
  5
18C
330
1F
100
AcDbEntity
  8
0
  6
Continuous
 62
     7
370
    25
100
AcDbSpline
210
0.0
220
0.0
230
1.0
 70
     8
 71
     3
 72
    11
 73
     7
 74
     0
 42
0.00000001
 43
0.00000001
 40
0.0
 40
0.0
 40
0.0
 40
0.0
 40
0.2256581645359022
 40
0.4682556807155448
 40
0.7256263975715318
 40
1.0
 40
1.0
 40
1.0
 40
1.0
 10
985.1164173028949
 20
861.5298449116651
 30
0.0
 10
985.0606399127473
 20
861.5889350459588
 30
0.0
 10
984.9448981231878
 20
861.7115509996698
 30
0.0
 10
984.7699809761185
 20
861.9056596207677
 30
0.0
 10
984.5828366836978
 20
862.1123529841049
 30
0.0
 10
984.4569924320476
 20
862.256664154125
 30
0.0
 10
984.3920583285359
 20
862.3311269629472
 30
0.0
  0
SPLINE
  5
18D
330
1F
100
AcDbEntity
  8
0
  6
Continuous
 62
     7
370
    25
100
AcDbSpline
210
0.0
220
0.0
230
1.0
 70
     8
 71
     3
 72
    23
 73
    19
 74
     0
 42
0.00000001
 43
0.00000001
 40
0.0
 40
0.0
 40
0.0
 40
0.0
 40
0.0581965330992355
 40
0.1161800351147926
 40
0.1731607669743053
 40
0.2304094839413253
 40
0.2888962758640922
 40
0.3493327951575914
 40
0.4112281349936187
 40
0.4762938370259725
 40
0.5421208583074372
 40
0.6065882076487503
 40
0.6705535027338528
 40
0.73414093613992
 40
0.7984616249162209
 40
0.8638518461788154
 40
0.930519466095123
 40
1.0
 40
1.0
 40
1.0
 40
1.0
 10
982.6965455080231
 20
860.2061269629472
 30
0.0
 10
982.6979400561471
 20
860.1676122526108
 30
0.0
 10
982.7007240475876
 20
860.0907238168046
 30
0.0
 10
982.7180995388511
 20
859.9770728165723
 30
0.0
 10
982.7494174709401
 20
859.8672569525947
 30
0.0
 10
982.7909379686907
 20
859.7605114452339
 30
0.0
 10
982.8460987115591
 20
859.6574785319583
 30
0.0
 10
982.91339033153
 20
859.5582267717656
 30
0.0
 10
982.9934660877765
 20
859.4633103238103
 30
0.0
 10
983.0816495831453
 20
859.3709424831633
 30
0.0
 10
983.1798408950139
 20
859.2863203340232
 30
0.0
 10
983.2868141418431
 20
859.2145952304442
 30
0.0
 10
983.3973075048225
 20
859.1516039188454
 30
0.0
 10
983.5133609832274
 20
859.0992025585041
 30
0.0
 10
983.6359980922032
 20
859.0620505927677
 30
0.0
 10
983.7626122245708
 20
859.031957307493
 30
0.0
 10
983.8954288603243
 20
859.0166314559635
 30
0.0
 10
983.9855101765434
 20
859.0137084203178
 30
0.0
 10
984.031481405459
 20
859.012216706537
 30
0.0
  0
SPLINE
  5
18E
330
1F
100
AcDbEntity
  8
0
  6
Continuous
 62
     7
370
    25
100
AcDbSpline
210
0.0
220
0.0
230
1.0
 70
     8
 71
     3
 72
    19
 73
    15
 74
     0
 42
0.00000001
 43
0.00000001
 40
0.0
 40
0.0
 40
0.0
 40
0.0
 40
0.112813400744459
 40
0.2253938839207267
 40
0.3395948145627011
 40
0.4596754102248624
 40
0.5217351900879318
 40
0.5839258387389136
 40
0.6481741447653642
 40
0.7138810381130672
 40
0.7810044549073872
 40
0.8514509275565568
 40
0.9240506926641737
 40
1.0
 40
1.0
 40
1.0
 40
1.0
 10
923.9593660208436
 20
859.114780809101
 30
0.0
 10
924.0479549846281
 20
859.1184328795275
 30
0.0
 10
924.2249500090504
 20
859.125729480218
 30
0.0
 10
924.4835415408088
 20
859.196126594216
 30
0.0
 10
924.7345821581398
 20
859.3023426844187
 30
0.0
 10
924.9313180216343
 20
859.42793698252
 30
0.0
 10
925.0809924067804
 20
859.5475445926942
 30
0.0
 10
925.1882312413082
 20
859.6495209316952
 30
0.0
 10
925.2866587805843
 20
859.7637057712527
 30
0.0
 10
925.3800120945376
 20
859.8869041619155
 30
0.0
 10
925.4656328389374
 20
860.0214698400268
 30
0.0
 10
925.5434914393835
 20
860.1667557263493
 30
0.0
 10
925.6145390909154
 20
860.3231652758627
 30
0.0
 10
925.6550169102302
 20
860.4323532509846
 30
0.0
 10
925.6757121746897
 20
860.4881782449985
 30
0.0
  0
SPLINE
  5
18F
330
1F
100
AcDbEntity
  8
0
  6
Continuous
 62
     7
370
    25
100
AcDbSpline
210
0.0
220
0.0
230
1.0
 70
     8
 71
     3
 72
    15
 73
    11
 74
     0
 42
0.00000001
 43
0.00000001
 40
0.0
 40
0.0
 40
0.0
 40
0.0
 40
0.1105883385953299
 40
0.2245417540535979
 40
0.3425034940500985
 40
0.4643240984173589
 40
0.5907560327017589
 40
0.7222274753555104
 40
0.8588428362087219
 40
1.0
 40
1.0
 40
1.0
 40
1.0
 10
925.6757121746897
 20
860.4881782449985
 30
0.0
 10
925.6998305010756
 20
860.5595605066359
 30
0.0
 10
925.7488010469782
 20
860.7044971106208
 30
0.0
 10
925.8119136738828
 20
860.9293283153763
 30
0.0
 10
925.8616174434912
 20
861.1652203472344
 30
0.0
 10
925.9063337080613
 20
861.4107634711623
 30
0.0
 10
925.936854978684
 20
861.6677685020444
 30
0.0
 10
925.9614214090456
 20
861.9354402367089
 30
0.0
 10
925.9758915506211
 20
862.2139804932473
 30
0.0
 10
925.9776852673555
 20
862.4032261874079
 30
0.0
 10
925.9785967900743
 20
862.4993961937164
 30
0.0
  0
SPLINE
  5
190
330
1F
100
AcDbEntity
  8
0
  6
Continuous
 62
     7
370
    25
100
AcDbSpline
210
0.0
220
0.0
230
1.0
 70
     8
 71
     3
 72
    27
 73
    23
 74
     0
 42
0.00000001
 43
0.00000001
 40
0.0
 40
0.0
 40
0.0
 40
0.0
 40
0.0729510658758663
 40
0.1415836941865439
 40
0.2059264601708646
 40
0.2653013571846032
 40
0.3205972327139258
 40
0.3718165030988135
 40
0.4187897697094551
 40
0.4616987286157679
 40
0.5021335821035657
 40
0.540804315292646
 40
0.5781805253279672
 40
0.6142968652075143
 40
0.6496782432647855
 40
0.6842994600896383
 40
0.7183589527723608
 40
0.7520808646475954
 40
0.8176524386023857
 40
0.8797220764054376
 40
0.9399655597309878
 40
1.0
 40
1.0
 40
1.0
 40
1.0
 10
921.9785967900743
 20
862.4993961937164
 30
0.0
 10
921.978869811943
 20
862.392542025022
 30
0.0
 10
921.9793996937793
 20
862.185159065481
 30
0.0
 10
921.9932424379558
 20
861.883803040393
 30
0.0
 10
922.0121001110974
 20
861.6027280030967
 30
0.0
 10
922.0364230760921
 20
861.3415770626051
 30
0.0
 10
922.0725441012945
 20
861.1012341768683
 30
0.0
 10
922.1130167591634
 20
860.8800463298622
 30
0.0
 10
922.1622695354359
 20
860.6791840736021
 30
0.0
 10
922.2205438619891
 20
860.497269077706
 30
0.0
 10
922.2869189406026
 20
860.3312140640024
 30
0.0
 10
922.3593894861343
 20
860.1766970008542
 30
0.0
 10
922.4372425670598
 20
860.0318925747152
 30
0.0
 10
922.524372054038
 20
859.8981014698601
 30
0.0
 10
922.6192636271329
 20
859.7748873805507
 30
0.0
 10
922.719773933733
 20
859.6600694780998
 30
0.0
 10
922.8296541262863
 20
859.5576763779042
 30
0.0
 10
922.9816626806708
 20
859.4348721378369
 30
0.0
 10
923.182340336504
 20
859.3079712607405
 30
0.0
 10
923.435187091318
 20
859.1974659125539
 30
0.0
 10
923.6950006935615
 20
859.1280202978515
 30
0.0
 10
923.8713464080458
 20
859.1191888556684
 30
0.0
 10
923.9593660208436
 20
859.114780809101
 30
0.0
  0
SPLINE
  5
191
330
1F
100
AcDbEntity
  8
0
  6
Continuous
 62
     7
370
    25
100
AcDbSpline
210
0.0
220
0.0
230
1.0
 70
     8
 71
     3
 72
    27
 73
    23
 74
     0
 42
0.00000001
 43
0.00000001
 40
0.0
 40
0.0
 40
0.0
 40
0.0
 40
0.0603866193110625
 40
0.1208832485859956
 40
0.1827546186251385
 40
0.2478110297583529
 40
0.28129910004325
 40
0.3150876241506571
 40
0.3497023955502732
 40
0.3848565811185578
 40
0.4209661972261025
 40
0.4585111882611422
 40
0.4971747221273133
 40
0.5376020478662681
 40
0.5805030184200101
 40
0.627467540026703
 40
0.6783882095592423
 40
0.733983220592558
 40
0.7937467045508382
 40
0.8577136721607351
 40
0.9266978643613873
 40
1.0
 40
1.0
 40
1.0
 40
1.0
 10
923.9593660208436
 20
865.8840115783318
 30
0.0
 10
923.8708846675023
 20
865.8793682717095
 30
0.0
 10
923.6937607689764
 20
865.8700731994718
 30
0.0
 10
923.4321654438867
 20
865.8044886198339
 30
0.0
 10
923.1814126401327
 20
865.6901732691194
 30
0.0
 10
922.9820001265812
 20
865.5645678463424
 30
0.0
 10
922.8291686145637
 20
865.4449374201901
 30
0.0
 10
922.7215510297027
 20
865.3411969537708
 30
0.0
 10
922.620645493205
 20
865.2277198009361
 30
0.0
 10
922.5276907500332
 20
865.1033725669924
 30
0.0
 10
922.4406295313081
 20
864.9697374416916
 30
0.0
 10
922.3606729311351
 20
864.8257631223195
 30
0.0
 10
922.2886333204469
 20
864.6707200040902
 30
0.0
 10
922.2221543806065
 20
864.5047395802751
 30
0.0
 10
922.1637022936895
 20
864.3228402787082
 30
0.0
 10
922.1154875205924
 20
864.1222254362087
 30
0.0
 10
922.0709456848897
 20
863.9017411121192
 30
0.0
 10
922.0394136416884
 20
863.6600965225302
 30
0.0
 10
922.0113821999474
 20
863.398880171972
 30
0.0
 10
921.9933676903422
 20
863.1171034445906
 30
0.0
 10
921.9793533875554
 20
862.815242003671
 30
0.0
 10
921.9788540404405
 20
862.6067867842363
 30
0.0
 10
921.9785967900743
 20
862.4993961937164
 30
0.0
  0
SPLINE
  5
192
330
1F
100
AcDbEntity
  8
0
  6
Continuous
 62
     7
370
    25
100
AcDbSpline
210
0.0
220
0.0
230
1.0
 70
     8
 71
     3
 72
    27
 73
    23
 74
     0
 42
0.00000001
 43
0.00000001
 40
0.0
 40
0.0
 40
0.0
 40
0.0
 40
0.0656811979906398
 40
0.1284864641740624
 40
0.1881751303280047
 40
0.2451061306699844
 40
0.2994484245294762
 40
0.3508229360093824
 40
0.3999416805337792
 40
0.4466717436323697
 40
0.4912545333735001
 40
0.5333763442704346
 40
0.5738527549682225
 40
0.6125263117194493
 40
0.6495971364453307
 40
0.685532041553847
 40
0.7201057860681999
 40
0.7538376629736477
 40
0.8189254160467145
 40
0.880493461650165
 40
0.9403113338460578
 40
1.0
 40
1.0
 40
1.0
 40
1.0
 10
925.9785967900743
 20
862.4993961937164
 30
0.0
 10
925.9773392146849
 20
862.5955506451862
 30
0.0
 10
925.9748791283864
 20
862.7836493075419
 30
0.0
 10
925.9654757279267
 20
863.0591194347695
 30
0.0
 10
925.9411932719449
 20
863.3207600311333
 30
0.0
 10
925.9142238573975
 20
863.569698254366
 30
0.0
 10
925.8744587806156
 20
863.8045560891192
 30
0.0
 10
925.8315837934606
 20
864.0272996439908
 30
0.0
 10
925.7739810225115
 20
864.2351694150063
 30
0.0
 10
925.7124501082853
 20
864.43141988749
 30
0.0
 10
925.6420263470706
 20
864.6138213834919
 30
0.0
 10
925.5645046687677
 20
864.7832243237477
 30
0.0
 10
925.4817120772956
 20
864.9404465517634
 30
0.0
 10
925.3917869562458
 20
865.0850567039382
 30
0.0
 10
925.2957968235252
 20
865.2177025163065
 30
0.0
 10
925.1912081396449
 20
865.3357244467227
 30
0.0
 10
925.0821695732202
 20
865.442780373828
 30
0.0
 10
924.9294445770519
 20
865.5649805318202
 30
0.0
 10
924.7295033432224
 20
865.6895786929246
 30
0.0
 10
924.480713292154
 20
865.804243286891
 30
0.0
 10
924.2218089624371
 20
865.8700908128816
 30
0.0
 10
924.0467839245124
 20
865.8793746689688
 30
0.0
 10
923.9593660208436
 20
865.8840115783319
 30
0.0
  0
LINE
  5
193
330
1F
100
AcDbEntity
  8
0
  6
Continuous
 62
     7
370
    25
100
AcDbLine
 10
937.055519867
 20
859.3199090142
 30
0.0
 11
938.0779557644
 21
859.3199090142
 31
0.0
  0
SPLINE
  5
194
330
1F
100
AcDbEntity
  8
0
  6
Continuous
 62
     7
370
    25
100
AcDbSpline
210
0.0
220
0.0
230
1.0
 70
     8
 71
     3
 72
    19
 73
    15
 74
     0
 42
0.00000001
 43
0.00000001
 40
0.0
 40
0.0
 40
0.0
 40
0.0
 40
0.0602873979279758
 40
0.1196023547075218
 40
0.1775033710185431
 40
0.2351426637323248
 40
0.2921325932269297
 40
0.3508712086415659
 40
0.4100978625665908
 40
0.4707315215304474
 40
0.5948287040804154
 40
0.7225788240942931
 40
0.8566913895440148
 40
1.0
 40
1.0
 40
1.0
 40
1.0
 10
940.3375711490487
 20
860.7702295270498
 30
0.0
 10
940.3369400534202
 20
860.8125000196555
 30
0.0
 10
940.3356880417928
 20
860.8963591780215
 30
0.0
 10
940.316806636253
 20
861.0195953361654
 30
0.0
 10
940.2893463624387
 20
861.1389687608721
 30
0.0
 10
940.2538459421356
 20
861.2548035962659
 30
0.0
 10
940.2021443030704
 20
861.3650055993467
 30
0.0
 10
940.1417864858886
 20
861.4717543068593
 30
0.0
 10
940.0710175678436
 20
861.5751908312566
 30
0.0
 10
939.9607451887176
 20
861.7059616962837
 30
0.0
 10
939.8003520812433
 20
861.8566291543485
 30
0.0
 10
939.572450880231
 20
862.0041434452437
 30
0.0
 10
939.3133141991583
 20
862.1231098614437
 30
0.0
 10
939.1253656439674
 20
862.1736229502172
 30
0.0
 10
939.0282762772538
 20
862.199716706537
 30
0.0
  0
LINE
  5
195
330
1F
100
AcDbEntity
  8
0
  6
Continuous
 62
     7
370
    25
100
AcDbLine
 10
937.5314814055
 20
862.2942679886
 30
0.0
 11
937.055519867
 21
862.2942679886
 31
0.0
  0
LINE
  5
196
330
1F
100
AcDbEntity
  8
0
  6
Continuous
 62
     7
370
    25
100
AcDbLine
 10
937.055519867
 20
862.2942679886
 30
0.0
 11
937.055519867
 21
859.3199090142
 31
0.0
  0
SPLINE
  5
197
330
1F
100
AcDbEntity
  8
0
  6
Continuous
 62
     7
370
    25
100
AcDbSpline
210
0.0
220
0.0
230
1.0
 70
     8
 71
     3
 72
    15
 73
    11
 74
     0
 42
0.00000001
 43
0.00000001
 40
0.0
 40
0.0
 40
0.0
 40
0.0
 40
0.0793064855229972
 40
0.1719528189279295
 40
0.2770565073915893
 40
0.3947305758644749
 40
0.5261773212767583
 40
0.6713447665976116
 40
0.8292852571892514
 40
1.0
 40
1.0
 40
1.0
 40
1.0
 10
939.0282762772538
 20
862.199716706537
 30
0.0
 10
938.9893526295915
 20
862.2076140412922
 30
0.0
 10
938.9049581327938
 20
862.2247370920014
 30
0.0
 10
938.7673408060995
 20
862.2428118426058
 30
0.0
 10
938.6102302486084
 20
862.2589148366449
 30
0.0
 10
938.4332636720918
 20
862.270826054162
 30
0.0
 10
938.2362171781177
 20
862.2831381537003
 30
0.0
 10
938.0186699354076
 20
862.2879263162655
 30
0.0
 10
937.7815103590438
 20
862.2936389107647
 30
0.0
 10
937.6169563649873
 20
862.2940529318888
 30
0.0
 10
937.531481405459
 20
862.2942679885882
 30
0.0
  0
SPLINE
  5
198
330
1F
100
AcDbEntity
  8
0
  6
Continuous
 62
     7
370
    25
100
AcDbSpline
210
0.0
220
0.0
230
1.0
 70
     8
 71
     3
 72
    23
 73
    19
 74
     0
 42
0.00000001
 43
0.00000001
 40
0.0
 40
0.0
 40
0.0
 40
0.0
 40
0.0725024889330344
 40
0.1397389892678949
 40
0.2017951348259229
 40
0.2598219344148622
 40
0.3122059893845971
 40
0.3607734341243377
 40
0.4045403426007507
 40
0.4436980985527653
 40
0.51684079424397
 40
0.5878743359442817
 40
0.6579654175616317
 40
0.7289693886473089
 40
0.7993077199548878
 40
0.8666357778344692
 40
0.9331163290572759
 40
1.0
 40
1.0
 40
1.0
 40
1.0
 10
938.0779557644333
 20
859.3199090142292
 30
0.0
 10
938.151141880806
 20
859.3207861511361
 30
0.0
 10
938.2921984718397
 20
859.3224767168892
 30
0.0
 10
938.4958584264017
 20
859.3279956987426
 30
0.0
 10
938.6846198065185
 20
859.340549471769
 30
0.0
 10
938.8576212596143
 20
859.3603114138576
 30
0.0
 10
939.0167308656274
 20
859.3817478691082
 30
0.0
 10
939.160039901122
 20
859.410573654072
 30
0.0
 10
939.2887100576053
 20
859.4435998495588
 30
0.0
 10
939.4379084752953
 20
859.494649386096
 30
0.0
 10
939.6059164942232
 20
859.5739556053354
 30
0.0
 10
939.7869698802475
 20
859.6935309800058
 30
0.0
 10
939.9479440931481
 20
859.835984254915
 30
0.0
 10
940.0846418284775
 20
860.0008549158833
 30
0.0
 10
940.1966715165826
 20
860.1801265202909
 30
0.0
 10
940.2781696996308
 20
860.3701730344684
 30
0.0
 10
940.3284345149887
 20
860.5678542399961
 30
0.0
 10
940.3345194733656
 20
860.7026352972372
 30
0.0
 10
940.3375711490487
 20
860.7702295270498
 30
0.0
  0
CIRCLE
  5
199
330
1F
100
AcDbEntity
  8
0
  6
Continuous
 62
     7
370
    25
100
AcDbCircle
 10
962.4636043964
 20
694.1666365531
 30
0.0
 40
70.00000000000011
  0
CIRCLE
  5
19A
330
1F
100
AcDbEntity
  8
0
  6
Continuous
 62
     7
370
    25
100
AcDbCircle
 10
962.4636043964
 20
694.1666365531
 30
0.0
 40
57.50000000000011
  0
ENDSEC
  0
SECTION
  2
OBJECTS
  0
DICTIONARY
  5
C
330
0
100
AcDbDictionary
281
     1
  3
ACAD_DETAILVIEWSTYLE
350
1A2
  3
ACAD_GROUP
350
D
  3
ACAD_LAYOUT
350
1A
  3
ACAD_MATERIAL
350
43
  3
ACAD_MLEADERSTYLE
350
5B
  3
ACAD_MLINESTYLE
350
17
  3
ACAD_PLOTSETTINGS
350
19
  3
ACAD_PLOTSTYLENAME
350
E
  3
ACAD_SCALELIST
350
47
  3
ACAD_SECTIONVIEWSTYLE
350
1A3
  3
ACAD_TABLESTYLE
350
59
  3
ACAD_VISUALSTYLE
350
2A
  3
ACDB_RECOMPOSE_DATA
350
19F
  3
AcDbVariableDictionary
350
19B
  0
SUN
  5
5D
330
29
100
AcDbSun
 90
        1
290
     0
 63
     7
421
 16777215
 40
1.0
291
     1
 91
  2455826
 92
 54000000
292
     0
 70
     2
 71
   256
280
     1
  0
DICTIONARY
  5
1A2
102
{ACAD_REACTORS
330
C
102
}
330
C
100
AcDbDictionary
281
     1
  0
DICTIONARY
  5
D
102
{ACAD_REACTORS
330
C
102
}
330
C
100
AcDbDictionary
281
     1
  0
DICTIONARY
  5
1A
102
{ACAD_REACTORS
330
C
102
}
330
C
100
AcDbDictionary
281
     1
  3
Layout1
350
1E
  3
Layout2
350
26
  3
Model
350
22
  0
DICTIONARY
  5
43
102
{ACAD_REACTORS
330
C
102
}
330
C
100
AcDbDictionary
281
     1
  3
ByBlock
350
45
  3
ByLayer
350
44
  3
Global
350
46
  0
DICTIONARY
  5
5B
102
{ACAD_REACTORS
330
C
102
}
330
C
100
AcDbDictionary
281
     1
  3
Standard
350
5C
  0
DICTIONARY
  5
17
102
{ACAD_REACTORS
330
C
102
}
330
C
100
AcDbDictionary
281
     1
  3
Standard
350
18
  0
DICTIONARY
  5
19
102
{ACAD_REACTORS
330
C
102
}
330
C
100
AcDbDictionary
281
     1
  0
ACDBDICTIONARYWDFLT
  5
E
102
{ACAD_REACTORS
330
C
102
}
330
C
100
AcDbDictionary
281
     1
  3
Normal
350
F
100
AcDbDictionaryWithDefault
340
F
  0
DICTIONARY
  5
47
102
{ACAD_REACTORS
330
C
102
}
330
C
100
AcDbDictionary
281
     1
  3
A0
350
48
  3
A1
350
49
  3
A2
350
4A
  3
A3
350
4B
  3
A4
350
4C
  3
A5
350
4D
  3
A6
350
4E
  3
A7
350
4F
  3
A8
350
50
  3
A9
350
51
  3
B0
350
52
  3
B1
350
53
  3
B2
350
54
  3
B3
350
55
  3
B4
350
56
  3
B5
350
57
  3
B6
350
58
  0
DICTIONARY
  5
1A3
102
{ACAD_REACTORS
330
C
102
}
330
C
100
AcDbDictionary
281
     1
  0
DICTIONARY
  5
59
102
{ACAD_REACTORS
330
C
102
}
330
C
100
AcDbDictionary
281
     1
  3
Standard
350
5A
  0
DICTIONARY
  5
2A
102
{ACAD_REACTORS
330
C
102
}
330
C
100
AcDbDictionary
281
     1
  3
2dWireframe
350
2F
  3
Basic
350
32
  3
Brighten
350
36
  3
ColorChange
350
3A
  3
Conceptual
350
34
  3
Dim
350
35
  3
EdgeColorOff
350
3D
  3
Facepattern
350
39
  3
Flat
350
2B
  3
FlatWithEdges
350
2C
  3
Gouraud
350
2D
  3
GouraudWithEdges
350
2E
  3
Hidden
350
31
  3
JitterOff
350
3B
  3
Linepattern
350
38
  3
OverhangOff
350
3C
  3
Realistic
350
33
  3
Shaded
350
42
  3
Shaded with edges
350
41
  3
Shades of Gray
350
3E
  3
Sketchy
350
3F
  3
Thicken
350
37
  3
Wireframe
350
30
  3
X-Ray
350
40
  0
XRECORD
  5
19F
102
{ACAD_REACTORS
330
C
102
}
330
C
100
AcDbXrecord
280
     1
 90
        1
330
5A
  0
DICTIONARY
  5
19B
102
{ACAD_REACTORS
330
C
102
}
330
C
100
AcDbDictionary
281
     1
  3
CANNOSCALE
350
19C
  3
CENTEREXE
350
1A4
  3
CENTERLTYPEFILE
350
1A5
  3
CMLEADERSTYLE
350
1A1
  3
CTABLESTYLE
350
1A0
  0
LAYOUT
  5
1E
102
{ACAD_REACTORS
330
1A
102
}
330
1A
100
AcDbPlotSettings
  1

  2
none_device
  4

  6

 40
0.0
 41
0.0
 42
0.0
 43
0.0
 44
0.0
 45
0.0
 46
0.0
 47
0.0
 48
0.0
 49
0.0
140
0.0
141
0.0
142
1.0
143
1.0
 70
   688
 72
     1
 73
     0
 74
     5
  7

 75
    16
 76
     0
 77
     2
 78
   300
147
1.0
148
0.0
149
0.0
100
AcDbLayout
  1
Layout1
 70
     1
 71
     1
 10
0.0
 20
0.0
 11
420.0
 21
297.0
 12
0.0
 22
0.0
 32
0.0
 14
1.0000000000E+20
 24
1.0000000000E+20
 34
1.0000000000E+20
 15
-1.0000000000E+20
 25
-1.0000000000E+20
 35
-1.0000000000E+20
146
0.0
 13
0.0
 23
0.0
 33
0.0
 16
1.0
 26
0.0
 36
0.0
 17
0.0
 27
1.0
 37
0.0
 76
     0
330
1B
  0
LAYOUT
  5
26
102
{ACAD_REACTORS
330
1A
102
}
330
1A
100
AcDbPlotSettings
  1

  2
none_device
  4

  6

 40
0.0
 41
0.0
 42
0.0
 43
0.0
 44
0.0
 45
0.0
 46
0.0
 47
0.0
 48
0.0
 49
0.0
140
0.0
141
0.0
142
1.0
143
1.0
 70
   688
 72
     1
 73
     0
 74
     5
  7

 75
    16
 76
     0
 77
     2
 78
   300
147
1.0
148
0.0
149
0.0
100
AcDbLayout
  1
Layout2
 70
     1
 71
     2
 10
0.0
 20
0.0
 11
0.0
 21
0.0
 12
0.0
 22
0.0
 32
0.0
 14
0.0
 24
0.0
 34
0.0
 15
0.0
 25
0.0
 35
0.0
146
0.0
 13
0.0
 23
0.0
 33
0.0
 16
1.0
 26
0.0
 36
0.0
 17
0.0
 27
1.0
 37
0.0
 76
     0
330
23
  0
LAYOUT
  5
22
102
{ACAD_REACTORS
330
1A
102
}
330
1A
100
AcDbPlotSettings
  1

  2
none_device
  4
Letter_(8.50_x_11.00_Inches)
  6

 40
6.35
 41
6.35
 42
6.35000508
 43
6.35000508
 44
215.9
 45
279.4
 46
0.0
 47
0.0
 48
0.0
 49
0.0
140
0.0
141
0.0
142
1.0
143
1.0
 70
  1712
 72
     1
 73
     0
 74
     0
  7

 75
     0
 76
     0
 77
     2
 78
   300
147
1.0
148
0.0
149
0.0
100
AcDbLayout
  1
Model
 70
     1
 71
     0
 10
0.0
 20
0.0
 11
420.0
 21
297.0
 12
0.0
 22
0.0
 32
0.0
 14
0.0
 24
0.0
 34
0.0
 15
420.0
 25
297.0
 35
0.0
146
0.0
 13
0.0
 23
0.0
 33
0.0
 16
1.0
 26
0.0
 36
0.0
 17
0.0
 27
1.0
 37
0.0
 76
     0
330
1F
331
29
  0
MATERIAL
  5
45
102
{ACAD_REACTORS
330
43
102
}
330
43
100
AcDbMaterial
  1
ByBlock
 72
     1
 94
      127
  0
MATERIAL
  5
44
102
{ACAD_REACTORS
330
43
102
}
330
43
100
AcDbMaterial
  1
ByLayer
 72
     1
 94
      127
  0
MATERIAL
  5
46
102
{ACAD_REACTORS
330
43
102
}
330
43
100
AcDbMaterial
  1
Global
 72
     1
 94
      127
  0
MLEADERSTYLE
  5
5C
102
{ACAD_REACTORS
330
5B
102
}
330
5B
100
AcDbMLeaderStyle
179
     2
170
     2
171
     1
172
     0
 90
        2
 40
0.0
 41
0.0
173
     1
 91
-1056964608
340
14
 92
       -2
290
     1
 42
2.0
291
     1
 43
8.0
  3
Standard
341
0
 44
4.0
300

342
11
174
     1
178
     6
175
     1
176
     0
 93
-1056964608
 45
4.0
292
     0
297
     0
 46
4.0
343
0
 94
-1056964608
 47
1.0
 49
1.0
140
1.0
293
     1
141
0.0
294
     1
177
     0
142
1.0
295
     0
296
     0
143
3.75
271
     0
272
     9
273
     9
298
     0
  0
MLINESTYLE
  5
18
102
{ACAD_REACTORS
330
17
102
}
330
17
100
AcDbMlineStyle
  2
Standard
 70
     0
  3

 62
   256
 51
90.0
 52
90.0
 71
     2
 49
0.5
 62
   256
  6
BYLAYER
 49
-0.5
 62
   256
  6
BYLAYER
  0
ACDBPLACEHOLDER
  5
F
102
{ACAD_REACTORS
330
E
102
}
330
E
  0
SCALE
  5
48
102
{ACAD_REACTORS
330
47
102
}
330
47
100
AcDbScale
 70
     0
300
1:1
140
1.0
141
1.0
290
     1
  0
SCALE
  5
49
102
{ACAD_REACTORS
330
47
102
}
330
47
100
AcDbScale
 70
     0
300
1:2
140
1.0
141
2.0
290
     0
  0
SCALE
  5
4A
102
{ACAD_REACTORS
330
47
102
}
330
47
100
AcDbScale
 70
     0
300
1:4
140
1.0
141
4.0
290
     0
  0
SCALE
  5
4B
102
{ACAD_REACTORS
330
47
102
}
330
47
100
AcDbScale
 70
     0
300
1:5
140
1.0
141
5.0
290
     0
  0
SCALE
  5
4C
102
{ACAD_REACTORS
330
47
102
}
330
47
100
AcDbScale
 70
     0
300
1:8
140
1.0
141
8.0
290
     0
  0
SCALE
  5
4D
102
{ACAD_REACTORS
330
47
102
}
330
47
100
AcDbScale
 70
     0
300
1:10
140
1.0
141
10.0
290
     0
  0
SCALE
  5
4E
102
{ACAD_REACTORS
330
47
102
}
330
47
100
AcDbScale
 70
     0
300
1:16
140
1.0
141
16.0
290
     0
  0
SCALE
  5
4F
102
{ACAD_REACTORS
330
47
102
}
330
47
100
AcDbScale
 70
     0
300
1:20
140
1.0
141
20.0
290
     0
  0
SCALE
  5
50
102
{ACAD_REACTORS
330
47
102
}
330
47
100
AcDbScale
 70
     0
300
1:30
140
1.0
141
30.0
290
     0
  0
SCALE
  5
51
102
{ACAD_REACTORS
330
47
102
}
330
47
100
AcDbScale
 70
     0
300
1:40
140
1.0
141
40.0
290
     0
  0
SCALE
  5
52
102
{ACAD_REACTORS
330
47
102
}
330
47
100
AcDbScale
 70
     0
300
1:50
140
1.0
141
50.0
290
     0
  0
SCALE
  5
53
102
{ACAD_REACTORS
330
47
102
}
330
47
100
AcDbScale
 70
     0
300
1:100
140
1.0
141
100.0
290
     0
  0
SCALE
  5
54
102
{ACAD_REACTORS
330
47
102
}
330
47
100
AcDbScale
 70
     0
300
2:1
140
2.0
141
1.0
290
     0
  0
SCALE
  5
55
102
{ACAD_REACTORS
330
47
102
}
330
47
100
AcDbScale
 70
     0
300
4:1
140
4.0
141
1.0
290
     0
  0
SCALE
  5
56
102
{ACAD_REACTORS
330
47
102
}
330
47
100
AcDbScale
 70
     0
300
8:1
140
8.0
141
1.0
290
     0
  0
SCALE
  5
57
102
{ACAD_REACTORS
330
47
102
}
330
47
100
AcDbScale
 70
     0
300
10:1
140
10.0
141
1.0
290
     0
  0
SCALE
  5
58
102
{ACAD_REACTORS
330
47
102
}
330
47
100
AcDbScale
 70
     0
300
100:1
140
100.0
141
1.0
290
     0
  0
TABLESTYLE
  5
5A
102
{ACAD_REACTORS
330
59
102
}
102
{ACAD_XDICTIONARY
360
19D
102
}
330
59
100
AcDbTableStyle
  3
Standard
 70
     0
 71
     0
 40
0.06
 41
0.06
280
     0
281
     0
  7
Standard
140
4.5
170
     2
 62
     0
 63
   257
283
     0
 90
        4
 91
        0
  1

274
    -2
284
     1
 64
     0
275
    -2
285
     1
 65
     0
276
    -2
286
     1
 66
     0
277
    -2
287
     1
 67
     0
278
    -2
288
     1
 68
     0
279
    -2
289
     1
 69
     0
  7
Standard
140
6.0
170
     5
 62
     0
 63
   257
283
     0
 90
        4
 91
        0
  1

274
    -2
284
     1
 64
     0
275
    -2
285
     1
 65
     0
276
    -2
286
     1
 66
     0
277
    -2
287
     1
 67
     0
278
    -2
288
     1
 68
     0
279
    -2
289
     1
 69
     0
  7
Standard
140
4.5
170
     5
 62
     0
 63
   257
283
     0
 90
        4
 91
        0
  1

274
    -2
284
     1
 64
     0
275
    -2
285
     1
 65
     0
276
    -2
286
     1
 66
     0
277
    -2
287
     1
 67
     0
278
    -2
288
     1
 68
     0
279
    -2
289
     1
 69
     0
  0
VISUALSTYLE
  5
2F
102
{ACAD_REACTORS
330
2A
102
}
330
2A
100
AcDbVisualStyle
  2
2dWireframe
 70
     4
177
     3
291
     0
 70
    58
 90
        0
176
     1
 90
        2
176
     1
 90
        0
176
     1
 90
        0
176
     1
 40
0.6
176
     1
 40
30.0
176
     1
 62
     7
420
 16777215
176
     1
 90
        1
176
     1
 90
        4
176
     1
 62
     7
176
     1
 62
   257
176
     1
 90
        1
176
     1
 90
        1
176
     1
 40
1.0
176
     1
 90
        0
176
     1
 62
   257
176
     1
 40
1.0
176
     1
 90
        1
176
     1
 90
        6
176
     1
 90
        2
176
     1
 62
     7
176
     1
 90
        5
176
     1
 90
        0
176
     1
 90
        0
176
     1
290
     0
176
     1
 90
        1
176
     1
 40
0.0
176
     1
 90
        0
176
     1
290
     1
176
     1
290
     1
176
     1
290
     0
176
     1
290
     0
176
     1
290
     0
176
     1
290
     0
176
     1
290
     0
176
     1
290
     0
176
     1
290
     0
176
     1
 90
       50
176
     1
 40
0.0
176
     1
 40
1.0
176
     1
 90
        0
176
     1
 62
    18
420
        0
176
     1
 90
       50
176
     1
 90
        3
176
     1
 62
     5
420
      255
176
     1
290
     0
176
     1
 90
       50
176
     1
 90
       50
176
     1
 90
       50
176
     1
290
     0
176
     1
 90
       50
176
     1
 62
   256
176
     0
 40
1.0
176
     0
 90
        2
176
     1
  1
strokes_ogs.tif
176
     1
290
     0
176
     1
 40
1.0
176
     1
 40
1.0
176
     1
  0
VISUALSTYLE
  5
32
102
{ACAD_REACTORS
330
2A
102
}
330
2A
100
AcDbVisualStyle
  2
Basic
 70
     7
177
     3
291
     1
 70
    58
 90
        1
176
     1
 90
        0
176
     1
 90
        1
176
     1
 90
        0
176
     1
 40
0.6
176
     1
 40
30.0
176
     1
 62
     7
420
 16777215
176
     1
 90
        0
176
     1
 90
        4
176
     1
 62
     7
176
     1
 62
   257
176
     1
 90
        1
176
     1
 90
        1
176
     1
 40
1.0
176
     1
 90
        8
176
     1
 62
     7
176
     1
 40
1.0
176
     1
 90
        1
176
     1
 90
        6
176
     1
 90
        2
176
     1
 62
     7
176
     1
 90
        5
176
     1
 90
        0
176
     1
 90
        0
176
     1
290
     0
176
     1
 90
        1
176
     1
 40
0.0
176
     1
 90
        0
176
     1
290
     0
176
     1
290
     1
176
     1
290
     1
176
     1
290
     0
176
     1
290
     0
176
     1
290
     0
176
     1
290
     0
176
     1
290
     0
176
     1
290
     0
176
     1
 90
       50
176
     1
 40
0.0
176
     1
 40
1.0
176
     1
 90
        0
176
     1
 62
    18
420
        0
176
     1
 90
       50
176
     1
 90
        3
176
     1
 62
     5
420
      255
176
     1
290
     0
176
     1
 90
       50
176
     1
 90
       50
176
     1
 90
       50
176
     1
290
     0
176
     1
 90
       50
176
     1
 62
   256
176
     0
 40
1.0
176
     0
 90
        2
176
     1
  1
strokes_ogs.tif
176
     1
290
     0
176
     1
 40
1.0
176
     1
 40
1.0
176
     1
  0
VISUALSTYLE
  5
36
102
{ACAD_REACTORS
330
2A
102
}
330
2A
100
AcDbVisualStyle
  2
Brighten
 70
    12
177
     3
291
     1
 70
    58
 90
        2
176
     1
 90
        2
176
     1
 90
        0
176
     1
 90
        0
176
     1
 40
0.6
176
     1
 40
30.0
176
     1
 62
     7
420
 16777215
176
     1
 90
        1
176
     1
 90
        4
176
     1
 62
     7
176
     1
 62
   257
176
     1
 90
        1
176
     1
 90
        1
176
     1
 40
1.0
176
     1
 90
        8
176
     1
 62
     7
176
     1
 40
1.0
176
     1
 90
        1
176
     1
 90
        6
176
     1
 90
        2
176
     1
 62
     7
176
     1
 90
        5
176
     1
 90
        0
176
     1
 90
        0
176
     1
290
     0
176
     1
 90
        1
176
     1
 40
50.0
176
     1
 90
        0
176
     1
290
     0
176
     1
290
     1
176
     1
290
     1
176
     1
290
     0
176
     1
290
     0
176
     1
290
     0
176
     1
290
     0
176
     1
290
     0
176
     1
290
     0
176
     1
 90
       50
176
     1
 40
0.0
176
     1
 40
1.0
176
     1
 90
        0
176
     1
 62
    18
420
        0
176
     1
 90
       50
176
     1
 90
        3
176
     1
 62
     5
420
      255
176
     1
290
     0
176
     1
 90
       50
176
     1
 90
       50
176
     1
 90
       50
176
     1
290
     0
176
     1
 90
       50
176
     1
 62
   256
176
     0
 40
1.0
176
     0
 90
        2
176
     1
  1
strokes_ogs.tif
176
     1
290
     0
176
     1
 40
1.0
176
     1
 40
1.0
176
     1
  0
VISUALSTYLE
  5
3A
102
{ACAD_REACTORS
330
2A
102
}
330
2A
100
AcDbVisualStyle
  2
ColorChange
 70
    16
177
     3
291
     1
 70
    58
 90
        2
176
     1
 90
        2
176
     1
 90
        3
176
     1
 90
        0
176
     1
 40
0.6
176
     1
 40
30.0
176
     1
 62
     8
420
  8421504
176
     1
 90
        1
176
     1
 90
        4
176
     1
 62
     7
176
     1
 62
   257
176
     1
 90
        1
176
     1
 90
        1
176
     1
 40
1.0
176
     1
 90
        8
176
     1
 62
     8
420
  8421504
176
     1
 40
1.0
176
     1
 90
        1
176
     1
 90
        6
176
     1
 90
        2
176
     1
 62
     7
176
     1
 90
        5
176
     1
 90
        0
176
     1
 90
        0
176
     1
290
     0
176
     1
 90
        1
176
     1
 40
0.0
176
     1
 90
        0
176
     1
290
     0
176
     1
290
     1
176
     1
290
     1
176
     1
290
     0
176
     1
290
     0
176
     1
290
     0
176
     1
290
     0
176
     1
290
     0
176
     1
290
     0
176
     1
 90
       50
176
     1
 40
0.0
176
     1
 40
1.0
176
     1
 90
        0
176
     1
 62
    18
420
        0
176
     1
 90
       50
176
     1
 90
        3
176
     1
 62
     5
420
      255
176
     1
290
     0
176
     1
 90
       50
176
     1
 90
       50
176
     1
 90
       50
176
     1
290
     0
176
     1
 90
       50
176
     1
 62
   256
176
     0
 40
1.0
176
     0
 90
        2
176
     1
  1
strokes_ogs.tif
176
     1
290
     0
176
     1
 40
1.0
176
     1
 40
1.0
176
     1
  0
VISUALSTYLE
  5
34
102
{ACAD_REACTORS
330
2A
102
}
330
2A
100
AcDbVisualStyle
  2
Conceptual
 70
     9
177
     3
291
     0
 70
    58
 90
        3
176
     1
 90
        2
176
     1
 90
        0
176
     1
 90
        0
176
     1
 40
0.6
176
     1
 40
30.0
176
     1
 62
     7
420
 16777215
176
     1
 90
        2
176
     1
 90
        2
176
     1
 62
     7
176
     1
 62
   257
176
     1
 90
        1
176
     1
 90
        1
176
     1
 40
179.0
176
     1
 90
        8
176
     1
 62
     7
176
     1
 40
1.0
176
     1
 90
        1
176
     1
 90
        6
176
     1
 90
        2
176
     1
 62
     7
176
     1
 90
        3
176
     1
 90
        0
176
     1
 90
        0
176
     1
290
     0
176
     1
 90
        1
176
     1
 40
0.0
176
     1
 90
        0
176
     1
290
     0
176
     1
290
     1
176
     1
290
     1
176
     1
290
     0
176
     1
290
     0
176
     1
290
     0
176
     1
290
     0
176
     1
290
     0
176
     1
290
     0
176
     1
 90
       50
176
     1
 40
0.0
176
     1
 40
1.0
176
     1
 90
        0
176
     1
 62
    18
420
        0
176
     1
 90
       50
176
     1
 90
        3
176
     1
 62
     5
420
      255
176
     1
290
     0
176
     1
 90
       50
176
     1
 90
       50
176
     1
 90
       50
176
     1
290
     0
176
     1
 90
       50
176
     1
 62
   256
176
     0
 40
1.0
176
     0
 90
        2
176
     1
  1
strokes_ogs.tif
176
     1
290
     0
176
     1
 40
1.0
176
     1
 40
1.0
176
     1
  0
VISUALSTYLE
  5
35
102
{ACAD_REACTORS
330
2A
102
}
330
2A
100
AcDbVisualStyle
  2
Dim
 70
    11
177
     3
291
     1
 70
    58
 90
        2
176
     1
 90
        2
176
     1
 90
        0
176
     1
 90
        0
176
     1
 40
0.6
176
     1
 40
30.0
176
     1
 62
     7
420
 16777215
176
     1
 90
        1
176
     1
 90
        4
176
     1
 62
     7
176
     1
 62
   257
176
     1
 90
        1
176
     1
 90
        1
176
     1
 40
1.0
176
     1
 90
        8
176
     1
 62
     7
176
     1
 40
1.0
176
     1
 90
        1
176
     1
 90
        6
176
     1
 90
        2
176
     1
 62
     7
176
     1
 90
        5
176
     1
 90
        0
176
     1
 90
        0
176
     1
290
     0
176
     1
 90
        1
176
     1
 40
-50.0
176
     1
 90
        0
176
     1
290
     0
176
     1
290
     1
176
     1
290
     1
176
     1
290
     0
176
     1
290
     0
176
     1
290
     0
176
     1
290
     0
176
     1
290
     0
176
     1
290
     0
176
     1
 90
       50
176
     1
 40
0.0
176
     1
 40
1.0
176
     1
 90
        0
176
     1
 62
    18
420
        0
176
     1
 90
       50
176
     1
 90
        3
176
     1
 62
     5
420
      255
176
     1
290
     0
176
     1
 90
       50
176
     1
 90
       50
176
     1
 90
       50
176
     1
290
     0
176
     1
 90
       50
176
     1
 62
   256
176
     0
 40
1.0
176
     0
 90
        2
176
     1
  1
strokes_ogs.tif
176
     1
290
     0
176
     1
 40
1.0
176
     1
 40
1.0
176
     1
  0
VISUALSTYLE
  5
3D
102
{ACAD_REACTORS
330
2A
102
}
330
2A
100
AcDbVisualStyle
  2
EdgeColorOff
 70
    22
177
     3
291
     1
 70
    58
 90
        2
176
     0
 90
        2
176
     0
 90
        0
176
     0
 90
        0
176
     0
 40
0.6
176
     0
 40
30.0
176
     0
 62
     7
420
 16777215
176
     0
 90
        1
176
     0
 90
        4
176
     0
 62
     7
176
     0
 62
   257
176
     0
 90
        1
176
     0
 90
        1
176
     0
 40
1.0
176
     0
 90
        8
176
     2
 62
     7
176
     0
 40
1.0
176
     0
 90
        1
176
     0
 90
        6
176
     0
 90
        2
176
     0
 62
     7
176
     0
 90
        5
176
     0
 90
        0
176
     0
 90
        0
176
     0
290
     0
176
     0
 90
        1
176
     0
 40
0.0
176
     0
 90
        0
176
     0
290
     0
176
     0
290
     1
176
     0
290
     1
176
     0
290
     0
176
     0
290
     0
176
     0
290
     0
176
     0
290
     0
176
     0
290
     0
176
     0
290
     0
176
     0
 90
       50
176
     0
 40
0.0
176
     0
 40
1.0
176
     0
 90
        0
176
     0
 62
    18
420
        0
176
     0
 90
       50
176
     0
 90
        3
176
     0
 62
     5
420
      255
176
     0
290
     0
176
     0
 90
       50
176
     0
 90
       50
176
     0
 90
       50
176
     0
290
     0
176
     0
 90
       50
176
     0
 62
   256
176
     0
 40
1.0
176
     0
 90
        2
176
     0
  1
strokes_ogs.tif
176
     0
290
     0
176
     0
 40
1.0
176
     0
 40
1.0
176
     0
  0
VISUALSTYLE
  5
39
102
{ACAD_REACTORS
330
2A
102
}
330
2A
100
AcDbVisualStyle
  2
Facepattern
 70
    15
177
     3
291
     1
 70
    58
 90
        2
176
     1
 90
        2
176
     1
 90
        0
176
     1
 90
        0
176
     1
 40
0.6
176
     1
 40
30.0
176
     1
 62
     7
420
 16777215
176
     1
 90
        1
176
     1
 90
        4
176
     1
 62
     7
176
     1
 62
   257
176
     1
 90
        1
176
     1
 90
        1
176
     1
 40
1.0
176
     1
 90
        8
176
     1
 62
     7
176
     1
 40
1.0
176
     1
 90
        1
176
     1
 90
        6
176
     1
 90
        2
176
     1
 62
     7
176
     1
 90
        5
176
     1
 90
        0
176
     1
 90
        0
176
     1
290
     0
176
     1
 90
        1
176
     1
 40
0.0
176
     1
 90
        0
176
     1
290
     0
176
     1
290
     1
176
     1
290
     1
176
     1
290
     0
176
     1
290
     0
176
     1
290
     0
176
     1
290
     0
176
     1
290
     0
176
     1
290
     0
176
     1
 90
       50
176
     1
 40
0.0
176
     1
 40
1.0
176
     1
 90
        0
176
     1
 62
    18
420
        0
176
     1
 90
       50
176
     1
 90
        3
176
     1
 62
     5
420
      255
176
     1
290
     0
176
     1
 90
       50
176
     1
 90
       50
176
     1
 90
       50
176
     1
290
     0
176
     1
 90
       50
176
     1
 62
   256
176
     0
 40
1.0
176
     0
 90
        2
176
     1
  1
strokes_ogs.tif
176
     1
290
     0
176
     1
 40
1.0
176
     1
 40
1.0
176
     1
  0
VISUALSTYLE
  5
2B
102
{ACAD_REACTORS
330
2A
102
}
330
2A
100
AcDbVisualStyle
  2
Flat
 70
     0
177
     3
291
     1
 70
    58
 90
        2
176
     1
 90
        1
176
     1
 90
        1
176
     1
 90
        2
176
     1
 40
0.6
176
     1
 40
30.0
176
     1
 62
     7
420
 16777215
176
     1
 90
        0
176
     1
 90
        0
176
     1
 62
     7
176
     1
 62
   257
176
     1
 90
        1
176
     1
 90
        1
176
     1
 40
1.0
176
     1
 90
        8
176
     1
 62
     7
176
     1
 40
1.0
176
     1
 90
        1
176
     1
 90
        6
176
     1
 90
        2
176
     1
 62
     7
176
     1
 90
        5
176
     1
 90
        0
176
     1
 90
        0
176
     1
290
     0
176
     1
 90
       13
176
     1
 40
0.0
176
     1
 90
        0
176
     1
290
     0
176
     1
290
     1
176
     1
290
     1
176
     1
290
     0
176
     1
290
     0
176
     1
290
     0
176
     1
290
     0
176
     1
290
     0
176
     1
290
     0
176
     1
 90
       50
176
     1
 40
0.0
176
     1
 40
1.0
176
     1
 90
        0
176
     1
 62
    18
420
        0
176
     1
 90
       50
176
     1
 90
        3
176
     1
 62
     5
420
      255
176
     1
290
     0
176
     1
 90
       50
176
     1
 90
       50
176
     1
 90
       50
176
     1
290
     0
176
     1
 90
       50
176
     1
 62
   256
176
     0
 40
1.0
176
     0
 90
        2
176
     1
  1
strokes_ogs.tif
176
     1
290
     0
176
     1
 40
1.0
176
     1
 40
1.0
176
     1
  0
VISUALSTYLE
  5
2C
102
{ACAD_REACTORS
330
2A
102
}
330
2A
100
AcDbVisualStyle
  2
FlatWithEdges
 70
     1
177
     3
291
     1
 70
    58
 90
        2
176
     1
 90
        1
176
     1
 90
        1
176
     1
 90
        2
176
     1
 40
0.6
176
     1
 40
30.0
176
     1
 62
     7
420
 16777215
176
     1
 90
        1
176
     1
 90
        0
176
     1
 62
     7
176
     1
 62
   257
176
     1
 90
        1
176
     1
 90
        1
176
     1
 40
1.0
176
     1
 90
        0
176
     1
 62
   257
176
     1
 40
1.0
176
     1
 90
        1
176
     1
 90
        6
176
     1
 90
        2
176
     1
 62
     7
176
     1
 90
        5
176
     1
 90
        0
176
     1
 90
        0
176
     1
290
     0
176
     1
 90
       13
176
     1
 40
0.0
176
     1
 90
        0
176
     1
290
     0
176
     1
290
     1
176
     1
290
     1
176
     1
290
     0
176
     1
290
     0
176
     1
290
     0
176
     1
290
     0
176
     1
290
     0
176
     1
290
     0
176
     1
 90
       50
176
     1
 40
0.0
176
     1
 40
1.0
176
     1
 90
        0
176
     1
 62
    18
420
        0
176
     1
 90
       50
176
     1
 90
        3
176
     1
 62
     5
420
      255
176
     1
290
     0
176
     1
 90
       50
176
     1
 90
       50
176
     1
 90
       50
176
     1
290
     0
176
     1
 90
       50
176
     1
 62
   256
176
     0
 40
1.0
176
     0
 90
        2
176
     1
  1
strokes_ogs.tif
176
     1
290
     0
176
     1
 40
1.0
176
     1
 40
1.0
176
     1
  0
VISUALSTYLE
  5
2D
102
{ACAD_REACTORS
330
2A
102
}
330
2A
100
AcDbVisualStyle
  2
Gouraud
 70
     2
177
     3
291
     1
 70
    58
 90
        2
176
     1
 90
        2
176
     1
 90
        1
176
     1
 90
        2
176
     1
 40
0.6
176
     1
 40
30.0
176
     1
 62
     7
420
 16777215
176
     1
 90
        0
176
     1
 90
        0
176
     1
 62
     7
176
     1
 62
   257
176
     1
 90
        1
176
     1
 90
        1
176
     1
 40
1.0
176
     1
 90
        0
176
     1
 62
     7
176
     1
 40
1.0
176
     1
 90
        1
176
     1
 90
        6
176
     1
 90
        2
176
     1
 62
     7
176
     1
 90
        5
176
     1
 90
        0
176
     1
 90
        0
176
     1
290
     0
176
     1
 90
       13
176
     1
 40
0.0
176
     1
 90
        0
176
     1
290
     0
176
     1
290
     1
176
     1
290
     1
176
     1
290
     0
176
     1
290
     0
176
     1
290
     0
176
     1
290
     0
176
     1
290
     0
176
     1
290
     0
176
     1
 90
       50
176
     1
 40
0.0
176
     1
 40
1.0
176
     1
 90
        0
176
     1
 62
    18
420
        0
176
     1
 90
       50
176
     1
 90
        3
176
     1
 62
     5
420
      255
176
     1
290
     0
176
     1
 90
       50
176
     1
 90
       50
176
     1
 90
       50
176
     1
290
     0
176
     1
 90
       50
176
     1
 62
   256
176
     0
 40
1.0
176
     0
 90
        2
176
     1
  1
strokes_ogs.tif
176
     1
290
     0
176
     1
 40
1.0
176
     1
 40
1.0
176
     1
  0
VISUALSTYLE
  5
2E
102
{ACAD_REACTORS
330
2A
102
}
330
2A
100
AcDbVisualStyle
  2
GouraudWithEdges
 70
     3
177
     3
291
     1
 70
    58
 90
        2
176
     1
 90
        2
176
     1
 90
        1
176
     1
 90
        2
176
     1
 40
0.6
176
     1
 40
30.0
176
     1
 62
     7
420
 16777215
176
     1
 90
        1
176
     1
 90
        0
176
     1
 62
     7
176
     1
 62
   257
176
     1
 90
        1
176
     1
 90
        1
176
     1
 40
1.0
176
     1
 90
        0
176
     1
 62
   257
176
     1
 40
1.0
176
     1
 90
        1
176
     1
 90
        6
176
     1
 90
        2
176
     1
 62
     7
176
     1
 90
        5
176
     1
 90
        0
176
     1
 90
        0
176
     1
290
     0
176
     1
 90
       13
176
     1
 40
0.0
176
     1
 90
        0
176
     1
290
     0
176
     1
290
     1
176
     1
290
     1
176
     1
290
     0
176
     1
290
     0
176
     1
290
     0
176
     1
290
     0
176
     1
290
     0
176
     1
290
     0
176
     1
 90
       50
176
     1
 40
0.0
176
     1
 40
1.0
176
     1
 90
        0
176
     1
 62
    18
420
        0
176
     1
 90
       50
176
     1
 90
        3
176
     1
 62
     5
420
      255
176
     1
290
     0
176
     1
 90
       50
176
     1
 90
       50
176
     1
 90
       50
176
     1
290
     0
176
     1
 90
       50
176
     1
 62
   256
176
     0
 40
1.0
176
     0
 90
        2
176
     1
  1
strokes_ogs.tif
176
     1
290
     0
176
     1
 40
1.0
176
     1
 40
1.0
176
     1
  0
VISUALSTYLE
  5
31
102
{ACAD_REACTORS
330
2A
102
}
330
2A
100
AcDbVisualStyle
  2
Hidden
 70
     6
177
     3
291
     0
 70
    58
 90
        1
176
     1
 90
        2
176
     1
 90
        2
176
     1
 90
        0
176
     1
 40
0.6
176
     1
 40
30.0
176
     1
 62
     7
420
 16777215
176
     1
 90
        2
176
     1
 90
        2
176
     1
 62
     7
176
     1
 62
   257
176
     1
 90
        2
176
     1
 90
        1
176
     1
 40
40.0
176
     1
 90
        0
176
     1
 62
   257
176
     1
 40
1.0
176
     1
 90
        1
176
     1
 90
        6
176
     1
 90
        2
176
     1
 62
     7
176
     1
 90
        3
176
     1
 90
        0
176
     1
 90
        0
176
     1
290
     0
176
     1
 90
        1
176
     1
 40
0.0
176
     1
 90
        0
176
     1
290
     0
176
     1
290
     1
176
     1
290
     1
176
     1
290
     0
176
     1
290
     0
176
     1
290
     0
176
     1
290
     0
176
     1
290
     0
176
     1
290
     0
176
     1
 90
       50
176
     1
 40
0.0
176
     1
 40
1.0
176
     1
 90
        0
176
     1
 62
    18
420
        0
176
     1
 90
       50
176
     1
 90
        3
176
     1
 62
     5
420
      255
176
     1
290
     0
176
     1
 90
       50
176
     1
 90
       50
176
     1
 90
       50
176
     1
290
     0
176
     1
 90
       50
176
     1
 62
   256
176
     0
 40
1.0
176
     0
 90
        2
176
     1
  1
strokes_ogs.tif
176
     1
290
     0
176
     1
 40
1.0
176
     1
 40
1.0
176
     1
  0
VISUALSTYLE
  5
3B
102
{ACAD_REACTORS
330
2A
102
}
330
2A
100
AcDbVisualStyle
  2
JitterOff
 70
    20
177
     3
291
     1
 70
    58
 90
        2
176
     0
 90
        2
176
     0
 90
        0
176
     0
 90
        0
176
     0
 40
0.6
176
     0
 40
30.0
176
     0
 62
     7
420
 16777215
176
     0
 90
        1
176
     0
 90
        4
176
     0
 62
     7
176
     0
 62
   257
176
     0
 90
        1
176
     0
 90
        1
176
     0
 40
1.0
176
     0
 90
       10
176
     2
 62
     7
176
     0
 40
1.0
176
     0
 90
        1
176
     0
 90
        6
176
     0
 90
        2
176
     0
 62
     7
176
     0
 90
        5
176
     0
 90
        0
176
     0
 90
        0
176
     0
290
     0
176
     0
 90
        1
176
     0
 40
0.0
176
     0
 90
        0
176
     0
290
     0
176
     0
290
     1
176
     0
290
     1
176
     0
290
     0
176
     0
290
     0
176
     0
290
     0
176
     0
290
     0
176
     0
290
     0
176
     0
290
     0
176
     0
 90
       50
176
     0
 40
0.0
176
     0
 40
1.0
176
     0
 90
        0
176
     0
 62
    18
420
        0
176
     0
 90
       50
176
     0
 90
        3
176
     0
 62
     5
420
      255
176
     0
290
     0
176
     0
 90
       50
176
     0
 90
       50
176
     0
 90
       50
176
     0
290
     0
176
     0
 90
       50
176
     0
 62
   256
176
     0
 40
1.0
176
     0
 90
        2
176
     0
  1
strokes_ogs.tif
176
     0
290
     0
176
     0
 40
1.0
176
     0
 40
1.0
176
     0
  0
VISUALSTYLE
  5
38
102
{ACAD_REACTORS
330
2A
102
}
330
2A
100
AcDbVisualStyle
  2
Linepattern
 70
    14
177
     3
291
     1
 70
    58
 90
        2
176
     1
 90
        2
176
     1
 90
        0
176
     1
 90
        0
176
     1
 40
0.6
176
     1
 40
30.0
176
     1
 62
     7
420
 16777215
176
     1
 90
        1
176
     1
 90
        4
176
     1
 62
     7
176
     1
 62
   257
176
     1
 90
        7
176
     1
 90
        7
176
     1
 40
1.0
176
     1
 90
        8
176
     1
 62
     7
176
     1
 40
1.0
176
     1
 90
        1
176
     1
 90
        6
176
     1
 90
        2
176
     1
 62
     7
176
     1
 90
        5
176
     1
 90
        0
176
     1
 90
        0
176
     1
290
     0
176
     1
 90
        1
176
     1
 40
0.0
176
     1
 90
        0
176
     1
290
     0
176
     1
290
     1
176
     1
290
     1
176
     1
290
     0
176
     1
290
     0
176
     1
290
     0
176
     1
290
     0
176
     1
290
     0
176
     1
290
     0
176
     1
 90
       50
176
     1
 40
0.0
176
     1
 40
1.0
176
     1
 90
        0
176
     1
 62
    18
420
        0
176
     1
 90
       50
176
     1
 90
        3
176
     1
 62
     5
420
      255
176
     1
290
     0
176
     1
 90
       50
176
     1
 90
       50
176
     1
 90
       50
176
     1
290
     0
176
     1
 90
       50
176
     1
 62
   256
176
     0
 40
1.0
176
     0
 90
        2
176
     1
  1
strokes_ogs.tif
176
     1
290
     0
176
     1
 40
1.0
176
     1
 40
1.0
176
     1
  0
VISUALSTYLE
  5
3C
102
{ACAD_REACTORS
330
2A
102
}
330
2A
100
AcDbVisualStyle
  2
OverhangOff
 70
    21
177
     3
291
     1
 70
    58
 90
        2
176
     0
 90
        2
176
     0
 90
        0
176
     0
 90
        0
176
     0
 40
0.6
176
     0
 40
30.0
176
     0
 62
     7
420
 16777215
176
     0
 90
        1
176
     0
 90
        4
176
     0
 62
     7
176
     0
 62
   257
176
     0
 90
        1
176
     0
 90
        1
176
     0
 40
1.0
176
     0
 90
        9
176
     2
 62
     7
176
     0
 40
1.0
176
     0
 90
        1
176
     0
 90
        6
176
     0
 90
        2
176
     0
 62
     7
176
     0
 90
        5
176
     0
 90
        0
176
     0
 90
        0
176
     0
290
     0
176
     0
 90
        1
176
     0
 40
0.0
176
     0
 90
        0
176
     0
290
     0
176
     0
290
     1
176
     0
290
     1
176
     0
290
     0
176
     0
290
     0
176
     0
290
     0
176
     0
290
     0
176
     0
290
     0
176
     0
290
     0
176
     0
 90
       50
176
     0
 40
0.0
176
     0
 40
1.0
176
     0
 90
        0
176
     0
 62
    18
420
        0
176
     0
 90
       50
176
     0
 90
        3
176
     0
 62
     5
420
      255
176
     0
290
     0
176
     0
 90
       50
176
     0
 90
       50
176
     0
 90
       50
176
     0
290
     0
176
     0
 90
       50
176
     0
 62
   256
176
     0
 40
1.0
176
     0
 90
        2
176
     0
  1
strokes_ogs.tif
176
     0
290
     0
176
     0
 40
1.0
176
     0
 40
1.0
176
     0
  0
VISUALSTYLE
  5
33
102
{ACAD_REACTORS
330
2A
102
}
330
2A
100
AcDbVisualStyle
  2
Realistic
 70
     8
177
     3
291
     0
 70
    58
 90
        2
176
     1
 90
        3
176
     1
 90
        0
176
     1
 90
        2
176
     1
 40
0.6
176
     1
 40
30.0
176
     1
 62
     7
420
 16777215
176
     1
 90
        0
176
     1
 90
        0
176
     1
 62
     7
176
     1
 62
   257
176
     1
 90
        1
176
     1
 90
        1
176
     1
 40
1.0
176
     1
 90
        8
176
     1
 62
   257
176
     1
 40
1.0
176
     1
 90
        1
176
     1
 90
        6
176
     1
 90
        2
176
     1
 62
     7
176
     1
 90
        3
176
     1
 90
        0
176
     1
 90
        0
176
     1
290
     0
176
     1
 90
       13
176
     1
 40
0.0
176
     1
 90
        0
176
     1
290
     0
176
     1
290
     1
176
     1
290
     1
176
     1
290
     0
176
     1
290
     0
176
     1
290
     0
176
     1
290
     0
176
     1
290
     0
176
     1
290
     0
176
     1
 90
       50
176
     1
 40
0.0
176
     1
 40
1.0
176
     1
 90
        0
176
     1
 62
    18
420
        0
176
     1
 90
       50
176
     1
 90
        3
176
     1
 62
     5
420
      255
176
     1
290
     0
176
     1
 90
       50
176
     1
 90
       50
176
     1
 90
       50
176
     1
290
     0
176
     1
 90
       50
176
     1
 62
   256
176
     0
 40
1.0
176
     0
 90
        2
176
     1
  1
strokes_ogs.tif
176
     1
290
     0
176
     1
 40
1.0
176
     1
 40
1.0
176
     1
  0
VISUALSTYLE
  5
42
102
{ACAD_REACTORS
330
2A
102
}
330
2A
100
AcDbVisualStyle
  2
Shaded
 70
    27
177
     3
291
     0
 70
    58
 90
        2
176
     1
 90
        2
176
     1
 90
        1
176
     1
 90
        2
176
     1
 40
0.6
176
     1
 40
30.0
176
     1
 62
     7
420
 16777215
176
     1
 90
        0
176
     1
 90
        4
176
     1
 62
     7
176
     1
 62
   257
176
     1
 90
        1
176
     1
 90
        1
176
     1
 40
1.0
176
     1
 90
        8
176
     1
 62
   257
176
     1
 40
1.0
176
     1
 90
        1
176
     1
 90
        6
176
     1
 90
        2
176
     1
 62
     8
420
  7895160
176
     1
 90
        3
176
     1
 90
        0
176
     1
 90
        0
176
     1
290
     0
176
     1
 90
        5
176
     1
 40
0.0
176
     1
 90
        0
176
     1
290
     0
176
     1
290
     1
176
     1
290
     1
176
     1
290
     0
176
     1
290
     0
176
     1
290
     0
176
     1
290
     0
176
     1
290
     0
176
     1
290
     0
176
     1
 90
       50
176
     1
 40
0.0
176
     1
 40
1.0
176
     1
 90
        0
176
     1
 62
    18
420
        0
176
     1
 90
       50
176
     1
 90
        3
176
     1
 62
     5
420
      255
176
     1
290
     0
176
     1
 90
       50
176
     1
 90
       50
176
     1
 90
       50
176
     1
290
     0
176
     1
 90
       50
176
     1
 62
   256
176
     0
 40
1.0
176
     0
 90
        2
176
     1
  1
strokes_ogs.tif
176
     1
290
     0
176
     1
 40
1.0
176
     1
 40
1.0
176
     1
  0
VISUALSTYLE
  5
41
102
{ACAD_REACTORS
330
2A
102
}
330
2A
100
AcDbVisualStyle
  2
Shaded with edges
 70
    26
177
     3
291
     0
 70
    58
 90
        2
176
     1
 90
        2
176
     1
 90
        1
176
     1
 90
        2
176
     1
 40
0.6
176
     1
 40
30.0
176
     1
 62
     7
420
 16777215
176
     1
 90
        1
176
     1
 90
       10
176
     1
 62
     7
176
     1
 62
   257
176
     1
 90
        2
176
     1
 90
        1
176
     1
 40
1.0
176
     1
 90
        8
176
     1
 62
   257
176
     1
 40
1.0
176
     1
 90
        1
176
     1
 90
        6
176
     1
 90
        2
176
     1
 62
     7
176
     1
 90
        3
176
     1
 90
        0
176
     1
 90
        0
176
     1
290
     0
176
     1
 90
        5
176
     1
 40
0.0
176
     1
 90
        0
176
     1
290
     0
176
     1
290
     1
176
     1
290
     1
176
     1
290
     0
176
     1
290
     0
176
     1
290
     0
176
     1
290
     0
176
     1
290
     0
176
     1
290
     0
176
     1
 90
       50
176
     1
 40
0.0
176
     1
 40
1.0
176
     1
 90
        0
176
     1
 62
    18
420
        0
176
     1
 90
       50
176
     1
 90
        3
176
     1
 62
     5
420
      255
176
     1
290
     0
176
     1
 90
       50
176
     1
 90
       50
176
     1
 90
       50
176
     1
290
     0
176
     1
 90
       50
176
     1
 62
   256
176
     0
 40
1.0
176
     0
 90
        2
176
     1
  1
strokes_ogs.tif
176
     1
290
     0
176
     1
 40
1.0
176
     1
 40
1.0
176
     1
  0
VISUALSTYLE
  5
3E
102
{ACAD_REACTORS
330
2A
102
}
330
2A
100
AcDbVisualStyle
  2
Shades of Gray
 70
    23
177
     3
291
     0
 70
    58
 90
        2
176
     1
 90
        2
176
     1
 90
        3
176
     1
 90
        0
176
     1
 40
0.6
176
     1
 40
30.0
176
     1
 62
     7
420
 16777215
176
     1
 90
        2
176
     1
 90
        2
176
     1
 62
     7
176
     1
 62
     7
176
     1
 90
        1
176
     1
 90
        1
176
     1
 40
40.0
176
     1
 90
        8
176
     1
 62
     7
176
     1
 40
1.0
176
     1
 90
        1
176
     1
 90
        6
176
     1
 90
        2
176
     1
 62
     7
176
     1
 90
        3
176
     1
 90
        0
176
     1
 90
        0
176
     1
290
     0
176
     1
 90
        1
176
     1
 40
0.0
176
     1
 90
        0
176
     1
290
     0
176
     1
290
     1
176
     1
290
     1
176
     1
290
     0
176
     1
290
     0
176
     1
290
     0
176
     1
290
     0
176
     1
290
     0
176
     1
290
     0
176
     1
 90
       50
176
     1
 40
0.0
176
     1
 40
1.0
176
     1
 90
        0
176
     1
 62
    18
420
        0
176
     1
 90
       50
176
     1
 90
        3
176
     1
 62
     5
420
      255
176
     1
290
     0
176
     1
 90
       50
176
     1
 90
       50
176
     1
 90
       50
176
     1
290
     0
176
     1
 90
       50
176
     1
 62
   256
176
     0
 40
1.0
176
     0
 90
        2
176
     1
  1
strokes_ogs.tif
176
     1
290
     0
176
     1
 40
1.0
176
     1
 40
1.0
176
     1
  0
VISUALSTYLE
  5
3F
102
{ACAD_REACTORS
330
2A
102
}
330
2A
100
AcDbVisualStyle
  2
Sketchy
 70
    24
177
     3
291
     0
 70
    58
 90
        1
176
     1
 90
        2
176
     1
 90
        2
176
     1
 90
        0
176
     1
 40
0.6
176
     1
 40
30.0
176
     1
 62
     7
420
 16777215
176
     1
 90
        2
176
     1
 90
        2
176
     1
 62
     7
176
     1
 62
     7
176
     1
 90
        1
176
     1
 90
        1
176
     1
 40
40.0
176
     1
 90
       11
176
     1
 62
     7
176
     1
 40
1.0
176
     1
 90
        1
176
     1
 90
        6
176
     1
 90
        2
176
     1
 62
     7
176
     1
 90
        6
176
     1
 90
        0
176
     1
 90
        0
176
     1
290
     0
176
     1
 90
        1
176
     1
 40
0.0
176
     1
 90
        0
176
     1
290
     0
176
     1
290
     1
176
     1
290
     1
176
     1
290
     0
176
     1
290
     0
176
     1
290
     0
176
     1
290
     0
176
     1
290
     0
176
     1
290
     0
176
     1
 90
       50
176
     1
 40
0.0
176
     1
 40
1.0
176
     1
 90
        0
176
     1
 62
    18
420
        0
176
     1
 90
       50
176
     1
 90
        3
176
     1
 62
     5
420
      255
176
     1
290
     0
176
     1
 90
       50
176
     1
 90
       50
176
     1
 90
       50
176
     1
290
     0
176
     1
 90
       50
176
     1
 62
   256
176
     0
 40
1.0
176
     0
 90
        2
176
     1
  1
strokes_ogs.tif
176
     1
290
     0
176
     1
 40
1.0
176
     1
 40
1.0
176
     1
  0
VISUALSTYLE
  5
37
102
{ACAD_REACTORS
330
2A
102
}
330
2A
100
AcDbVisualStyle
  2
Thicken
 70
    13
177
     3
291
     1
 70
    58
 90
        2
176
     1
 90
        2
176
     1
 90
        0
176
     1
 90
        0
176
     1
 40
0.6
176
     1
 40
30.0
176
     1
 62
     7
420
 16777215
176
     1
 90
        1
176
     1
 90
        4
176
     1
 62
     7
176
     1
 62
   257
176
     1
 90
        1
176
     1
 90
        1
176
     1
 40
1.0
176
     1
 90
       12
176
     1
 62
     7
176
     1
 40
1.0
176
     1
 90
        1
176
     1
 90
        6
176
     1
 90
        2
176
     1
 62
     7
176
     1
 90
        5
176
     1
 90
        0
176
     1
 90
        0
176
     1
290
     0
176
     1
 90
        1
176
     1
 40
0.0
176
     1
 90
        0
176
     1
290
     0
176
     1
290
     1
176
     1
290
     1
176
     1
290
     0
176
     1
290
     0
176
     1
290
     0
176
     1
290
     0
176
     1
290
     0
176
     1
290
     0
176
     1
 90
       50
176
     1
 40
0.0
176
     1
 40
1.0
176
     1
 90
        0
176
     1
 62
    18
420
        0
176
     1
 90
       50
176
     1
 90
        3
176
     1
 62
     5
420
      255
176
     1
290
     0
176
     1
 90
       50
176
     1
 90
       50
176
     1
 90
       50
176
     1
290
     0
176
     1
 90
       50
176
     1
 62
   256
176
     0
 40
1.0
176
     0
 90
        2
176
     1
  1
strokes_ogs.tif
176
     1
290
     0
176
     1
 40
1.0
176
     1
 40
1.0
176
     1
  0
VISUALSTYLE
  5
30
102
{ACAD_REACTORS
330
2A
102
}
330
2A
100
AcDbVisualStyle
  2
Wireframe
 70
     5
177
     3
291
     0
 70
    58
 90
        0
176
     1
 90
        2
176
     1
 90
        0
176
     1
 90
        0
176
     1
 40
0.6
176
     1
 40
30.0
176
     1
 62
     7
420
 16777215
176
     1
 90
        1
176
     1
 90
        4
176
     1
 62
     7
176
     1
 62
   257
176
     1
 90
        1
176
     1
 90
        1
176
     1
 40
1.0
176
     1
 90
        0
176
     1
 62
   257
176
     1
 40
1.0
176
     1
 90
        1
176
     1
 90
        6
176
     1
 90
        2
176
     1
 62
     7
176
     1
 90
        3
176
     1
 90
        0
176
     1
 90
        0
176
     1
290
     0
176
     1
 90
        1
176
     1
 40
0.0
176
     1
 90
        0
176
     1
290
     0
176
     1
290
     1
176
     1
290
     1
176
     1
290
     0
176
     1
290
     0
176
     1
290
     0
176
     1
290
     0
176
     1
290
     0
176
     1
290
     0
176
     1
 90
       50
176
     1
 40
0.0
176
     1
 40
1.0
176
     1
 90
        0
176
     1
 62
    18
420
        0
176
     1
 90
       50
176
     1
 90
        3
176
     1
 62
     5
420
      255
176
     1
290
     0
176
     1
 90
       50
176
     1
 90
       50
176
     1
 90
       50
176
     1
290
     0
176
     1
 90
       50
176
     1
 62
   256
176
     0
 40
1.0
176
     0
 90
        2
176
     1
  1
strokes_ogs.tif
176
     1
290
     0
176
     1
 40
1.0
176
     1
 40
1.0
176
     1
  0
VISUALSTYLE
  5
40
102
{ACAD_REACTORS
330
2A
102
}
330
2A
100
AcDbVisualStyle
  2
X-Ray
 70
    25
177
     3
291
     0
 70
    58
 90
        2
176
     1
 90
        2
176
     1
 90
        1
176
     1
 90
        1
176
     1
 40
0.5
176
     1
 40
30.0
176
     1
 62
     7
420
 16777215
176
     1
 90
        1
176
     1
 90
        0
176
     1
 62
     7
176
     1
 62
   257
176
     1
 90
        1
176
     1
 90
        1
176
     1
 40
1.0
176
     1
 90
        8
176
     1
 62
     7
176
     1
 40
1.0
176
     1
 90
        1
176
     1
 90
        6
176
     1
 90
        2
176
     1
 62
     7
176
     1
 90
        3
176
     1
 90
        0
176
     1
 90
        0
176
     1
290
     0
176
     1
 90
       13
176
     1
 40
0.0
176
     1
 90
        0
176
     1
290
     0
176
     1
290
     1
176
     1
290
     1
176
     1
290
     0
176
     1
290
     0
176
     1
290
     0
176
     1
290
     0
176
     1
290
     0
176
     1
290
     0
176
     1
 90
       50
176
     1
 40
0.0
176
     1
 40
1.0
176
     1
 90
        0
176
     1
 62
    18
420
        0
176
     1
 90
       50
176
     1
 90
        3
176
     1
 62
     5
420
      255
176
     1
290
     0
176
     1
 90
       50
176
     1
 90
       50
176
     1
 90
       50
176
     1
290
     0
176
     1
 90
       50
176
     1
 62
   256
176
     0
 40
1.0
176
     0
 90
        2
176
     1
  1
strokes_ogs.tif
176
     1
290
     0
176
     1
 40
1.0
176
     1
 40
1.0
176
     1
  0
DICTIONARYVAR
  5
19C
102
{ACAD_REACTORS
330
19B
102
}
330
19B
100
DictionaryVariables
280
     0
  1
1:1
  0
DICTIONARYVAR
  5
1A4
102
{ACAD_REACTORS
330
19B
102
}
330
19B
100
DictionaryVariables
280
     0
  1
3.500000
  0
DICTIONARYVAR
  5
1A5
102
{ACAD_REACTORS
330
19B
102
}
330
19B
100
DictionaryVariables
280
     0
  1
acadiso.lin
  0
DICTIONARYVAR
  5
1A1
102
{ACAD_REACTORS
330
19B
102
}
330
19B
100
DictionaryVariables
280
     0
  1
Standard
  0
DICTIONARYVAR
  5
1A0
102
{ACAD_REACTORS
330
19B
102
}
330
19B
100
DictionaryVariables
280
     0
  1
Standard
  0
DICTIONARY
  5
19D
330
5A
100
AcDbDictionary
280
     1
281
     1
  3
ACAD_ROUNDTRIP_2008_TABLESTYLE_CELLSTYLEMAP
360
19E
  0
CELLSTYLEMAP
  5
19E
102
{ACAD_REACTORS
330
19D
102
}
330
19D
100
AcDbCellStyleMap
 90
        3
300
CELLSTYLE
  1
TABLEFORMAT_BEGIN
 90
        5
170
     1
 91
        0
 92
    32768
 62
   257
 93
        1
300
CONTENTFORMAT
  1
CONTENTFORMAT_BEGIN
 90
        0
 91
        0
 92
        4
 93
        0
300

 40
0.0
140
1.0
 94
        5
 62
     0
340
11
144
6.0
309
CONTENTFORMAT_END
171
     1
301
MARGIN
  1
CELLMARGIN_BEGIN
 40
1.5
 40
1.5
 40
1.5
 40
1.5
 40
1.5
 40
1.5
309
CELLMARGIN_END
 94
        6
 95
        1
302
GRIDFORMAT
  1
GRIDFORMAT_BEGIN
 90
        0
 91
        1
 62
     0
 92
       -2
340
14
 93
        0
 40
0.045
309
GRIDFORMAT_END
 95
        2
302
GRIDFORMAT
  1
GRIDFORMAT_BEGIN
 90
        0
 91
        1
 62
     0
 92
       -2
340
14
 93
        0
 40
0.045
309
GRIDFORMAT_END
 95
        4
302
GRIDFORMAT
  1
GRIDFORMAT_BEGIN
 90
        0
 91
        1
 62
     0
 92
       -2
340
14
 93
        0
 40
0.045
309
GRIDFORMAT_END
 95
        8
302
GRIDFORMAT
  1
GRIDFORMAT_BEGIN
 90
        0
 91
        1
 62
     0
 92
       -2
340
14
 93
        0
 40
0.045
309
GRIDFORMAT_END
 95
       16
302
GRIDFORMAT
  1
GRIDFORMAT_BEGIN
 90
        0
 91
        1
 62
     0
 92
       -2
340
14
 93
        0
 40
0.045
309
GRIDFORMAT_END
 95
       32
302
GRIDFORMAT
  1
GRIDFORMAT_BEGIN
 90
        0
 91
        1
 62
     0
 92
       -2
340
14
 93
        0
 40
0.045
309
GRIDFORMAT_END
309
TABLEFORMAT_END
  1
CELLSTYLE_BEGIN
 90
        1
 91
        1
300
_TITLE
309
CELLSTYLE_END
300
CELLSTYLE
  1
TABLEFORMAT_BEGIN
 90
        5
170
     1
 91
        0
 92
        0
 62
   257
 93
        1
300
CONTENTFORMAT
  1
CONTENTFORMAT_BEGIN
 90
        0
 91
        0
 92
        4
 93
        0
300

 40
0.0
140
1.0
 94
        5
 62
     0
340
11
144
4.5
309
CONTENTFORMAT_END
171
     1
301
MARGIN
  1
CELLMARGIN_BEGIN
 40
1.5
 40
1.5
 40
1.5
 40
1.5
 40
1.5
 40
1.5
309
CELLMARGIN_END
 94
        6
 95
        1
302
GRIDFORMAT
  1
GRIDFORMAT_BEGIN
 90
        0
 91
        1
 62
     0
 92
       -2
340
14
 93
        0
 40
0.045
309
GRIDFORMAT_END
 95
        2
302
GRIDFORMAT
  1
GRIDFORMAT_BEGIN
 90
        0
 91
        1
 62
     0
 92
       -2
340
14
 93
        0
 40
0.045
309
GRIDFORMAT_END
 95
        4
302
GRIDFORMAT
  1
GRIDFORMAT_BEGIN
 90
        0
 91
        1
 62
     0
 92
       -2
340
14
 93
        0
 40
0.045
309
GRIDFORMAT_END
 95
        8
302
GRIDFORMAT
  1
GRIDFORMAT_BEGIN
 90
        0
 91
        1
 62
     0
 92
       -2
340
14
 93
        0
 40
0.045
309
GRIDFORMAT_END
 95
       16
302
GRIDFORMAT
  1
GRIDFORMAT_BEGIN
 90
        0
 91
        1
 62
     0
 92
       -2
340
14
 93
        0
 40
0.045
309
GRIDFORMAT_END
 95
       32
302
GRIDFORMAT
  1
GRIDFORMAT_BEGIN
 90
        0
 91
        1
 62
     0
 92
       -2
340
14
 93
        0
 40
0.045
309
GRIDFORMAT_END
309
TABLEFORMAT_END
  1
CELLSTYLE_BEGIN
 90
        2
 91
        1
300
_HEADER
309
CELLSTYLE_END
300
CELLSTYLE
  1
TABLEFORMAT_BEGIN
 90
        5
170
     1
 91
        0
 92
        0
 62
   257
 93
        1
300
CONTENTFORMAT
  1
CONTENTFORMAT_BEGIN
 90
        0
 91
        0
 92
        4
 93
        0
300

 40
0.0
140
1.0
 94
        2
 62
     0
340
11
144
4.5
309
CONTENTFORMAT_END
171
     1
301
MARGIN
  1
CELLMARGIN_BEGIN
 40
1.5
 40
1.5
 40
1.5
 40
1.5
 40
1.5
 40
1.5
309
CELLMARGIN_END
 94
        6
 95
        1
302
GRIDFORMAT
  1
GRIDFORMAT_BEGIN
 90
        0
 91
        1
 62
     0
 92
       -2
340
14
 93
        0
 40
0.045
309
GRIDFORMAT_END
 95
        2
302
GRIDFORMAT
  1
GRIDFORMAT_BEGIN
 90
        0
 91
        1
 62
     0
 92
       -2
340
14
 93
        0
 40
0.045
309
GRIDFORMAT_END
 95
        4
302
GRIDFORMAT
  1
GRIDFORMAT_BEGIN
 90
        0
 91
        1
 62
     0
 92
       -2
340
14
 93
        0
 40
0.045
309
GRIDFORMAT_END
 95
        8
302
GRIDFORMAT
  1
GRIDFORMAT_BEGIN
 90
        0
 91
        1
 62
     0
 92
       -2
340
14
 93
        0
 40
0.045
309
GRIDFORMAT_END
 95
       16
302
GRIDFORMAT
  1
GRIDFORMAT_BEGIN
 90
        0
 91
        1
 62
     0
 92
       -2
340
14
 93
        0
 40
0.045
309
GRIDFORMAT_END
 95
       32
302
GRIDFORMAT
  1
GRIDFORMAT_BEGIN
 90
        0
 91
        1
 62
     0
 92
       -2
340
14
 93
        0
 40
0.045
309
GRIDFORMAT_END
309
TABLEFORMAT_END
  1
CELLSTYLE_BEGIN
 90
        3
 91
        2
300
_DATA
309
CELLSTYLE_END
  0
ENDSEC
  0
EOF
