  0
SECTION
  2
HEADER
  9
$ACADVER
  1
AC1027
  9
$ACADMAINTVER
 70
   105
  9
$DWGCODEPAGE
  3
ANSI_1252
  9
$LASTSAVEDBY
  1
Nick
  9
$REQUIREDVERSIONS
160
                 0
  9
$INSBASE
 10
0.0
 20
0.0
 30
0.0
  9
$EXTMIN
 10
0.0
 20
0.0
 30
0.0
  9
$EXTMAX
 10
420.0
 20
297.0
 30
0.0
  9
$LIMMIN
 10
0.0
 20
0.0
  9
$LIMMAX
 10
420.0
 20
297.0
  9
$ORTHOMODE
 70
     0
  9
$REGENMODE
 70
     1
  9
$FILLMODE
 70
     1
  9
$QTEXTMODE
 70
     0
  9
$MIRRTEXT
 70
     1
  9
$LTSCALE
 40
1.0
  9
$ATTMODE
 70
     1
  9
$TEXTSIZE
 40
4.2333333333
  9
$TRACEWID
 40
1.0
  9
$TEXTSTYLE
  7
Standard
  9
$CLAYER
  8
0
  9
$CELTYPE
  6
ByLayer
  9
$CECOLOR
 62
   256
  9
$CELTSCALE
 40
1.0
  9
$DISPSILH
 70
     0
  9
$DIMSCALE
 40
1.0
  9
$DIMASZ
 40
3.302
  9
$DIMEXO
 40
1.0
  9
$DIMDLI
 40
3.75
  9
$DIMRND
 40
0.0
  9
$DIMDLE
 40
0.0
  9
$DIMEXE
 40
1.0
  9
$DIMTP
 40
0.0
  9
$DIMTM
 40
0.0
  9
$DIMTXT
 40
4.2333333333
  9
$DIMCEN
 40
2.5
  9
$DIMTSZ
 40
0.0
  9
$DIMTOL
 70
     0
  9
$DIMLIM
 70
     0
  9
$DIMTIH
 70
     1
  9
$DIMTOH
 70
     1
  9
$DIMSE1
 70
     0
  9
$DIMSE2
 70
     0
  9
$DIMTAD
 70
     1
  9
$DIMZIN
 70
     1
  9
$DIMBLK
  1

  9
$DIMASO
 70
     1
  9
$DIMSHO
 70
     1
  9
$DIMPOST
  1

  9
$DIMAPOST
  1

  9
$DIMALT
 70
     0
  9
$DIMALTD
 70
     3
  9
$DIMALTF
 40
0.0393700787
  9
$DIMLFAC
 40
1.0
  9
$DIMTOFL
 70
     1
  9
$DIMTVP
 40
0.0
  9
$DIMTIX
 70
     0
  9
$DIMSOXD
 70
     0
  9
$DIMSAH
 70
     0
  9
$DIMBLK1
  1

  9
$DIMBLK2
  1

  9
$DIMSTYLE
  2
ISO-25
  9
$DIMCLRD
 70
     0
  9
$DIMCLRE
 70
     0
  9
$DIMCLRT
 70
     0
  9
$DIMTFAC
 40
1.0
  9
$DIMGAP
 40
1.524
  9
$DIMJUST
 70
     0
  9
$DIMSD1
 70
     0
  9
$DIMSD2
 70
     0
  9
$DIMTOLJ
 70
     0
  9
$DIMTZIN
 70
     1
  9
$DIMALTZ
 70
     0
  9
$DIMALTTZ
 70
     0
  9
$DIMUPT
 70
     0
  9
$DIMDEC
 70
     0
  9
$DIMTDEC
 70
     0
  9
$DIMALTU
 70
     2
  9
$DIMALTTD
 70
     3
  9
$DIMTXSTY
  7
Standard
  9
$DIMAUNIT
 70
     0
  9
$DIMADEC
 70
     2
  9
$DIMALTRND
 40
0.0
  9
$DIMAZIN
 70
     0
  9
$DIMDSEP
 70
    44
  9
$DIMATFIT
 70
     3
  9
$DIMFRAC
 70
     0
  9
$DIMLDRBLK
  1

  9
$DIMLUNIT
 70
     2
  9
$DIMLWD
 70
    -2
  9
$DIMLWE
 70
    -2
  9
$DIMTMOVE
 70
     0
  9
$DIMFXL
 40
1.0
  9
$DIMFXLON
 70
     0
  9
$DIMJOGANG
 40
0.7853981634
  9
$DIMTFILL
 70
     0
  9
$DIMTFILLCLR
 70
     0
  9
$DIMARCSYM
 70
     0
  9
$DIMLTYPE
  6

  9
$DIMLTEX1
  6

  9
$DIMLTEX2
  6

  9
$DIMTXTDIRECTION
 70
     0
  9
$LUNITS
 70
     2
  9
$LUPREC
 70
     0
  9
$SKETCHINC
 40
1.0
  9
$FILLETRAD
 40
0.0
  9
$AUNITS
 70
     0
  9
$AUPREC
 70
     2
  9
$MENU
  1
.
  9
$ELEVATION
 40
0.0
  9
$PELEVATION
 40
0.0
  9
$THICKNESS
 40
0.0
  9
$LIMCHECK
 70
     0
  9
$CHAMFERA
 40
0.0
  9
$CHAMFERB
 40
0.0
  9
$CHAMFERC
 40
0.0
  9
$CHAMFERD
 40
0.0
  9
$SKPOLY
 70
     0
  9
$TDCREATE
 40
2460934.586657581
  9
$TDUCREATE
 40
2460934.169990915
  9
$TDUPDATE
 40
2460934.586657848
  9
$TDUUPDATE
 40
2460934.169991181
  9
$TDINDWG
 40
0.0000000116
  9
$TDUSRTIMER
 40
0.0000000116
  9
$USRTIMER
 70
     1
  9
$ANGBASE
 50
0.0
  9
$ANGDIR
 70
     0
  9
$PDMODE
 70
     0
  9
$PDSIZE
 40
-1.0
  9
$PLINEWID
 40
0.0
  9
$SPLFRAME
 70
     0
  9
$SPLINETYPE
 70
     6
  9
$SPLINESEGS
 70
     8
  9
$HANDSEED
  5
117
  9
$SURFTAB1
 70
     6
  9
$SURFTAB2
 70
     6
  9
$SURFTYPE
 70
     6
  9
$SURFU
 70
     6
  9
$SURFV
 70
     6
  9
$UCSBASE
  2

  9
$UCSNAME
  2

  9
$UCSORG
 10
0.0
 20
0.0
 30
0.0
  9
$UCSXDIR
 10
1.0
 20
0.0
 30
0.0
  9
$UCSYDIR
 10
0.0
 20
1.0
 30
0.0
  9
$UCSORTHOREF
  2

  9
$UCSORTHOVIEW
 70
     0
  9
$UCSORGTOP
 10
0.0
 20
0.0
 30
0.0
  9
$UCSORGBOTTOM
 10
0.0
 20
0.0
 30
0.0
  9
$UCSORGLEFT
 10
0.0
 20
0.0
 30
0.0
  9
$UCSORGRIGHT
 10
0.0
 20
0.0
 30
0.0
  9
$UCSORGFRONT
 10
0.0
 20
0.0
 30
0.0
  9
$UCSORGBACK
 10
0.0
 20
0.0
 30
0.0
  9
$PUCSBASE
  2

  9
$PUCSNAME
  2

  9
$PUCSORG
 10
0.0
 20
0.0
 30
0.0
  9
$PUCSXDIR
 10
1.0
 20
0.0
 30
0.0
  9
$PUCSYDIR
 10
0.0
 20
1.0
 30
0.0
  9
$PUCSORTHOREF
  2

  9
$PUCSORTHOVIEW
 70
     0
  9
$PUCSORGTOP
 10
0.0
 20
0.0
 30
0.0
  9
$PUCSORGBOTTOM
 10
0.0
 20
0.0
 30
0.0
  9
$PUCSORGLEFT
 10
0.0
 20
0.0
 30
0.0
  9
$PUCSORGRIGHT
 10
0.0
 20
0.0
 30
0.0
  9
$PUCSORGFRONT
 10
0.0
 20
0.0
 30
0.0
  9
$PUCSORGBACK
 10
0.0
 20
0.0
 30
0.0
  9
$USERI1
 70
     0
  9
$USERI2
 70
     0
  9
$USERI3
 70
     0
  9
$USERI4
 70
     0
  9
$USERI5
 70
     0
  9
$USERR1
 40
0.0
  9
$USERR2
 40
0.0
  9
$USERR3
 40
0.0
  9
$USERR4
 40
0.0
  9
$USERR5
 40
0.0
  9
$WORLDVIEW
 70
     1
  9
$SHADEDGE
 70
     3
  9
$SHADEDIF
 70
    70
  9
$TILEMODE
 70
     1
  9
$MAXACTVP
 70
    64
  9
$PINSBASE
 10
0.0
 20
0.0
 30
0.0
  9
$PLIMCHECK
 70
     0
  9
$PEXTMIN
 10
1.0000000000E+20
 20
1.0000000000E+20
 30
1.0000000000E+20
  9
$PEXTMAX
 10
-1.0000000000E+20
 20
-1.0000000000E+20
 30
-1.0000000000E+20
  9
$PLIMMIN
 10
0.0
 20
0.0
  9
$PLIMMAX
 10
420.0
 20
297.0
  9
$UNITMODE
 70
     0
  9
$VISRETAIN
 70
     1
  9
$PLINEGEN
 70
     0
  9
$PSLTSCALE
 70
     1
  9
$TREEDEPTH
 70
  3020
  9
$CMLSTYLE
  2
Standard
  9
$CMLJUST
 70
     0
  9
$CMLSCALE
 40
20.0
  9
$PROXYGRAPHICS
 70
     1
  9
$MEASUREMENT
 70
     1
  9
$CELWEIGHT
370
    -1
  9
$ENDCAPS
280
     0
  9
$JOINSTYLE
280
     0
  9
$LWDISPLAY
290
     1
  9
$INSUNITS
 70
     4
  9
$HYPERLINKBASE
  1

  9
$STYLESHEET
  1

  9
$XEDIT
290
     1
  9
$CEPSNTYPE
380
     0
  9
$PSTYLEMODE
290
     1
  9
$FINGERPRINTGUID
  2
{164342fb-8662-43c1-85aa-30329e576504}
  9
$VERSIONGUID
  2
{FAEB1C32-E019-11D5-929B-00C0DF256EC4}
  9
$EXTNAMES
290
     1
  9
$PSVPSCALE
 40
0.0
  9
$OLESTARTUP
290
     0
  9
$SORTENTS
280
   127
  9
$INDEXCTL
280
     0
  9
$HIDETEXT
280
     1
  9
$XCLIPFRAME
280
     2
  9
$HALOGAP
280
     0
  9
$OBSCOLOR
 70
   257
  9
$OBSLTYPE
280
     0
  9
$INTERSECTIONDISPLAY
280
     0
  9
$INTERSECTIONCOLOR
 70
   257
  9
$DIMASSOC
280
     2
  9
$PROJECTNAME
  1

  9
$CAMERADISPLAY
290
     0
  9
$LENSLENGTH
 40
50.0
  9
$CAMERAHEIGHT
 40
0.0
  9
$STEPSPERSEC
 40
2.0
  9
$STEPSIZE
 40
6.0
  9
$3DDWFPREC
 40
2.0
  9
$PSOLWIDTH
 40
5.0
  9
$PSOLHEIGHT
 40
80.0
  9
$LOFTANG1
 40
1.5707963268
  9
$LOFTANG2
 40
1.5707963268
  9
$LOFTMAG1
 40
0.0
  9
$LOFTMAG2
 40
0.0
  9
$LOFTPARAM
 70
     7
  9
$LOFTNORMALS
280
     1
  9
$LATITUDE
 40
37.795
  9
$LONGITUDE
 40
-122.394
  9
$NORTHDIRECTION
 40
0.0
  9
$TIMEZONE
 70
 -8000
  9
$LIGHTGLYPHDISPLAY
280
     1
  9
$TILEMODELIGHTSYNCH
280
     1
  9
$CMATERIAL
347
44
  9
$SOLIDHIST
280
     0
  9
$SHOWHIST
280
     1
  9
$DWFFRAME
280
     2
  9
$DGNFRAME
280
     2
  9
$REALWORLDSCALE
290
     1
  9
$INTERFERECOLOR
 62
   256
  9
$CSHADOW
280
     0
  9
$SHADOWPLANELOCATION
 40
0.0
  0
ENDSEC
  0
SECTION
  2
CLASSES
  0
CLASS
  1
ACDBDICTIONARYWDFLT
  2
AcDbDictionaryWithDefault
  3
ObjectDBX Classes
 90
        0
 91
        3
280
     0
281
     0
  0
CLASS
  1
VISUALSTYLE
  2
AcDbVisualStyle
  3
ObjectDBX Classes
 90
     4095
 91
        3
280
     0
281
     0
  0
CLASS
  1
MATERIAL
  2
AcDbMaterial
  3
ObjectDBX Classes
 90
     1153
 91
        3
280
     0
281
     0
  0
CLASS
  1
SCALE
  2
AcDbScale
  3
ObjectDBX Classes
 90
     1153
 91
        3
280
     0
281
     0
  0
CLASS
  1
TABLESTYLE
  2
AcDbTableStyle
  3
ObjectDBX Classes
 90
     4095
 91
        3
280
     0
281
     0
  0
CLASS
  1
MLEADERSTYLE
  2
AcDbMLeaderStyle
  3
ACDB_MLEADERSTYLE_CLASS
 90
     4095
 91
        3
280
     0
281
     0
  0
CLASS
  1
SUN
  2
AcDbSun
  3
SCENEOE
 90
     1153
 91
        3
280
     0
281
     0
  0
CLASS
  1
DICTIONARYVAR
  2
AcDbDictionaryVar
  3
ObjectDBX Classes
 90
        0
 91
        3
280
     0
281
     0
  0
CLASS
  1
CELLSTYLEMAP
  2
AcDbCellStyleMap
  3
ObjectDBX Classes
 90
     1152
 91
        3
280
     0
281
     0
  0
ENDSEC
  0
SECTION
  2
TABLES
  0
TABLE
  2
VPORT
  5
8
330
0
100
AcDbSymbolTable
 70
     1
  0
VPORT
  5
29
330
8
100
AcDbSymbolTableRecord
100
AcDbViewportTableRecord
  2
*Active
 70
     0
 10
0.0
 20
0.0
 11
1.0
 21
1.0
 12
210.0
 22
148.5
 13
0.0
 23
0.0
 14
10.0
 24
10.0
 15
10.0
 25
10.0
 16
0.0
 26
0.0
 36
1.0
 17
0.0
 27
0.0
 37
0.0
 40
297.0
 41
1.4141414141
 42
50.0
 43
0.0
 44
0.0
 50
0.0
 51
0.0
 71
     0
 72
  2000
 73
     1
 74
     3
 75
     0
 76
     0
 77
     0
 78
     0
281
     0
 65
     1
110
0.0
120
0.0
130
0.0
111
1.0
121
0.0
131
0.0
112
0.0
122
1.0
132
0.0
 79
     0
146
0.0
348
2F
 60
     3
 61
     5
292
     1
282
     1
141
0.0
142
0.0
 63
   250
361
5D
  0
ENDTAB
  0
TABLE
  2
LTYPE
  5
5
330
0
100
AcDbSymbolTable
 70
     6
  0
LTYPE
  5
14
330
5
100
AcDbSymbolTableRecord
100
AcDbLinetypeTableRecord
  2
ByBlock
 70
     0
  3

 72
    65
 73
     0
 40
0.0
  0
LTYPE
  5
15
330
5
100
AcDbSymbolTableRecord
100
AcDbLinetypeTableRecord
  2
ByLayer
 70
     0
  3

 72
    65
 73
     0
 40
0.0
  0
LTYPE
  5
16
330
5
100
AcDbSymbolTableRecord
100
AcDbLinetypeTableRecord
  2
Continuous
 70
     0
  3
Solid line
 72
    65
 73
     0
 40
0.0
  0
LTYPE
  5
5E
330
5
100
AcDbSymbolTableRecord
100
AcDbLinetypeTableRecord
  2
HIDDEN
 70
     0
  3
Hidden __ __ __ __ __ __ __ __ __ __ __ __ __ __
 72
    65
 73
     2
 40
1.905
 49
1.27
 74
     0
 49
-0.635
 74
     0
  0
LTYPE
  5
5F
330
5
100
AcDbSymbolTableRecord
100
AcDbLinetypeTableRecord
  2
PHANTOM
 70
     0
  3
Phantom ______  __  __  ______  __  __  ______
 72
    65
 73
     6
 40
12.7
 49
6.35
 74
     0
 49
-1.27
 74
     0
 49
1.27
 74
     0
 49
-1.27
 74
     0
 49
1.27
 74
     0
 49
-1.27
 74
     0
  0
LTYPE
  5
60
330
5
100
AcDbSymbolTableRecord
100
AcDbLinetypeTableRecord
  2
CENTER
 70
     0
  3
Center ____ _ ____ _ ____ _ ____ _ ____ _ ____
 72
    65
 73
     4
 40
10.16
 49
6.35
 74
     0
 49
-1.27
 74
     0
 49
1.27
 74
     0
 49
-1.27
 74
     0
  0
LTYPE
  5
61
330
5
100
AcDbSymbolTableRecord
100
AcDbLinetypeTableRecord
  2
CENTERX2
 70
     0
  3
Center (2x) ________  __  ________  __  _____
 72
    65
 73
     4
 40
20.32
 49
12.7
 74
     0
 49
-2.54
 74
     0
 49
2.54
 74
     0
 49
-2.54
 74
     0
  0
LTYPE
  5
62
330
5
100
AcDbSymbolTableRecord
100
AcDbLinetypeTableRecord
  2
DOT2
 70
     0
  3
Dot (.5x) ........................................
 72
    65
 73
     2
 40
0.635
 49
0.0
 74
     0
 49
-0.635
 74
     0
  0
ENDTAB
  0
TABLE
  2
LAYER
  5
2
330
0
100
AcDbSymbolTable
 70
    13
  0
LAYER
  5
10
330
2
100
AcDbSymbolTableRecord
100
AcDbLayerTableRecord
  2
0
 70
     0
 62
     7
  6
Continuous
370
    -3
390
F
347
46
348
0
  0
LAYER
  5
63
330
2
100
AcDbSymbolTableRecord
100
AcDbLayerTableRecord
  2
DRAWING-SHEET
 70
     0
 62
   179
  6
Continuous
370
    -3
390
F
347
46
348
0
  0
LAYER
  5
64
330
2
100
AcDbSymbolTableRecord
100
AcDbLayerTableRecord
  2
BORDER
 70
     0
 62
   179
  6
Continuous
370
    -3
390
F
347
46
348
0
  0
LAYER
  5
65
330
2
100
AcDbSymbolTableRecord
100
AcDbLayerTableRecord
  2
DIMENSIONS
 70
     0
 62
     7
  6
Continuous
370
    -3
390
F
347
46
348
0
  0
LAYER
  5
66
330
2
100
AcDbSymbolTableRecord
100
AcDbLayerTableRecord
  2
CENTRE_LINES
 70
     0
 62
     7
  6
Continuous
370
    -3
390
F
347
46
348
0
  0
LAYER
  5
67
330
2
100
AcDbSymbolTableRecord
100
AcDbLayerTableRecord
  2
FORMAT
 70
     0
 62
     7
  6
Continuous
370
    -3
390
F
347
46
348
0
  0
LAYER
  5
68
330
2
100
AcDbSymbolTableRecord
100
AcDbLayerTableRecord
  2
SLD-0
 70
     0
 62
   179
  6
Continuous
370
    -3
390
F
347
46
348
0
  0
LAYER
  5
69
330
2
100
AcDbSymbolTableRecord
100
AcDbLayerTableRecord
  2
OUTLINE
 70
     0
 62
     4
  6
Continuous
370
    -3
390
F
347
46
348
0
  0
LAYER
  5
6A
330
2
100
AcDbSymbolTableRecord
100
AcDbLayerTableRecord
  2
4
 70
     0
 62
     7
  6
Continuous
370
    70
390
F
347
46
348
0
  0
LAYER
  5
6B
330
2
100
AcDbSymbolTableRecord
100
AcDbLayerTableRecord
  2
TEXT25
 70
     0
 62
   179
  6
Continuous
370
    -3
390
F
347
46
348
0
  0
LAYER
  5
6C
330
2
100
AcDbSymbolTableRecord
100
AcDbLayerTableRecord
  2
TEXT35
 70
     0
 62
     7
  6
Continuous
370
    -3
390
F
347
46
348
0
  0
LAYER
  5
6D
330
2
100
AcDbSymbolTableRecord
100
AcDbLayerTableRecord
  2
TEXT5
 70
     0
 62
     7
  6
Continuous
370
    -3
390
F
347
46
348
0
  0
LAYER
  5
6E
330
2
100
AcDbSymbolTableRecord
100
AcDbLayerTableRecord
  2
5
 70
     0
 62
     7
  6
Continuous
370
    35
390
F
347
46
348
0
  0
ENDTAB
  0
TABLE
  2
STYLE
  5
3
330
0
100
AcDbSymbolTable
 70
     3
  0
STYLE
  5
11
330
3
100
AcDbSymbolTableRecord
100
AcDbTextStyleTableRecord
  2
Standard
 70
     0
 40
0.0
 41
1.0
 50
0.0
 71
     0
 42
4.2333333333
  3
txt
  4

  0
STYLE
  5
75
330
3
100
AcDbSymbolTableRecord
100
AcDbTextStyleTableRecord
  2
SLDTEXTSTYLE0
 70
     0
 40
0.0
 41
0.75
 50
0.0
 71
     0
 42
4.2333333333
  3
TXT
  4

  0
STYLE
  5
7B
330
3
100
AcDbSymbolTableRecord
100
AcDbTextStyleTableRecord
  2
SLDTEXTSTYLE1
 70
     0
 40
0.0
 41
0.6
 50
0.0
 71
     0
 42
4.2333333333
  3
TXT
  4

  0
ENDTAB
  0
TABLE
  2
VIEW
  5
6
330
0
100
AcDbSymbolTable
 70
     0
  0
ENDTAB
  0
TABLE
  2
UCS
  5
7
330
0
100
AcDbSymbolTable
 70
     0
  0
ENDTAB
  0
TABLE
  2
APPID
  5
9
330
0
100
AcDbSymbolTable
 70
     1
  0
APPID
  5
12
330
9
100
AcDbSymbolTableRecord
100
AcDbRegAppTableRecord
  2
ACAD
 70
     0
  0
ENDTAB
  0
TABLE
  2
DIMSTYLE
  5
A
330
0
100
AcDbSymbolTable
 70
     1
100
AcDbDimStyleTable
  0
DIMSTYLE
105
27
330
A
100
AcDbSymbolTableRecord
100
AcDbDimStyleTableRecord
  2
ISO-25
 70
     0
 41
2.5
 42
0.625
 43
3.75
 44
1.25
 73
     0
 74
     0
 77
     1
 78
     8
140
2.5
141
2.5
143
0.0393700787
147
0.625
171
     3
172
     1
178
     0
271
     2
272
     2
274
     3
278
    44
283
     0
284
     8
340
11
  0
ENDTAB
  0
TABLE
  2
BLOCK_RECORD
  5
1
330
0
100
AcDbSymbolTable
 70
     6
  0
BLOCK_RECORD
  5
1F
330
1
100
AcDbSymbolTableRecord
100
AcDbBlockTableRecord
  2
*Model_Space
340
22
 70
     0
280
     1
281
     0
  0
BLOCK_RECORD
  5
1B
330
1
100
AcDbSymbolTableRecord
100
AcDbBlockTableRecord
  2
*Paper_Space
340
1E
 70
     0
280
     1
281
     0
  0
BLOCK_RECORD
  5
23
330
1
100
AcDbSymbolTableRecord
100
AcDbBlockTableRecord
  2
*Paper_Space0
340
26
 70
     0
280
     1
281
     0
  0
BLOCK_RECORD
  5
6F
330
1
100
AcDbSymbolTableRecord
100
AcDbBlockTableRecord
  2
Block1
340
0
 70
     0
280
     1
281
     0
  0
BLOCK_RECORD
  5
72
330
1
100
AcDbSymbolTableRecord
100
AcDbBlockTableRecord
  2
SW_NOTE_0
340
0
102
{BLKREFS
331
77
102
}
 70
     0
280
     1
281
     0
  0
BLOCK_RECORD
  5
78
330
1
100
AcDbSymbolTableRecord
100
AcDbBlockTableRecord
  2
SW_NOTE_0_1
340
0
102
{BLKREFS
331
7D
102
}
 70
     0
280
     1
281
     0
  0
BLOCK_RECORD
  5
7E
330
1
100
AcDbSymbolTableRecord
100
AcDbBlockTableRecord
  2
SW_NOTE_0_2
340
0
102
{BLKREFS
331
82
102
}
 70
     0
280
     1
281
     0
  0
BLOCK_RECORD
  5
83
330
1
100
AcDbSymbolTableRecord
100
AcDbBlockTableRecord
  2
SW_NOTE_0_3
340
0
102
{BLKREFS
331
87
102
}
 70
     0
280
     1
281
     0
  0
ENDTAB
  0
ENDSEC
  0
SECTION
  2
BLOCKS
  0
BLOCK
  5
20
330
1F
100
AcDbEntity
  8
0
100
AcDbBlockBegin
  2
*Model_Space
 70
     0
 10
0.0
 20
0.0
 30
0.0
  3
*Model_Space
  1

  0
ENDBLK
  5
21
330
1F
100
AcDbEntity
  8
0
100
AcDbBlockEnd
  0
BLOCK
  5
1C
330
1B
100
AcDbEntity
 67
     1
  8
0
100
AcDbBlockBegin
  2
*Paper_Space
 70
     0
 10
0.0
 20
0.0
 30
0.0
  3
*Paper_Space
  1

  0
ENDBLK
  5
1D
330
1B
100
AcDbEntity
 67
     1
  8
0
100
AcDbBlockEnd
  0
BLOCK
  5
24
330
23
100
AcDbEntity
  8
0
100
AcDbBlockBegin
  2
*Paper_Space0
 70
     0
 10
0.0
 20
0.0
 30
0.0
  3
*Paper_Space0
  1

  0
ENDBLK
  5
25
330
23
100
AcDbEntity
  8
0
100
AcDbBlockEnd
  0
BLOCK
  5
70
330
6F
100
AcDbEntity
  8
0
100
AcDbBlockBegin
  2
Block1
 70
     0
 10
0.0
 20
0.0
 30
0.0
  3
Block1
  1

  0
INSERT
  5
77
330
6F
100
AcDbEntity
  8
0
  6
Continuous
 62
     7
370
     0
100
AcDbBlockReference
  2
SW_NOTE_0
 10
40.5248655077
 20
20.5912386523
 30
0.0
  0
INSERT
  5
7D
330
6F
100
AcDbEntity
  8
DRAWING-SHEET
 62
     7
100
AcDbBlockReference
  2
SW_NOTE_0_1
 10
3.556761253
 20
-0.3611706024
 30
0.0
  0
INSERT
  5
82
330
6F
100
AcDbEntity
  8
DRAWING-SHEET
 62
     7
100
AcDbBlockReference
  2
SW_NOTE_0_2
 10
7.9590819428
 20
3.0109637777
 30
0.0
  0
INSERT
  5
87
330
6F
100
AcDbEntity
  8
DRAWING-SHEET
 62
     7
100
AcDbBlockReference
  2
SW_NOTE_0_3
 10
0.0721004934
 20
6.5234823937
 30
0.0
  0
ENDBLK
  5
71
330
6F
100
AcDbEntity
  8
0
100
AcDbBlockEnd
  0
BLOCK
  5
73
330
72
100
AcDbEntity
  8
0
100
AcDbBlockBegin
  2
SW_NOTE_0
 70
     0
 10
0.0
 20
0.0
 30
0.0
  3
SW_NOTE_0
  1

  0
MTEXT
  5
76
330
72
100
AcDbEntity
  8
0
  6
Continuous
 62
     0
370
     0
100
AcDbMText
 10
0.0
 20
1.9336016097
 30
0.0
 40
1.5
 41
0.0
 46
0.0
 71
     1
 72
     1
  1
TITLE:
  7
SLDTEXTSTYLE0
 73
     1
 44
1.0
  0
ENDBLK
  5
74
330
72
100
AcDbEntity
  8
0
100
AcDbBlockEnd
  0
BLOCK
  5
79
330
78
100
AcDbEntity
  8
0
100
AcDbBlockBegin
  2
SW_NOTE_0_1
 70
     0
 10
0.0
 20
0.0
 30
0.0
  3
SW_NOTE_0_1
  1

  0
MTEXT
  5
7C
330
78
100
AcDbEntity
  8
DRAWING-SHEET
 62
     0
100
AcDbMText
 10
0.0
 20
2.7285267159
 30
0.0
 40
2.1166666667
 41
0.0
 46
0.0
 71
     1
 72
     1
  1
Email: roddyeng.com.au
  7
SLDTEXTSTYLE1
 73
     1
 44
1.0
  0
ENDBLK
  5
7A
330
78
100
AcDbEntity
  8
0
100
AcDbBlockEnd
  0
BLOCK
  5
7F
330
7E
100
AcDbEntity
  8
0
100
AcDbBlockBegin
  2
SW_NOTE_0_2
 70
     0
 10
0.0
 20
0.0
 30
0.0
  3
SW_NOTE_0_2
  1

  0
MTEXT
  5
81
330
7E
100
AcDbEntity
  8
DRAWING-SHEET
 62
     0
100
AcDbMText
 10
0.0
 20
2.7285267159
 30
0.0
 40
2.1166666667
 41
0.0
 46
0.0
 71
     1
 72
     1
  1
Ph: - 02 6947 4039
  7
SLDTEXTSTYLE1
 73
     1
 44
1.0
  0
ENDBLK
  5
80
330
7E
100
AcDbEntity
  8
0
100
AcDbBlockEnd
  0
BLOCK
  5
84
330
83
100
AcDbEntity
  8
0
100
AcDbBlockBegin
  2
SW_NOTE_0_3
 70
     0
 10
0.0
 20
0.0
 30
0.0
  3
SW_NOTE_0_3
  1

  0
MTEXT
  5
86
330
83
100
AcDbEntity
  8
DRAWING-SHEET
 62
     0
100
AcDbMText
 10
0.0
 20
2.7285267159
 30
0.0
 40
2.1166666667
 41
0.0
 46
0.0
 71
     1
 72
     1
  1
14 Waratah St TUMUT NSW 2720
  7
SLDTEXTSTYLE1
 73
     1
 44
1.0
  0
ENDBLK
  5
85
330
83
100
AcDbEntity
  8
0
100
AcDbBlockEnd
  0
ENDSEC
  0
SECTION
  2
ENTITIES
  0
SPLINE
  5
88
330
1F
100
AcDbEntity
  8
0
  6
Continuous
 62
     7
370
    25
100
AcDbSpline
210
0.0
220
0.0
230
1.0
 70
     8
 71
     3
 72
    15
 73
    11
 74
     0
 42
0.00000001
 43
0.00000001
 40
0.0
 40
0.0
 40
0.0
 40
0.0
 40
0.1022030370352186
 40
0.2110233423738754
 40
0.3250996615652079
 40
0.4465020971348886
 40
0.5737877176488558
 40
0.7089007097660663
 40
0.8503578712934009
 40
1.0
 40
1.0
 40
1.0
 40
1.0
 10
924.6025301643182
 20
825.8242964281471
 30
0.0
 10
924.5405211841892
 20
825.8229693626441
 30
0.0
 10
924.4124883720184
 20
825.8202293090594
 30
0.0
 10
924.2160933394944
 20
825.8000544591706
 30
0.0
 10
924.0097122584046
 20
825.7675075004777
 30
0.0
 10
923.7941362685619
 20
825.7227389348338
 30
0.0
 10
923.5687179643265
 20
825.6641536165284
 30
0.0
 10
923.3339330483784
 20
825.59394904367
 30
0.0
 10
923.0892878675801
 20
825.5100130466103
 30
0.0
 10
922.9244473546687
 20
825.4466251294751
 30
0.0
 10
922.8397096514976
 20
825.4140400178908
 30
0.0
  0
SPLINE
  5
89
330
1F
100
AcDbEntity
  8
0
  6
Continuous
 62
     7
370
    25
100
AcDbSpline
210
0.0
220
0.0
230
1.0
 70
     8
 71
     3
 72
    23
 73
    19
 74
     0
 42
0.00000001
 43
0.00000001
 40
0.0
 40
0.0
 40
0.0
 40
0.0
 40
0.0653513820265937
 40
0.1279160318306125
 40
0.1883602055717016
 40
0.2472160772654531
 40
0.3056301291974118
 40
0.3637698398318187
 40
0.4226609139127803
 40
0.4826872940903933
 40
0.5433002212395599
 40
0.6041179553231029
 40
0.6649648912652849
 40
0.7274134941125657
 40
0.7914676251494241
 40
0.8580554427291005
 40
0.9270368146149472
 40
1.0
 40
1.0
 40
1.0
 40
1.0
 10
926.5320173438053
 20
824.0582707871216
 30
0.0
 10
926.5305122478934
 20
824.1224439336843
 30
0.0
 10
926.5275662367976
 20
824.2480537372389
 30
0.0
 10
926.5034963618195
 20
824.4318233519618
 30
0.0
 10
926.4616289964396
 20
824.6057045915082
 30
0.0
 10
926.4035172708466
 20
824.7705371263013
 30
0.0
 10
926.3297355388839
 20
824.9264764230969
 30
0.0
 10
926.2395725392981
 20
825.0736834178401
 30
0.0
 10
926.1313362011415
 20
825.2102178937796
 30
0.0
 10
926.0076975986532
 20
825.3361437306014
 30
0.0
 10
925.8722506479261
 20
825.4523605874541
 30
0.0
 10
925.7226649505614
 20
825.5514327850586
 30
0.0
 10
925.5620708321724
 20
825.6347788825485
 30
0.0
 10
925.3924031762435
 20
825.7067057359034
 30
0.0
 10
925.2096262651867
 20
825.7583645825304
 30
0.0
 10
925.0173596768909
 20
825.7971483206837
 30
0.0
 10
924.8135272015835
 20
825.819583435377
 30
0.0
 10
924.674165628706
 20
825.822696323093
 30
0.0
 10
924.6025301643182
 20
825.8242964281471
 30
0.0
  0
SPLINE
  5
8A
330
1F
100
AcDbEntity
  8
0
  6
Continuous
 62
     7
370
    25
100
AcDbSpline
210
0.0
220
0.0
230
1.0
 70
     8
 71
     3
 72
    23
 73
    19
 74
     0
 42
0.00000001
 43
0.00000001
 40
0.0
 40
0.0
 40
0.0
 40
0.0
 40
0.0642072952829868
 40
0.126424689779743
 40
0.1876802842649232
 40
0.2482164244552135
 40
0.3083050600086137
 40
0.3696609913251442
 40
0.4316985517867817
 40
0.4959468922087646
 40
0.559758023972121
 40
0.6222954078261591
 40
0.6839106352841736
 40
0.7450924080566254
 40
0.8067402253892931
 40
0.8690866181212035
 40
0.9332900029748
 40
1.0
 40
1.0
 40
1.0
 40
1.0
 10
924.5015686258566
 20
822.0294246332753
 30
0.0
 10
924.570045070239
 20
822.0313006970584
 30
0.0
 10
924.7048757495271
 20
822.034994681998
 30
0.0
 10
924.903301776254
 20
822.0634267096319
 30
0.0
 10
925.0948740601445
 20
822.1072154440494
 30
0.0
 10
925.277702304165
 20
822.1727465411551
 30
0.0
 10
925.4549858232257
 20
822.2523916118428
 30
0.0
 10
925.6222401556214
 20
822.3545974994219
 30
0.0
 10
925.7843038748
 20
822.4722203987247
 30
0.0
 10
925.9361396085625
 20
822.6069784102524
 30
0.0
 10
926.07520120687
 20
822.7554805693821
 30
0.0
 10
926.1980723408905
 20
822.9142860400676
 30
0.0
 10
926.3004195715788
 20
823.0836959750228
 30
0.0
 10
926.386668963281
 20
823.2607774672535
 30
0.0
 10
926.4521622177326
 20
823.4474713122329
 30
0.0
 10
926.4988844605276
 20
823.6429025697698
 30
0.0
 10
926.5263200235413
 20
823.8475539530987
 30
0.0
 10
926.5300941491915
 20
823.987140946873
 30
0.0
 10
926.5320173438053
 20
824.0582707871216
 30
0.0
  0
SPLINE
  5
8B
330
1F
100
AcDbEntity
  8
0
  6
Continuous
 62
     7
370
    25
100
AcDbSpline
210
0.0
220
0.0
230
1.0
 70
     8
 71
     3
 72
    19
 73
    15
 74
     0
 42
0.00000001
 43
0.00000001
 40
0.0
 40
0.0
 40
0.0
 40
0.0
 40
0.094687251867554
 40
0.1819941557072738
 40
0.2643769486105113
 40
0.3421798619477712
 40
0.4186176108621478
 40
0.4965090753719086
 40
0.5773690916117324
 40
0.6615105924541991
 40
0.7467325508291975
 40
0.8312579843277437
 40
0.9152056162136557
 40
0.9999999999999999
 40
0.9999999999999999
 40
0.9999999999999999
 40
0.9999999999999999
 10
922.7371455489335
 20
823.4653220691728
 30
0.0
 10
922.7548108229681
 20
823.3890330350044
 30
0.0
 10
922.7887644605472
 20
823.2424012752971
 30
0.0
 10
922.8632918862661
 20
823.0363867808215
 30
0.0
 10
922.9544138873466
 20
822.8527999838477
 30
0.0
 10
923.062766683729
 20
822.6892123649369
 30
0.0
 10
923.1920238962689
 20
822.5465632283144
 30
0.0
 10
923.3395197338475
 20
822.4194385153138
 30
0.0
 10
923.5048859583029
 20
822.3047525054222
 30
0.0
 10
923.6886419114912
 20
822.2091576089713
 30
0.0
 10
923.8825003785092
 20
822.1276290297712
 30
0.0
 10
924.0853968585312
 20
822.0733394413103
 30
0.0
 10
924.2918067933223
 20
822.0351659719553
 30
0.0
 10
924.4314144966285
 20
822.0313448044086
 30
0.0
 10
924.5015686258566
 20
822.0294246332753
 30
0.0
  0
LINE
  5
8C
330
1F
100
AcDbEntity
  8
0
  6
Continuous
 62
     7
370
    25
100
AcDbLine
 10
922.019196831
 20
823.4653220692
 30
0.0
 11
922.7371455489
 21
823.4653220692
 31
0.0
  0
SPLINE
  5
8D
330
1F
100
AcDbEntity
  8
0
  6
Continuous
 62
     7
370
    25
100
AcDbSpline
210
0.0
220
0.0
230
1.0
 70
     8
 71
     3
 72
    23
 73
    19
 74
     0
 42
0.00000001
 43
0.00000001
 40
0.0
 40
0.0
 40
0.0
 40
0.0
 40
0.0654211437588926
 40
0.1287083718818825
 40
0.1902361418635385
 40
0.2507244020335391
 40
0.310637179413444
 40
0.3707664082897269
 40
0.4316147444123521
 40
0.4935229735663542
 40
0.5558834553775338
 40
0.6173423673185092
 40
0.6786680390972757
 40
0.7407113595451474
 40
0.8029853625127457
 40
0.8668025802655179
 40
0.9323471713458883
 40
1.0
 40
1.0
 40
1.0
 40
1.0
 10
924.4599019591899
 20
821.2089118127626
 30
0.0
 10
924.3801895461563
 20
821.2104908710121
 30
0.0
 10
924.2233647902617
 20
821.2135974815774
 30
0.0
 10
923.9936034940981
 20
821.2460968764439
 30
0.0
 10
923.7725415382274
 20
821.2926429710554
 30
0.0
 10
923.5619584498676
 20
821.3626687307088
 30
0.0
 10
923.3599669899698
 20
821.4504111185722
 30
0.0
 10
923.1692864921667
 20
821.5613052248474
 30
0.0
 10
922.985044718343
 20
821.6869717476977
 30
0.0
 10
922.8147314914871
 20
821.8352696973316
 30
0.0
 10
922.656660374985
 20
821.9973626848345
 30
0.0
 10
922.5151597832813
 20
822.1732658646418
 30
0.0
 10
922.3891401793119
 20
822.3600760179816
 30
0.0
 10
922.2806196147659
 20
822.5587003701546
 30
0.0
 10
922.1880527088999
 20
822.7686170122979
 30
0.0
 10
922.115332735696
 20
822.990612442908
 30
0.0
 10
922.0566393529689
 20
823.2235267376266
 30
0.0
 10
922.0318086775944
 20
823.383877618565
 30
0.0
 10
922.0191968309848
 20
823.4653220691728
 30
0.0
  0
SPLINE
  5
8E
330
1F
100
AcDbEntity
  8
0
  6
Continuous
 62
     7
370
    25
100
AcDbSpline
210
0.0
220
0.0
230
1.0
 70
     8
 71
     3
 72
    31
 73
    27
 74
     0
 42
0.00000001
 43
0.00000001
 40
0.0
 40
0.0
 40
0.0
 40
0.0
 40
0.0440144705761397
 40
0.0874341236677055
 40
0.1301183986578981
 40
0.1725536945581829
 40
0.2145547559681384
 40
0.2562980920971303
 40
0.2984382251332502
 40
0.3408490025880955
 40
0.3827151889670264
 40
0.4239240454075312
 40
0.4642462432504175
 40
0.5040736714617954
 40
0.5438619058684914
 40
0.5835667249796535
 40
0.6230943188523332
 40
0.6632290607685843
 40
0.7035512586114698
 40
0.7439378946861845
 40
0.7845412548000923
 40
0.8257501112405972
 40
0.8677573633885063
 40
0.9107451640323093
 40
0.9549144468914781
 40
1.0
 40
1.0
 40
1.0
 40
1.0
 10
927.249966061754
 20
824.0278220691728
 30
0.0
 10
927.2484458897005
 20
823.962628422654
 30
0.0
 10
927.2454260894036
 20
823.8331221653377
 30
0.0
 10
927.2300693176373
 20
823.6407925637715
 30
0.0
 10
927.2005019666335
 20
823.4525346595832
 30
0.0
 10
927.1608043115384
 20
823.2683234782377
 30
0.0
 10
927.1092787847602
 20
823.0885077703997
 30
0.0
 10
927.0469038044121
 20
822.9125728494241
 30
0.0
 10
926.9705700272466
 20
822.7416137482969
 30
0.0
 10
926.886841169512
 20
822.5740128453855
 30
0.0
 10
926.7925635054313
 20
822.4135591146546
 30
0.0
 10
926.6879269172279
 20
822.2635042882713
 30
0.0
 10
926.5773772230054
 20
822.1215973591743
 30
0.0
 10
926.458425484815
 20
821.9893602551533
 30
0.0
 10
926.329966067415
 20
821.8676619285408
 30
0.0
 10
926.1935547145881
 20
821.7557801422415
 30
0.0
 10
926.0502799282359
 20
821.6518228158345
 30
0.0
 10
925.8979250886451
 20
821.5600097982905
 30
0.0
 10
925.7398851275855
 20
821.4755230413697
 30
0.0
 10
925.5738777741215
 20
821.406212098889
 30
0.0
 10
925.4036818873616
 20
821.3442451775519
 30
0.0
 10
925.2268478860018
 20
821.2948519715826
 30
0.0
 10
925.0437763143087
 20
821.2561489898242
 30
0.0
 10
924.854165398921
 20
821.2298619027328
 30
0.0
 10
924.6590095817239
 20
821.2107157599437
 30
0.0
 10
924.5267238386842
 20
821.2095172297708
 30
0.0
 10
924.4599019591899
 20
821.2089118127626
 30
0.0
  0
SPLINE
  5
8F
330
1F
100
AcDbEntity
  8
0
  6
Continuous
 62
     7
370
    25
100
AcDbSpline
210
0.0
220
0.0
230
1.0
 70
     8
 71
     3
 72
    23
 73
    19
 74
     0
 42
0.00000001
 43
0.00000001
 40
0.0
 40
0.0
 40
0.0
 40
0.0
 40
0.0658076458106949
 40
0.1293942736680555
 40
0.1908940606321902
 40
0.2512810689298358
 40
0.3108149644652728
 40
0.3703709874482455
 40
0.4307682625897264
 40
0.4928812506175017
 40
0.5551039481552505
 40
0.6160670509938434
 40
0.6772560331746539
 40
0.7382598051991164
 40
0.8007621343762961
 40
0.864777581574485
 40
0.9310452949994039
 40
0.9999999999999999
 40
0.9999999999999999
 40
0.9999999999999999
 40
0.9999999999999999
 10
924.7323378566258
 20
826.6448092486601
 30
0.0
 10
924.8216721188252
 20
826.642875681358
 30
0.0
 10
924.9973255984254
 20
826.6390738049414
 30
0.0
 10
925.2543289058394
 20
826.6025667204973
 30
0.0
 10
925.4996612331952
 20
826.5451040584853
 30
0.0
 10
925.732809507884
 20
826.46482858023
 30
0.0
 10
925.9542050521977
 20
826.3621777615001
 30
0.0
 10
926.1618109070104
 20
826.2339493263964
 30
0.0
 10
926.3587432795517
 20
826.0841588551973
 30
0.0
 10
926.5414692085898
 20
825.911941685004
 30
0.0
 10
926.707239055825
 20
825.7224065609989
 30
0.0
 10
926.8529898893495
 20
825.518617141471
 30
0.0
 10
926.9767900957593
 20
825.3025539137349
 30
0.0
 10
927.0763575354769
 20
825.0721525223331
 30
0.0
 10
927.1558645852505
 20
824.8299601716809
 30
0.0
 10
927.2087834306078
 20
824.5734285544186
 30
0.0
 10
927.2440216225193
 20
824.3049757086737
 30
0.0
 10
927.2479585055354
 20
824.1214224056403
 30
0.0
 10
927.249966061754
 20
824.0278220691728
 30
0.0
  0
SPLINE
  5
90
330
1F
100
AcDbEntity
  8
0
  6
Continuous
 62
     7
370
    25
100
AcDbSpline
210
0.0
220
0.0
230
1.0
 70
     8
 71
     3
 72
    11
 73
     7
 74
     0
 42
0.00000001
 43
0.00000001
 40
0.0
 40
0.0
 40
0.0
 40
0.0
 40
0.2750683690187423
 40
0.5329014600899371
 40
0.7739734595924451
 40
1.0
 40
1.0
 40
1.0
 40
1.0
 10
923.7900301643182
 20
826.4893605307113
 30
0.0
 10
923.8747293057437
 20
826.5127440091346
 30
0.0
 10
924.0388204962177
 20
826.5580458002431
 30
0.0
 10
924.2810144641347
 20
826.608344704082
 30
0.0
 10
924.5109395006399
 20
826.6386657190706
 30
0.0
 10
924.6601403472924
 20
826.6428058573841
 30
0.0
 10
924.7323378566258
 20
826.6448092486601
 30
0.0
  0
LINE
  5
91
330
1F
100
AcDbEntity
  8
0
  6
Continuous
 62
     7
370
    25
100
AcDbLine
 10
924.2211199079
 20
828.5935271974
 30
0.0
 11
923.7900301643
 21
826.4893605307
 31
0.0
  0
LINE
  5
92
330
1F
100
AcDbEntity
  8
0
  6
Continuous
 62
     7
370
    25
100
AcDbLine
 10
926.9422737541
 20
828.5935271974
 30
0.0
 11
924.2211199079
 21
828.5935271974
 31
0.0
  0
LINE
  5
93
330
1F
100
AcDbEntity
  8
0
  6
Continuous
 62
     7
370
    25
100
AcDbLine
 10
926.9422737541
 20
829.4140400179
 30
0.0
 11
926.9422737541
 21
828.5935271974
 31
0.0
  0
LINE
  5
94
330
1F
100
AcDbEntity
  8
0
  6
Continuous
 62
     7
370
    25
100
AcDbLine
 10
923.660222472
 20
829.4140400179
 30
0.0
 11
926.9422737541
 21
829.4140400179
 31
0.0
  0
LINE
  5
95
330
1F
100
AcDbEntity
  8
0
  6
Continuous
 62
     7
370
    25
100
AcDbLine
 10
922.8397096515
 20
825.4140400179
 30
0.0
 11
923.660222472
 21
829.4140400179
 31
0.0
  0
SPLINE
  5
96
330
1F
100
AcDbEntity
  8
0
  6
Continuous
 62
     7
370
    25
100
AcDbSpline
210
0.0
220
0.0
230
1.0
 70
     8
 71
     3
 72
    31
 73
    27
 74
     0
 42
0.00000001
 43
0.00000001
 40
0.0
 40
0.0
 40
0.0
 40
0.0
 40
0.0337881161627107
 40
0.0671939323738803
 40
0.0998624108568249
 40
0.1325666121262579
 40
0.1651511732547864
 40
0.1979131873557924
 40
0.2313190035669618
 40
0.2650832782673727
 40
0.2992553087581147
 40
0.3343985665049784
 40
0.3699428235093072
 40
0.406283560700061
 40
0.4440638196985077
 40
0.4829977068727754
 40
0.5233544466133039
 40
0.5655365896041484
 40
0.6096129240658194
 40
0.6563908113764165
 40
0.7058854949364568
 40
0.7583245002617311
 40
0.8138317829411498
 40
0.87279455903939
 40
0.9347222295400733
 40
1.0
 40
1.0
 40
1.0
 40
1.0
 10
930.7451583694464
 20
829.619168223019
 30
0.0
 10
930.8087823202676
 20
829.6180532169031
 30
0.0
 10
930.9353103406006
 20
829.6158358205505
 30
0.0
 10
931.1223740554485
 20
829.5945239519
 30
0.0
 10
931.3051161850818
 20
829.5591613848213
 30
0.0
 10
931.4827576449755
 20
829.5090563000609
 30
0.0
 10
931.6567576140447
 20
829.4468947534108
 30
0.0
 10
931.8257551172347
 20
829.3689813428755
 30
0.0
 10
931.9907998752738
 20
829.2782867889454
 30
0.0
 10
932.1492691038907
 20
829.1717179265302
 30
0.0
 10
932.3029025103959
 20
829.0529012952234
 30
0.0
 10
932.4479264257608
 20
828.9185866236728
 30
0.0
 10
932.5843540506693
 20
828.7701301224873
 30
0.0
 10
932.7138976058378
 20
828.6091201478894
 30
0.0
 10
932.8328818280075
 20
828.4324685254127
 30
0.0
 10
932.9461925302599
 20
828.2432477029803
 30
0.0
 10
933.0476143266065
 20
828.0381485834516
 30
0.0
 10
933.1452935841577
 20
827.8205932283863
 30
0.0
 10
933.2296066967045
 20
827.5845620082569
 30
0.0
 10
933.3056438287555
 20
827.3313854127869
 30
0.0
 10
933.3670814712125
 20
827.0580729856936
 30
0.0
 10
933.4182569508424
 20
826.7660587107333
 30
0.0
 10
933.4579024272897
 20
826.4542701776129
 30
0.0
 10
933.4867770377548
 20
826.1233757421575
 30
0.0
 10
933.5020298035637
 20
825.7731577064071
 30
0.0
 10
933.5049022634646
 20
825.5337111940022
 30
0.0
 10
933.5063763181643
 20
825.4108348896856
 30
0.0
  0
SPLINE
  5
97
330
1F
100
AcDbEntity
  8
0
  6
Continuous
 62
     7
370
    25
100
AcDbSpline
210
0.0
220
0.0
230
1.0
 70
     8
 71
     3
 72
    31
 73
    27
 74
     0
 42
0.00000001
 43
0.00000001
 40
0.0
 40
0.0
 40
0.0
 40
0.0
 40
0.0685946222587427
 40
0.1332460424433013
 40
0.1943125864682559
 40
0.2512792231169661
 40
0.3045134392563467
 40
0.3542349066533249
 40
0.4004805887739889
 40
0.4434107549384919
 40
0.4840148686163452
 40
0.5232523007732034
 40
0.5610423727283604
 40
0.5979002393643995
 40
0.6335184888561954
 40
0.6683143511696517
 40
0.702495671286382
 40
0.7366853535134581
 40
0.7702931693607892
 40
0.8034372550192488
 40
0.8359129516660286
 40
0.8684602457892906
 40
0.9008465382431826
 40
0.933466524630708
 40
0.9662575752981231
 40
1.0
 40
1.0
 40
1.0
 40
1.0
 10
928.0704788822669
 20
825.4108348896856
 30
0.0
 10
928.0712286380553
 20
825.539057490221
 30
0.0
 10
928.0726850494813
 20
825.7881317399296
 30
0.0
 10
928.0888871544921
 20
826.1510680646537
 30
0.0
 10
928.1158022226365
 20
826.4915487252141
 30
0.0
 10
928.1526876462943
 20
826.8095900190162
 30
0.0
 10
928.1975744582339
 20
827.1052740521995
 30
0.0
 10
928.2574955704655
 20
827.3778106399396
 30
0.0
 10
928.3256391192997
 20
827.628461169341
 30
0.0
 10
928.4046161382952
 20
827.858042994429
 30
0.0
 10
928.4937310846227
 20
828.0696491727654
 30
0.0
 10
928.590723680559
 20
828.2671924900083
 30
0.0
 10
928.69944321067
 20
828.450374049642
 30
0.0
 10
928.8136761545034
 20
828.6221175706019
 30
0.0
 10
928.9380466039383
 20
828.7796117301272
 30
0.0
 10
929.0690152678635
 20
828.9250806730267
 30
0.0
 10
929.2116938421884
 20
829.0551623883725
 30
0.0
 10
929.3612321468133
 20
829.1736682223956
 30
0.0
 10
929.518984065423
 20
829.2775527290744
 30
0.0
 10
929.6804530166075
 20
829.3690561316246
 30
0.0
 10
929.8467504014211
 20
829.4472272567849
 30
0.0
 10
930.0183302480449
 20
829.5086911101781
 30
0.0
 10
930.1936503803641
 20
829.559458759944
 30
0.0
 10
930.3733236756585
 20
829.5941763545648
 30
0.0
 10
930.5576467932273
 20
829.6160207168263
 30
0.0
 10
930.6820615013373
 20
829.6181091002323
 30
0.0
 10
930.7451583694464
 20
829.619168223019
 30
0.0
  0
SPLINE
  5
98
330
1F
100
AcDbEntity
  8
0
  6
Continuous
 62
     7
370
    25
100
AcDbSpline
210
0.0
220
0.0
230
1.0
 70
     8
 71
     3
 72
    31
 73
    27
 74
     0
 42
0.00000001
 43
0.00000001
 40
0.0
 40
0.0
 40
0.0
 40
0.0
 40
0.033787146346991
 40
0.0666216577242937
 40
0.0992848780959723
 40
0.1313611650426503
 40
0.1635851875953433
 40
0.1961039269870677
 40
0.2289022543238165
 40
0.2621580559050075
 40
0.2959912222583164
 40
0.3302178457248002
 40
0.3650598258919545
 40
0.4009507373401076
 40
0.437620382076738
 40
0.4757075294370926
 40
0.5153806916250484
 40
0.5564135414931648
 40
0.5997648298727308
 40
0.6464241555840874
 40
0.6964314445175674
 40
0.7497815178015572
 40
0.806573306975533
 40
0.8674355315654003
 40
0.9318867532508747
 40
1.0
 40
1.0
 40
1.0
 40
1.0
 10
930.7451583694464
 20
821.2089118127626
 30
0.0
 10
930.6820632517657
 20
821.209977768097
 30
0.0
 10
930.5576519951588
 20
821.212079623954
 30
0.0
 10
930.3733035941543
 20
821.233825295927
 30
0.0
 10
930.1943722948631
 20
821.2687864461266
 30
0.0
 10
930.0199751427771
 20
821.3177386840491
 30
0.0
 10
929.8492173940145
 20
821.3776583099129
 30
0.0
 10
929.6844258816583
 20
821.4557238724341
 30
0.0
 10
929.5237683189368
 20
821.545630315762
 30
0.0
 10
929.3676733337526
 20
821.6480198504781
 30
0.0
 10
929.2190741085187
 20
821.7653265547715
 30
0.0
 10
929.0771344392299
 20
821.8950735003407
 30
0.0
 10
928.9454201098655
 20
822.040498440449
 30
0.0
 10
928.8228278913116
 20
822.199305121838
 30
0.0
 10
928.7063156897212
 20
822.3700325328844
 30
0.0
 10
928.5991399792772
 20
822.5550116712739
 30
0.0
 10
928.5000065985503
 20
822.7535090666787
 30
0.0
 10
928.4093929055937
 20
822.9668071482218
 30
0.0
 10
928.3290531032738
 20
823.1980184119013
 30
0.0
 10
928.2580869133004
 20
823.4497879627642
 30
0.0
 10
928.2020545533687
 20
823.7243379881677
 30
0.0
 10
928.1540935126079
 20
824.0194633986943
 30
0.0
 10
928.1154092085085
 20
824.3364323824334
 30
0.0
 10
928.0889993220665
 20
824.6754170182891
 30
0.0
 10
928.0726763162704
 20
825.0362060672632
 30
0.0
 10
928.0712247267387
 20
825.2836798371297
 30
0.0
 10
928.0704788822669
 20
825.4108348896856
 30
0.0
  0
SPLINE
  5
99
330
1F
100
AcDbEntity
  8
0
  6
Continuous
 62
     7
370
    25
100
AcDbSpline
210
0.0
220
0.0
230
1.0
 70
     8
 71
     3
 72
    31
 73
    27
 74
     0
 42
0.00000001
 43
0.00000001
 40
0.0
 40
0.0
 40
0.0
 40
0.0
 40
0.0650632896172782
 40
0.1267731664665232
 40
0.1855157632260794
 40
0.2407646791677144
 40
0.2929797960235976
 40
0.3422503727797679
 40
0.3889192861856606
 40
0.4327756640583105
 40
0.4746284326311174
 40
0.5147746906379533
 40
0.5536058934984429
 40
0.591426406431173
 40
0.6280281199460673
 40
0.6638036341103205
 40
0.6989843361316641
 40
0.7335914893067057
 40
0.7676284691511398
 40
0.801208347786592
 40
0.8342638397266234
 40
0.8669806947287765
 40
0.8997197415181604
 40
0.932701912498538
 40
0.9661758834327493
 40
0.9999999999999999
 40
0.9999999999999999
 40
0.9999999999999999
 40
0.9999999999999999
 10
933.5063763181643
 20
825.4108348896856
 30
0.0
 10
933.5048869820639
 20
825.2884945286778
 30
0.0
 10
933.5019850714091
 20
825.050119324429
 30
0.0
 10
933.4869480273685
 20
824.7014770951267
 30
0.0
 10
933.45732829896
 20
824.3723387104443
 30
0.0
 10
933.4202768971114
 20
824.061914796253
 30
0.0
 10
933.368960410315
 20
823.7714973817775
 30
0.0
 10
933.3058628874549
 20
823.5000814995652
 30
0.0
 10
933.2358050067195
 20
823.2464950500444
 30
0.0
 10
933.1493254773256
 20
823.01281548065
 30
0.0
 10
933.0546724251033
 20
822.7957829712449
 30
0.0
 10
932.9516891195597
 20
822.593115203634
 30
0.0
 10
932.8413580885067
 20
822.4030208203664
 30
0.0
 10
932.7211552427855
 20
822.2270213988095
 30
0.0
 10
932.5930331554794
 20
822.063870182643
 30
0.0
 10
932.4542496382383
 20
821.9164470451536
 30
0.0
 10
932.3087168722908
 20
821.7811997949523
 30
0.0
 10
932.1546313503846
 20
821.6608532178958
 30
0.0
 10
931.993690661854
 20
821.5555165215841
 30
0.0
 10
931.82921277174
 20
821.4613134349834
 30
0.0
 10
931.6582793240891
 20
821.3853529891552
 30
0.0
 10
931.4847640035645
 20
821.3201300383489
 30
0.0
 10
931.3061848810161
 20
821.2703004340377
 30
0.0
 10
931.12276455944
 20
821.2358459071335
 30
0.0
 10
930.9354360201746
 20
821.211681682094
 30
0.0
 10
930.8088038714174
 20
821.2098382995218
 30
0.0
 10
930.7451583694464
 20
821.2089118127626
 30
0.0
  0
LINE
  5
9A
330
1F
100
AcDbEntity
  8
0
  6
Continuous
 62
     7
370
    25
100
AcDbLine
 10
951.8653506771
 20
824.9012195051
 30
0.0
 11
951.8653506771
 21
824.0807066846
 31
0.0
  0
LINE
  5
9B
330
1F
100
AcDbEntity
  8
0
  6
Continuous
 62
     7
370
    25
100
AcDbLine
 10
948.7884276002
 20
824.9012195051
 30
0.0
 11
951.8653506771
 21
824.9012195051
 31
0.0
  0
LINE
  5
9C
330
1F
100
AcDbEntity
  8
0
  6
Continuous
 62
     7
370
    25
100
AcDbLine
 10
948.7884276002
 20
824.0807066846
 30
0.0
 11
948.7884276002
 21
824.9012195051
 31
0.0
  0
LINE
  5
9D
330
1F
100
AcDbEntity
  8
0
  6
Continuous
 62
     7
370
    25
100
AcDbLine
 10
951.8653506771
 20
824.0807066846
 30
0.0
 11
948.7884276002
 21
824.0807066846
 31
0.0
  0
SPLINE
  5
9E
330
1F
100
AcDbEntity
  8
0
  6
Continuous
 62
     7
370
    25
100
AcDbSpline
210
0.0
220
0.0
230
1.0
 70
     8
 71
     3
 72
    11
 73
     7
 74
     0
 42
0.00000001
 43
0.00000001
 40
0.0
 40
0.0
 40
0.0
 40
0.0
 40
0.2629516255674852
 40
0.5157066923583608
 40
0.7621092269531
 40
1.0
 40
1.0
 40
1.0
 40
1.0
 10
954.1313763181643
 20
822.14480924866
 30
0.0
 10
954.1754547445851
 20
822.1275304890262
 30
0.0
 10
954.261902354273
 20
822.093642993714
 30
0.0
 10
954.3940739649416
 20
822.0558237975744
 30
0.0
 10
954.5254911922817
 20
822.0351554320425
 30
0.0
 10
954.6126173496914
 20
822.0313123848686
 30
0.0
 10
954.6554147797027
 20
822.0294246332753
 30
0.0
  0
SPLINE
  5
9F
330
1F
100
AcDbEntity
  8
0
  6
Continuous
 62
     7
370
    25
100
AcDbSpline
210
0.0
220
0.0
230
1.0
 70
     8
 71
     3
 72
    11
 73
     7
 74
     0
 42
0.00000001
 43
0.00000001
 40
0.0
 40
0.0
 40
0.0
 40
0.0
 40
0.2991842876765359
 40
0.5648989463568093
 40
0.7985478688426224
 40
1.0
 40
1.0
 40
1.0
 40
1.0
 10
953.1089404207283
 20
822.747373351224
 30
0.0
 10
953.2065465442084
 20
822.6800650170738
 30
0.0
 10
953.3908396323918
 20
822.5529781057329
 30
0.0
 10
953.6617069258457
 20
822.3894887332962
 30
0.0
 10
953.9017004184308
 20
822.2493169263079
 30
0.0
 10
954.0586900123196
 20
822.177883145527
 30
0.0
 10
954.1313763181643
 20
822.14480924866
 30
0.0
  0
LINE
  5
A0
330
1F
100
AcDbEntity
  8
0
  6
Continuous
 62
     7
370
    25
100
AcDbLine
 10
952.6858634977
 20
822.1319887358
 30
0.0
 11
953.1089404207
 21
822.7473733512
 31
0.0
  0
SPLINE
  5
A1
330
1F
100
AcDbEntity
  8
0
  6
Continuous
 62
     7
370
    25
100
AcDbSpline
210
0.0
220
0.0
230
1.0
 70
     8
 71
     3
 72
    15
 73
    11
 74
     0
 42
0.00000001
 43
0.00000001
 40
0.0
 40
0.0
 40
0.0
 40
0.0
 40
0.1060709021051295
 40
0.213421680412451
 40
0.321685488130326
 40
0.4338579390981569
 40
0.5540812827743558
 40
0.6875870439665619
 40
0.8364658500651129
 40
1.0
 40
1.0
 40
1.0
 40
1.0
 10
954.6153506771386
 20
821.2089118127626
 30
0.0
 10
954.5377315725364
 20
821.2113817764862
 30
0.0
 10
954.381556793143
 20
821.2163515070908
 30
0.0
 10
954.1491208874007
 20
821.2568582797759
 30
0.0
 10
953.9173449425849
 20
821.3192949502819
 30
0.0
 10
953.6849987738073
 20
821.4107294540504
 30
0.0
 10
953.4474919364404
 20
821.5350851077294
 30
0.0
 10
953.2016077154265
 20
821.6977932599101
 30
0.0
 10
952.9441832789491
 20
821.8985510345325
 30
0.0
 10
952.7746214821336
 20
822.0517801673509
 30
0.0
 10
952.6858634976516
 20
822.1319887358395
 30
0.0
  0
SPLINE
  5
A2
330
1F
100
AcDbEntity
  8
0
  6
Continuous
 62
     7
370
    25
100
AcDbSpline
210
0.0
220
0.0
230
1.0
 70
     8
 71
     3
 72
    23
 73
    19
 74
     0
 42
0.00000001
 43
0.00000001
 40
0.0
 40
0.0
 40
0.0
 40
0.0
 40
0.0773606839426997
 40
0.148541953025043
 40
0.2140077372521333
 40
0.2729945033606886
 40
0.326409195767469
 40
0.3738804007298087
 40
0.4160199382657589
 40
0.4521255195126335
 40
0.5180017107054568
 40
0.5823669297335152
 40
0.6470437823418074
 40
0.7133304210644739
 40
0.7809119703509695
 40
0.8503949591306453
 40
0.9229229735922772
 40
1.0
 40
1.0
 40
1.0
 40
1.0
 10
956.4807352925233
 20
824.0117964281471
 30
0.0
 10
956.480017764222
 20
823.9118988946711
 30
0.0
 10
956.4786400223278
 20
823.720083440507
 30
0.0
 10
956.4710642268182
 20
823.4438002498975
 30
0.0
 10
956.4570448487461
 20
823.1915243957181
 30
0.0
 10
956.436621963056
 20
822.9626822311633
 30
0.0
 10
956.409375716602
 20
822.7579906762198
 30
0.0
 10
956.3781962237563
 20
822.5758681212145
 30
0.0
 10
956.3404526836972
 20
822.417834561608
 30
0.0
 10
956.2836150463689
 20
822.2403823199213
 30
0.0
 10
956.1904174496922
 20
822.0457679091022
 30
0.0
 10
956.0501499339322
 20
821.8355847077174
 30
0.0
 10
955.8759035420816
 20
821.6517369119454
 30
0.0
 10
955.6740726091122
 20
821.4920735407095
 30
0.0
 10
955.4428931255012
 20
821.3648570123064
 30
0.0
 10
955.1871257675032
 20
821.2735308902269
 30
0.0
 10
954.9083449961935
 20
821.2178260750858
 30
0.0
 10
954.7149753679595
 20
821.2119428634352
 30
0.0
 10
954.6153506771386
 20
821.2089118127626
 30
0.0
  0
LINE
  5
A3
330
1F
100
AcDbEntity
  8
0
  6
Continuous
 62
     7
370
    25
100
AcDbLine
 10
956.4807352925
 20
829.4140400179
 30
0.0
 11
956.4807352925
 21
824.0117964281
 31
0.0
  0
LINE
  5
A4
330
1F
100
AcDbEntity
  8
0
  6
Continuous
 62
     7
370
    25
100
AcDbLine
 10
955.7627865746
 20
829.4140400179
 30
0.0
 11
956.4807352925
 21
829.4140400179
 31
0.0
  0
LINE
  5
A5
330
1F
100
AcDbEntity
  8
0
  6
Continuous
 62
     7
370
    25
100
AcDbLine
 10
955.7627865746
 20
824.0919246333
 30
0.0
 11
955.7627865746
 21
829.4140400179
 31
0.0
  0
SPLINE
  5
A6
330
1F
100
AcDbEntity
  8
0
  6
Continuous
 62
     7
370
    25
100
AcDbSpline
210
0.0
220
0.0
230
1.0
 70
     8
 71
     3
 72
    23
 73
    19
 74
     0
 42
0.00000001
 43
0.00000001
 40
0.0
 40
0.0
 40
0.0
 40
0.0
 40
0.06232636599144
 40
0.1231962451944475
 40
0.1840362202545508
 40
0.2469640854288918
 40
0.3106993957895711
 40
0.3732676370734423
 40
0.4365875799673891
 40
0.5021247910366466
 40
0.5390047220341619
 40
0.5832553755259838
 40
0.6344465152828106
 40
0.692676046102116
 40
0.7585704862865262
 40
0.8316586747921139
 40
0.9119171022748332
 40
1.0
 40
1.0
 40
1.0
 40
1.0
 10
954.6554147797027
 20
822.0294246332753
 30
0.0
 10
954.7106897246798
 20
822.0317623131244
 30
0.0
 10
954.8199479104597
 20
822.0363830442595
 30
0.0
 10
954.978722753907
 20
822.0771813877369
 30
0.0
 10
955.1306268252437
 20
822.1394543089111
 30
0.0
 10
955.2702146142287
 20
822.2306344089488
 30
0.0
 10
955.3988669275589
 20
822.3390490848336
 30
0.0
 10
955.5050219574728
 20
822.4701485332138
 30
0.0
 10
955.5935185162955
 20
822.6154422109428
 30
0.0
 10
955.6467749582396
 20
822.7529769625818
 30
0.0
 10
955.6807058656933
 20
822.8784092603489
 30
0.0
 10
955.7022410127953
 20
822.9936849994966
 30
0.0
 10
955.7210722365469
 20
823.1284540932131
 30
0.0
 10
955.7374872123216
 20
823.2828774082076
 30
0.0
 10
955.747097430743
 20
823.4572641102233
 30
0.0
 10
955.7578797686285
 20
823.6511021512049
 30
0.0
 10
955.7617775078049
 20
823.8648802362245
 30
0.0
 10
955.7624399555069
 20
824.0139338406125
 30
0.0
 10
955.7627865745745
 20
824.0919246332754
 30
0.0
  0
LINE
  5
A7
330
1F
100
AcDbEntity
  8
0
  6
Continuous
 62
     7
370
    25
100
AcDbLine
 10
959.2499660618
 20
829.4140400179
 30
0.0
 11
959.2499660618
 21
821.4140400179
 31
0.0
  0
LINE
  5
A8
330
1F
100
AcDbEntity
  8
0
  6
Continuous
 62
     7
370
    25
100
AcDbLine
 10
958.5320173438
 20
829.4140400179
 30
0.0
 11
959.2499660618
 21
829.4140400179
 31
0.0
  0
LINE
  5
A9
330
1F
100
AcDbEntity
  8
0
  6
Continuous
 62
     7
370
    25
100
AcDbLine
 10
958.5320173438
 20
821.4140400179
 30
0.0
 11
958.5320173438
 21
829.4140400179
 31
0.0
  0
LINE
  5
AA
330
1F
100
AcDbEntity
  8
0
  6
Continuous
 62
     7
370
    25
100
AcDbLine
 10
959.2499660618
 20
821.4140400179
 30
0.0
 11
958.5320173438
 21
821.4140400179
 31
0.0
  0
SPLINE
  5
AB
330
1F
100
AcDbEntity
  8
0
  6
Continuous
 62
     7
370
    25
100
AcDbSpline
210
0.0
220
0.0
230
1.0
 70
     8
 71
     3
 72
    19
 73
    15
 74
     0
 42
0.00000001
 43
0.00000001
 40
0.0
 40
0.0
 40
0.0
 40
0.0
 40
0.096972310381516
 40
0.1877734389628679
 40
0.2723961390136942
 40
0.3513209973752884
 40
0.4243347744514678
 40
0.4919087840005278
 40
0.5542332197968018
 40
0.6112676582441553
 40
0.7163478449915546
 40
0.8145400858216157
 40
0.9084954561491857
 40
0.9999999999999999
 40
0.9999999999999999
 40
0.9999999999999999
 40
0.9999999999999999
 10
963.3140686258565
 20
825.9557066845574
 30
0.0
 10
963.4008935705592
 20
825.8925264341581
 30
0.0
 10
963.5690180422815
 20
825.7701866358657
 30
0.0
 10
963.8082353677936
 20
825.5863793672315
 30
0.0
 10
964.0251355005818
 20
825.4066130390617
 30
0.0
 10
964.220479965885
 20
825.2320356514135
 30
0.0
 10
964.3961986137474
 20
825.0639714388337
 30
0.0
 10
964.5503419752898
 20
824.9003984552219
 30
0.0
 10
964.6844806732262
 20
824.7424885748054
 30
0.0
 10
964.8288903154207
 20
824.5400369732255
 30
0.0
 10
964.9764510457534
 20
824.2913944948842
 30
0.0
 10
965.1031744912988
 20
823.9867585210663
 30
0.0
 10
965.1830792854806
 20
823.6809383599305
 30
0.0
 10
965.1935284636108
 20
823.4753913051304
 30
0.0
 10
965.1986840104719
 20
823.3739759153267
 30
0.0
  0
SPLINE
  5
AC
330
1F
100
AcDbEntity
  8
0
  6
Continuous
 62
     7
370
    25
100
AcDbSpline
210
0.0
220
0.0
230
1.0
 70
     8
 71
     3
 72
    15
 73
    11
 74
     0
 42
0.00000001
 43
0.00000001
 40
0.0
 40
0.0
 40
0.0
 40
0.0
 40
0.0525942815291374
 40
0.1249519739750381
 40
0.2180938989285935
 40
0.3335024107325237
 40
0.4687891785044474
 40
0.6249375859645985
 40
0.8016830479282283
 40
1.0
 40
1.0
 40
1.0
 40
1.0
 10
962.2387481130361
 20
826.7521810435318
 30
0.0
 10
962.2562598213965
 20
826.7365535559528
 30
0.0
 10
962.2978636319953
 20
826.6994262226287
 30
0.0
 10
962.3739228908287
 20
826.6386438668717
 30
0.0
 10
962.4743635724972
 20
826.5636661016252
 30
0.0
 10
962.5965628894728
 20
826.47089509254
 30
0.0
 10
962.7427740019918
 20
826.3632803219863
 30
0.0
 10
962.9130129874651
 20
826.2421977798977
 30
0.0
 10
963.1053822053735
 20
826.103716730739
 30
0.0
 10
963.2418894417156
 20
826.0068994950591
 30
0.0
 10
963.3140686258565
 20
825.9557066845574
 30
0.0
  0
SPLINE
  5
AD
330
1F
100
AcDbEntity
  8
0
  6
Continuous
 62
     7
370
    25
100
AcDbSpline
210
0.0
220
0.0
230
1.0
 70
     8
 71
     3
 72
    15
 73
    11
 74
     0
 42
0.00000001
 43
0.00000001
 40
0.0
 40
0.0
 40
0.0
 40
0.0
 40
0.1072852142689548
 40
0.2147458609696411
 40
0.3229385595552872
 40
0.4341161625174656
 40
0.5534123109627955
 40
0.6860729848107301
 40
0.8342559920595846
 40
1.0
 40
1.0
 40
1.0
 40
1.0
 10
961.7115045232924
 20
827.7858348896856
 30
0.0
 10
961.7124030984579
 20
827.7429743673075
 30
0.0
 10
961.7142017181361
 20
827.657183237165
 30
0.0
 10
961.7392869699908
 20
827.5304371298416
 30
0.0
 10
961.7715140076086
 20
827.4040112111704
 30
0.0
 10
961.822582880188
 20
827.2784738789782
 30
0.0
 10
961.8930864313097
 20
827.1516296297158
 30
0.0
 10
961.9856696905242
 20
827.0212942295819
 30
0.0
 10
962.1022715466386
 20
826.8863188954742
 30
0.0
 10
962.1915904320132
 20
826.7985306125602
 30
0.0
 10
962.2387481130361
 20
826.7521810435318
 30
0.0
  0
SPLINE
  5
AE
330
1F
100
AcDbEntity
  8
0
  6
Continuous
 62
     7
370
    25
100
AcDbSpline
210
0.0
220
0.0
230
1.0
 70
     8
 71
     3
 72
    15
 73
    11
 74
     0
 42
0.00000001
 43
0.00000001
 40
0.0
 40
0.0
 40
0.0
 40
0.0
 40
0.1430730837303608
 40
0.2759029640930066
 40
0.4023708562739965
 40
0.528413645093593
 40
0.6503563791869514
 40
0.7658950861246923
 40
0.880774130844021
 40
0.9999999999999999
 40
0.9999999999999999
 40
0.9999999999999999
 40
0.9999999999999999
 10
962.8845814463695
 20
828.7986554025061
 30
0.0
 10
962.8019379665856
 20
828.7958858026161
 30
0.0
 10
962.6425678010669
 20
828.7905448901322
 30
0.0
 10
962.4163044042497
 20
828.7322134951797
 30
0.0
 10
962.2126611469622
 20
828.6403692430522
 30
0.0
 10
962.0376838554052
 20
828.5116492931193
 30
0.0
 10
961.8919993364498
 20
828.3591441669819
 30
0.0
 10
961.7866154307013
 20
828.1836496410963
 30
0.0
 10
961.7231864831538
 20
827.9898612922859
 30
0.0
 10
961.71544641538
 20
827.8546803635277
 30
0.0
 10
961.7115045232924
 20
827.7858348896856
 30
0.0
  0
SPLINE
  5
AF
330
1F
100
AcDbEntity
  8
0
  6
Continuous
 62
     7
370
    25
100
AcDbSpline
210
0.0
220
0.0
230
1.0
 70
     8
 71
     3
 72
    19
 73
    15
 74
     0
 42
0.00000001
 43
0.00000001
 40
0.0
 40
0.0
 40
0.0
 40
0.0
 40
0.0984694310255562
 40
0.1896291011376331
 40
0.2741840894379691
 40
0.3521831609671533
 40
0.4231988731834684
 40
0.4885509460005321
 40
0.5484733460279362
 40
0.6014401636178699
 40
0.7011980824257656
 40
0.7995918021381826
 40
0.8985450984822272
 40
1.0
 40
1.0
 40
1.0
 40
1.0
 10
964.4470814463693
 20
827.7730143768651
 30
0.0
 10
964.4078907435755
 20
827.8235028121168
 30
0.0
 10
964.332418613125
 20
827.9207317337721
 30
0.0
 10
964.2178369288724
 20
828.0568947408722
 30
0.0
 10
964.1098400193403
 20
828.1812752655165
 30
0.0
 10
964.0034391055478
 20
828.2893098438709
 30
0.0
 10
963.9042536621971
 20
828.3869147200719
 30
0.0
 10
963.8079861370612
 20
828.4704798785277
 30
0.0
 10
963.7160219056615
 20
828.5408240966536
 30
0.0
 10
963.6000975384705
 20
828.6158950908462
 30
0.0
 10
963.4544570394461
 20
828.690309956114
 30
0.0
 10
963.2716352423276
 20
828.7532792774346
 30
0.0
 10
963.0805808993905
 20
828.7911194189633
 30
0.0
 10
962.9504560274119
 20
828.7961225905468
 30
0.0
 10
962.8845814463695
 20
828.7986554025061
 30
0.0
  0
LINE
  5
B0
330
1F
100
AcDbEntity
  8
0
  6
Continuous
 62
     7
370
    25
100
AcDbLine
 10
965.0961199079
 20
828.2650015564
 30
0.0
 11
964.4470814464
 21
827.7730143769
 31
0.0
  0
SPLINE
  5
B1
330
1F
100
AcDbEntity
  8
0
  6
Continuous
 62
     7
370
    25
100
AcDbSpline
210
0.0
220
0.0
230
1.0
 70
     8
 71
     3
 72
    19
 73
    15
 74
     0
 42
0.00000001
 43
0.00000001
 40
0.0
 40
0.0
 40
0.0
 40
0.0
 40
0.1072327993600893
 40
0.2132518127818507
 40
0.3188304473075882
 40
0.4267935306342767
 40
0.4836459507827184
 40
0.5436038220211432
 40
0.6083076495640842
 40
0.6771267602600424
 40
0.7506856360204963
 40
0.8287134184432899
 40
0.9121903482234537
 40
1.0
 40
1.0
 40
1.0
 40
1.0
 10
962.9647096514976
 20
829.619168223019
 30
0.0
 10
963.0589818807503
 20
829.6159166765066
 30
0.0
 10
963.2464592561714
 20
829.6094503882789
 30
0.0
 10
963.522228891759
 20
829.5532274595481
 30
0.0
 10
963.7877391006746
 20
829.4601973526042
 30
0.0
 10
964.0013237059763
 20
829.3546232772269
 30
0.0
 10
964.1684843036033
 20
829.2491800413108
 30
0.0
 10
964.2959648354638
 20
829.1531347286734
 30
0.0
 10
964.4251475801187
 20
829.0425630518639
 30
0.0
 10
964.5570745625846
 20
828.9171704893934
 30
0.0
 10
964.6895103555884
 20
828.7758064869029
 30
0.0
 10
964.824421103575
 20
828.6194391979675
 30
0.0
 10
964.9621222894281
 20
828.4490242131346
 30
0.0
 10
965.0507071125684
 20
828.3273682114101
 30
0.0
 10
965.0961199079079
 20
828.2650015563523
 30
0.0
  0
SPLINE
  5
B2
330
1F
100
AcDbEntity
  8
0
  6
Continuous
 62
     7
370
    25
100
AcDbSpline
210
0.0
220
0.0
230
1.0
 70
     8
 71
     3
 72
    19
 73
    15
 74
     0
 42
0.00000001
 43
0.00000001
 40
0.0
 40
0.0
 40
0.0
 40
0.0
 40
0.0837853706537118
 40
0.1657798879221425
 40
0.2462800078932647
 40
0.3274609277363911
 40
0.4087969540320692
 40
0.4897152412309888
 40
0.571376032130053
 40
0.6555233211112766
 40
0.7410194827999745
 40
0.8265467605037613
 40
0.911988851654834
 40
1.0
 40
1.0
 40
1.0
 40
1.0
 10
960.9935558053437
 20
827.7521810435318
 30
0.0
 10
960.9965391401857
 20
827.8368205282511
 30
0.0
 10
961.0024420431852
 20
828.0042903882169
 30
0.0
 10
961.0523632255175
 20
828.2489322863702
 30
0.0
 10
961.1311584110135
 20
828.4825012400105
 30
0.0
 10
961.2415467261258
 20
828.7026848599526
 30
0.0
 10
961.3838492470817
 20
828.9037499591257
 30
0.0
 10
961.5485257599164
 20
829.0880093579417
 30
0.0
 10
961.7446662998877
 20
829.2429089744467
 30
0.0
 10
961.9598722959184
 20
829.3782508221934
 30
0.0
 10
962.1954297178216
 20
829.4841843655239
 30
0.0
 10
962.4422660684448
 20
829.5640951773192
 30
0.0
 10
962.7007736616453
 20
829.6093734806129
 30
0.0
 10
962.8758665407845
 20
829.6158712289846
 30
0.0
 10
962.9647096514976
 20
829.619168223019
 30
0.0
  0
SPLINE
  5
B3
330
1F
100
AcDbEntity
  8
0
  6
Continuous
 62
     7
370
    25
100
AcDbSpline
210
0.0
220
0.0
230
1.0
 70
     8
 71
     3
 72
    15
 73
    11
 74
     0
 42
0.00000001
 43
0.00000001
 40
0.0
 40
0.0
 40
0.0
 40
0.0
 40
0.1335067689985154
 40
0.2625589787303677
 40
0.3882644471488776
 40
0.5126673546814279
 40
0.6337222699657615
 40
0.7553938601370975
 40
0.877552945091281
 40
1.0
 40
1.0
 40
1.0
 40
1.0
 10
961.4406711899592
 20
826.534232325583
 30
0.0
 10
961.405305372288
 20
826.5813204098213
 30
0.0
 10
961.33575374551
 20
826.6739254470091
 30
0.0
 10
961.2439457330184
 20
826.8186679790496
 30
0.0
 10
961.1659133609078
 20
826.9668354428421
 30
0.0
 10
961.104742316025
 20
827.1188259904183
 30
0.0
 10
961.0532309586773
 20
827.2725058278596
 30
0.0
 10
961.0185842598938
 20
827.4298801037445
 30
0.0
 10
960.9968896383721
 20
827.5902426602347
 30
0.0
 10
960.9946679548679
 20
827.6981592330862
 30
0.0
 10
960.9935558053437
 20
827.7521810435318
 30
0.0
  0
SPLINE
  5
B4
330
1F
100
AcDbEntity
  8
0
  6
Continuous
 62
     7
370
    25
100
AcDbSpline
210
0.0
220
0.0
230
1.0
 70
     8
 71
     3
 72
    15
 73
    11
 74
     0
 42
0.00000001
 43
0.00000001
 40
0.0
 40
0.0
 40
0.0
 40
0.0
 40
0.1815353013762841
 40
0.3470816724816299
 40
0.4955678164315542
 40
0.6283573018772124
 40
0.7455196699921548
 40
0.845830750757651
 40
0.9307818073847574
 40
1.0
 40
1.0
 40
1.0
 40
1.0
 10
962.7515686258565
 20
825.446091299942
 30
0.0
 10
962.667399491733
 20
825.5060423573577
 30
0.0
 10
962.5064745166926
 20
825.6206642139172
 30
0.0
 10
962.2814263284723
 20
825.7907768630912
 30
0.0
 10
962.0801818415925
 20
825.9463057077584
 30
0.0
 10
961.9036355181106
 20
826.0887148782786
 30
0.0
 10
961.7518650110339
 20
826.2180236890897
 30
0.0
 10
961.6236743572873
 20
826.3329904071288
 30
0.0
 10
961.5223290839261
 20
826.4367242605423
 30
0.0
 10
961.4659734709923
 20
826.5040187559598
 30
0.0
 10
961.4406711899592
 20
826.534232325583
 30
0.0
  0
SPLINE
  5
B5
330
1F
100
AcDbEntity
  8
0
  6
Continuous
 62
     7
370
    25
100
AcDbSpline
210
0.0
220
0.0
230
1.0
 70
     8
 71
     3
 72
    15
 73
    11
 74
     0
 42
0.00000001
 43
0.00000001
 40
0.0
 40
0.0
 40
0.0
 40
0.0
 40
0.0902792146500176
 40
0.1895299184469602
 40
0.2991978724002875
 40
0.4189258867738195
 40
0.5483762854012477
 40
0.688136369538681
 40
0.8390835016589189
 40
1.0
 40
1.0
 40
1.0
 40
1.0
 10
964.1938763181644
 20
824.1704502743011
 30
0.0
 10
964.1580577714658
 20
824.2162715853943
 30
0.0
 10
964.0828612130888
 20
824.3124676964076
 30
0.0
 10
963.9535868985904
 20
824.4556568060657
 30
0.0
 10
963.8018929230353
 20
824.6033560493846
 30
0.0
 10
963.6329705118086
 20
824.7612053224117
 30
0.0
 10
963.4406663087443
 20
824.921863143413
 30
0.0
 10
963.2310034186801
 20
825.0929906358449
 30
0.0
 10
962.9986288839003
 20
825.2680799548086
 30
0.0
 10
962.8356586059164
 20
825.3855029617723
 30
0.0
 10
962.7515686258565
 20
825.446091299942
 30
0.0
  0
SPLINE
  5
B6
330
1F
100
AcDbEntity
  8
0
  6
Continuous
 62
     7
370
    25
100
AcDbSpline
210
0.0
220
0.0
230
1.0
 70
     8
 71
     3
 72
    11
 73
     7
 74
     0
 42
0.00000001
 43
0.00000001
 40
0.0
 40
0.0
 40
0.0
 40
0.0
 40
0.2347233736739058
 40
0.4771583189289882
 40
0.7285562842030583
 40
1.0
 40
1.0
 40
1.0
 40
1.0
 10
964.4807352925233
 20
823.3851938640446
 30
0.0
 10
964.4773654394962
 20
823.4518015205188
 30
0.0
 10
964.4705150207237
 20
823.5872051528609
 30
0.0
 10
964.4126144948438
 20
823.7869757881841
 30
0.0
 10
964.3215305020587
 20
823.9846730910969
 30
0.0
 10
964.2375016021617
 20
824.1069616981317
 30
0.0
 10
964.1938763181644
 20
824.1704502743011
 30
0.0
  0
SPLINE
  5
B7
330
1F
100
AcDbEntity
  8
0
  6
Continuous
 62
     7
370
    25
100
AcDbSpline
210
0.0
220
0.0
230
1.0
 70
     8
 71
     3
 72
    19
 73
    15
 74
     0
 42
0.00000001
 43
0.00000001
 40
0.0
 40
0.0
 40
0.0
 40
0.0
 40
0.0912636048966267
 40
0.1809303110850812
 40
0.2700882198317226
 40
0.3601561333877252
 40
0.4483425324981544
 40
0.5326658421383292
 40
0.6138337041070474
 40
0.6939815272835598
 40
0.7727159770890039
 40
0.8493351720622464
 40
0.9239673265752318
 40
1.0
 40
1.0
 40
1.0
 40
1.0
 10
962.9134276002156
 20
822.0294246332753
 30
0.0
 10
962.9835689956703
 20
822.0313781704461
 30
0.0
 10
963.1226244769213
 20
822.035251062476
 30
0.0
 10
963.327338175118
 20
822.0724643243033
 30
0.0
 10
963.5261537231547
 20
822.1296349046769
 30
0.0
 10
963.7149734665389
 20
822.2115113195534
 30
0.0
 10
963.8911920140395
 20
822.3105707154963
 30
0.0
 10
964.0457216033805
 20
822.4302191212273
 30
0.0
 10
964.1793127192192
 20
822.5641761628585
 30
0.0
 10
964.2885906953727
 20
822.7136222306115
 30
0.0
 10
964.3724307760317
 20
822.8743471417139
 30
0.0
 10
964.4368697895477
 20
823.0393207447728
 30
0.0
 10
964.4726299579052
 20
823.2111346151248
 30
0.0
 10
964.478016822949
 20
823.3268156730627
 30
0.0
 10
964.4807352925233
 20
823.3851938640446
 30
0.0
  0
SPLINE
  5
B8
330
1F
100
AcDbEntity
  8
0
  6
Continuous
 62
     7
370
    25
100
AcDbSpline
210
0.0
220
0.0
230
1.0
 70
     8
 71
     3
 72
    15
 73
    11
 74
     0
 42
0.00000001
 43
0.00000001
 40
0.0
 40
0.0
 40
0.0
 40
0.0
 40
0.1590042985173768
 40
0.3046460998968128
 40
0.4385469045795927
 40
0.5623222987759272
 40
0.67743254252573
 40
0.786897392938753
 40
0.8936108891042672
 40
1.0
 40
1.0
 40
1.0
 40
1.0
 10
961.1570173438054
 20
823.3627579666087
 30
0.0
 10
961.2199161718066
 20
823.2574679438725
 30
0.0
 10
961.3404278989568
 20
823.0557363235091
 30
0.0
 10
961.5414595770196
 20
822.7831465168148
 30
0.0
 10
961.7497633739704
 20
822.5514615870799
 30
0.0
 10
961.9668818506548
 20
822.3620293412746
 30
0.0
 10
962.1914897320773
 20
822.2128890287086
 30
0.0
 10
962.4250532834754
 20
822.1072839276377
 30
0.0
 10
962.6667854222445
 20
822.0414188410746
 30
0.0
 10
962.8312970141975
 20
822.0334186432354
 30
0.0
 10
962.9134276002156
 20
822.0294246332753
 30
0.0
  0
LINE
  5
B9
330
1F
100
AcDbEntity
  8
0
  6
Continuous
 62
     7
370
    25
100
AcDbLine
 10
960.4807352925
 20
822.9573092487
 30
0.0
 11
961.1570173438
 21
823.3627579666
 31
0.0
  0
SPLINE
  5
BA
330
1F
100
AcDbEntity
  8
0
  6
Continuous
 62
     7
370
    25
100
AcDbSpline
210
0.0
220
0.0
230
1.0
 70
     8
 71
     3
 72
    23
 73
    19
 74
     0
 42
0.00000001
 43
0.00000001
 40
0.0
 40
0.0
 40
0.0
 40
0.0
 40
0.0572082694335084
 40
0.1136960596574914
 40
0.1691779164171953
 40
0.2241592165805425
 40
0.278719878381043
 40
0.3337942174469896
 40
0.3892414593400035
 40
0.4458220733936226
 40
0.5037042811090208
 40
0.5642938918193634
 40
0.6279754158952235
 40
0.6950382596840512
 40
0.7653727258510127
 40
0.8396114430907354
 40
0.9175377500777894
 40
0.9999999999999999
 40
0.9999999999999999
 40
0.9999999999999999
 40
0.9999999999999999
 10
962.9134276002156
 20
821.2089118127626
 30
0.0
 10
962.8530039591162
 20
821.2100802278424
 30
0.0
 10
962.7329176504202
 20
821.2124023430179
 30
0.0
 10
962.5552959775672
 20
821.2329309839829
 30
0.0
 10
962.3812626308288
 20
821.2619757921913
 30
0.0
 10
962.2130014147507
 20
821.3080879521385
 30
0.0
 10
962.0483444738553
 20
821.3640353282348
 30
0.0
 10
961.888007937796
 20
821.432922945602
 30
0.0
 10
961.7319141004111
 20
821.5154765489103
 30
0.0
 10
961.579188196712
 20
821.609865176633
 30
0.0
 10
961.4302186548009
 20
821.7197114499212
 30
0.0
 10
961.2864027281064
 20
821.8476508703513
 30
0.0
 10
961.1430217326474
 20
821.99015488176
 30
0.0
 10
961.0043076839124
 20
822.1510933123011
 30
0.0
 10
960.867454782642
 20
822.3278660731188
 30
0.0
 10
960.73516127513
 20
822.5221270637416
 30
0.0
 10
960.6046887775778
 20
822.7328181580477
 30
0.0
 10
960.5228248511155
 20
822.8810812111216
 30
0.0
 10
960.4807352925233
 20
822.95730924866
 30
0.0
  0
SPLINE
  5
BB
330
1F
100
AcDbEntity
  8
0
  6
Continuous
 62
     7
370
    25
100
AcDbSpline
210
0.0
220
0.0
230
1.0
 70
     8
 71
     3
 72
    23
 73
    19
 74
     0
 42
0.00000001
 43
0.00000001
 40
0.0
 40
0.0
 40
0.0
 40
0.0
 40
0.0614842551968908
 40
0.12177452770221
 40
0.180919559813933
 40
0.2402561150782716
 40
0.3001144444023519
 40
0.3611459476126121
 40
0.4235005824125855
 40
0.4886693612807192
 40
0.5539541046535623
 40
0.6175812610152617
 40
0.6802384268167397
 40
0.7421873887724543
 40
0.8046632117692931
 40
0.8682589893126634
 40
0.933020257180375
 40
1.0
 40
1.0
 40
1.0
 40
1.0
 10
965.1986840104719
 20
823.3739759153267
 30
0.0
 10
965.1971819804743
 20
823.3022539379652
 30
0.0
 10
965.1942070888869
 20
823.1602027755811
 30
0.0
 10
965.1600107145356
 20
822.9516197427077
 30
0.0
 10
965.1099086227355
 20
822.7490348977158
 30
0.0
 10
965.0343949451342
 20
822.5549523549844
 30
0.0
 10
964.9422277262545
 20
822.3658214688508
 30
0.0
 10
964.8252763025606
 20
822.1866034107686
 30
0.0
 10
964.6897158803032
 20
822.0133316425698
 30
0.0
 10
964.5342101319503
 20
821.8506265194724
 30
0.0
 10
964.3640480695125
 20
821.7012637857914
 30
0.0
 10
964.184199624569
 20
821.5683973595686
 30
0.0
 10
963.9943704292909
 20
821.4576126203795
 30
0.0
 10
963.7955902768721
 20
821.3672106956939
 30
0.0
 10
963.587813507256
 20
821.2965055127767
 30
0.0
 10
963.3711100013486
 20
821.2452760976205
 30
0.0
 10
963.1451225471325
 20
821.2138344726752
 30
0.0
 10
962.9915214463954
 20
821.2105710178989
 30
0.0
 10
962.9134276002156
 20
821.2089118127626
 30
0.0
  0
SPLINE
  5
BC
330
1F
100
AcDbEntity
  8
0
  6
Continuous
 62
     7
370
    25
100
AcDbSpline
210
0.0
220
0.0
230
1.0
 70
     8
 71
     3
 72
    19
 73
    15
 74
     0
 42
0.00000001
 43
0.00000001
 40
0.0
 40
0.0
 40
0.0
 40
0.0
 40
0.1101655532114449
 40
0.2157872561749736
 40
0.3180274349094169
 40
0.4175739541655085
 40
0.5116504876474471
 40
0.5961620971027629
 40
0.672934533484997
 40
0.7436695573498577
 40
0.8106770010653622
 40
0.8740589623137366
 40
0.9366963019193723
 40
1.0
 40
1.0
 40
1.0
 40
1.0
 10
968.3781711899592
 20
826.2345528384036
 30
0.0
 10
968.4771452830341
 20
826.2362323897664
 30
0.0
 10
968.671011218024
 20
826.2395222182984
 30
0.0
 10
968.9541982003324
 20
826.279311956344
 30
0.0
 10
969.2249943423558
 20
826.3343533919001
 30
0.0
 10
969.4773983240722
 20
826.4186624028038
 30
0.0
 10
969.7074525260166
 20
826.5165830813393
 30
0.0
 10
969.9070401879181
 20
826.6305309888038
 30
0.0
 10
970.0733650959729
 20
826.7571932727963
 30
0.0
 10
970.2056189736672
 20
826.8985249512931
 30
0.0
 10
970.305114353433
 20
827.0501022026835
 30
0.0
 10
970.3778613189783
 20
827.2080831345407
 30
0.0
 10
970.4208334932528
 20
827.373852416681
 30
0.0
 10
970.4265698747794
 20
827.4869830862376
 30
0.0
 10
970.4294532412412
 20
827.5438477101984
 30
0.0
  0
LINE
  5
BD
330
1F
100
AcDbEntity
  8
0
  6
Continuous
 62
     7
370
    25
100
AcDbLine
 10
968.37817119
 20
825.4140400179
 30
0.0
 11
968.37817119
 21
826.2345528384
 31
0.0
  0
SPLINE
  5
BE
330
1F
100
AcDbEntity
  8
0
  6
Continuous
 62
     7
370
    25
100
AcDbSpline
210
0.0
220
0.0
230
1.0
 70
     8
 71
     3
 72
    23
 73
    19
 74
     0
 42
0.00000001
 43
0.00000001
 40
0.0
 40
0.0
 40
0.0
 40
0.0
 40
0.0669091856056563
 40
0.1334854404229643
 40
0.2010351165700822
 40
0.2712343400187635
 40
0.3428799841615844
 40
0.4138361296100206
 40
0.485976621974419
 40
0.5602295572555487
 40
0.59988418075239
 40
0.6440548396425954
 40
0.6918919315842551
 40
0.7446875244737721
 40
0.8014917751698762
 40
0.8628576982200913
 40
0.9293283793947434
 40
1.0
 40
1.0
 40
1.0
 40
1.0
 10
970.8397096514976
 20
823.721732325583
 30
0.0
 10
970.8362118194386
 20
823.7962725287146
 30
0.0
 10
970.8292335600459
 20
823.9449820333089
 30
0.0
 10
970.7759568070369
 20
824.1637650602175
 30
0.0
 10
970.6883251174197
 20
824.3745614315069
 30
0.0
 10
970.5656450915727
 20
824.573774665925
 30
0.0
 10
970.4163062832405
 20
824.7584052980038
 30
0.0
 10
970.2417579247057
 20
824.9231401150964
 30
0.0
 10
970.0405505455666
 20
825.0590717518305
 30
0.0
 10
969.8553622734908
 20
825.1529886807417
 30
0.0
 10
969.6913276300346
 20
825.2170734240188
 30
0.0
 10
969.5509496084629
 20
825.2597590570457
 30
0.0
 10
969.393791657895
 20
825.295904555734
 30
0.0
 10
969.2217542890331
 20
825.3295326049333
 30
0.0
 10
969.0335412228777
 20
825.3581528292804
 30
0.0
 10
968.829357364642
 20
825.3820198366939
 30
0.0
 10
968.6091613381165
 20
825.4011170731386
 30
0.0
 10
968.4567243875831
 20
825.4096452909247
 30
0.0
 10
968.3781711899592
 20
825.4140400178908
 30
0.0
  0
SPLINE
  5
BF
330
1F
100
AcDbEntity
  8
0
  6
Continuous
 62
     7
370
    25
100
AcDbSpline
210
0.0
220
0.0
230
1.0
 70
     8
 71
     3
 72
    23
 73
    19
 74
     0
 42
0.00000001
 43
0.00000001
 40
0.0
 40
0.0
 40
0.0
 40
0.0
 40
0.0760717369555652
 40
0.1487517145745117
 40
0.2184027938458458
 40
0.285759581062386
 40
0.3505980236748785
 40
0.4149640445981271
 40
0.4780693385717822
 40
0.541760676006908
 40
0.604349858538716
 40
0.6640750210708959
 40
0.7214636230801978
 40
0.7775871282364439
 40
0.8326444469271317
 40
0.8878435110684582
 40
0.9434603426519462
 40
1.0
 40
1.0
 40
1.0
 40
1.0
 10
968.8028506771386
 20
822.0294246332753
 30
0.0
 10
968.8777158260491
 20
822.0308324166974
 30
0.0
 10
969.0241081618626
 20
822.0335852156495
 30
0.0
 10
969.2377192689042
 20
822.058901117012
 30
0.0
 10
969.4409362919118
 20
822.0957706334565
 30
0.0
 10
969.6315029793834
 20
822.1527145941835
 30
0.0
 10
969.8119155676144
 20
822.2230708260851
 30
0.0
 10
969.9796450524669
 20
822.3114100385116
 30
0.0
 10
970.1368932951948
 20
822.4150551165395
 30
0.0
 10
970.2816462218838
 20
822.5328589077193
 30
0.0
 10
970.4118073819131
 20
822.6618223250472
 30
0.0
 10
970.5264119836079
 20
822.7967093447281
 30
0.0
 10
970.623839781275
 20
822.9369512407504
 30
0.0
 10
970.7024308171355
 20
823.0833240885598
 30
0.0
 10
970.7644892178225
 20
823.2352217545715
 30
0.0
 10
970.8067365334085
 20
823.3930705073817
 30
0.0
 10
970.8361114251227
 20
823.5555785444195
 30
0.0
 10
970.8385036815286
 20
823.6660447591433
 30
0.0
 10
970.8397096514976
 20
823.721732325583
 30
0.0
  0
SPLINE
  5
C0
330
1F
100
AcDbEntity
  8
0
  6
Continuous
 62
     7
370
    25
100
AcDbSpline
210
0.0
220
0.0
230
1.0
 70
     8
 71
     3
 72
    15
 73
    11
 74
     0
 42
0.00000001
 43
0.00000001
 40
0.0
 40
0.0
 40
0.0
 40
0.0
 40
0.1182713048357229
 40
0.2361775330837641
 40
0.3556629329485077
 40
0.4759041646706818
 40
0.6001273417110852
 40
0.7286081161551198
 40
0.8613134756739442
 40
0.9999999999999999
 40
0.9999999999999999
 40
0.9999999999999999
 40
0.9999999999999999
 10
967.4663122156002
 20
822.4621169409677
 30
0.0
 10
967.5111043905148
 20
822.4275836063722
 30
0.0
 10
967.6005504770992
 20
822.358623533722
 30
0.0
 10
967.7463064338957
 20
822.27061981135
 30
0.0
 10
967.8995976020916
 20
822.1943660391562
 30
0.0
 10
968.0637454288823
 20
822.1361175918047
 30
0.0
 10
968.2352077613486
 20
822.0867972242866
 30
0.0
 10
968.4167560247357
 20
822.0545217519838
 30
0.0
 10
968.6067885209911
 20
822.0323773603421
 30
0.0
 10
968.7365434089525
 20
822.0304232312167
 30
0.0
 10
968.8028506771386
 20
822.0294246332753
 30
0.0
  0
SPLINE
  5
C1
330
1F
100
AcDbEntity
  8
0
  6
Continuous
 62
     7
370
    25
100
AcDbSpline
210
0.0
220
0.0
230
1.0
 70
     8
 71
     3
 72
    15
 73
    11
 74
     0
 42
0.00000001
 43
0.00000001
 40
0.0
 40
0.0
 40
0.0
 40
0.0
 40
0.1497703860319642
 40
0.2913164099952427
 40
0.4259663731047382
 40
0.5521595739695249
 40
0.6715274135235915
 40
0.7861216286916579
 40
0.895325073070442
 40
0.9999999999999999
 40
0.9999999999999999
 40
0.9999999999999999
 40
0.9999999999999999
 10
966.8397096514975
 20
823.567886171737
 30
0.0
 10
966.8584143176469
 20
823.506288427123
 30
0.0
 10
966.8947965180076
 20
823.3864754634244
 30
0.0
 10
966.9567263420879
 20
823.2140404790246
 30
0.0
 10
967.0272823925347
 20
823.0559649287965
 30
0.0
 10
967.1029728122743
 20
822.9110892214184
 30
0.0
 10
967.1824664031834
 20
822.7779865872145
 30
0.0
 10
967.2714148034952
 20
822.660176600851
 30
0.0
 10
967.3632299924033
 20
822.5524847100855
 30
0.0
 10
967.4324399429207
 20
822.491811311365
 30
0.0
 10
967.4663122156002
 20
822.4621169409677
 30
0.0
  0
LINE
  5
C2
330
1F
100
AcDbEntity
  8
0
  6
Continuous
 62
     7
370
    25
100
AcDbLine
 10
966.1217609335
 20
823.5678861717
 30
0.0
 11
966.8397096515
 21
823.5678861717
 31
0.0
  0
SPLINE
  5
C3
330
1F
100
AcDbEntity
  8
0
  6
Continuous
 62
     7
370
    25
100
AcDbSpline
210
0.0
220
0.0
230
1.0
 70
     8
 71
     3
 72
    23
 73
    19
 74
     0
 42
0.00000001
 43
0.00000001
 40
0.0
 40
0.0
 40
0.0
 40
0.0
 40
0.0655411703374043
 40
0.1289631677825931
 40
0.1903771361885604
 40
0.2500923616690525
 40
0.3085484324592009
 40
0.3663979630552963
 40
0.4245421892666797
 40
0.4831699964229069
 40
0.5422433998311205
 40
0.6017393520173313
 40
0.6625060022496072
 40
0.7248555134488476
 40
0.7891278292811819
 40
0.8563463998785099
 40
0.9262952349869052
 40
1.0
 40
1.0
 40
1.0
 40
1.0
 10
968.7900301643181
 20
821.2089118127626
 30
0.0
 10
968.7045003350996
 20
821.2108963002105
 30
0.0
 10
968.5362061520823
 20
821.2148011097585
 30
0.0
 10
968.2887924414849
 20
821.2414950553507
 30
0.0
 10
968.0526285572232
 20
821.2902493530371
 30
0.0
 10
967.8273951906936
 20
821.3558569081596
 30
0.0
 10
967.6128922503655
 20
821.4390380329149
 30
0.0
 10
967.4097742956735
 20
821.5426236283923
 30
0.0
 10
967.2167916819134
 20
821.6644784902251
 30
0.0
 10
967.0357655078686
 20
821.8060409766401
 30
0.0
 10
966.8667173531114
 20
821.9643983246555
 30
0.0
 10
966.7141396977283
 20
822.1423617760101
 30
0.0
 10
966.5754887424322
 20
822.3366415564012
 30
0.0
 10
966.4544769968059
 20
822.549494256284
 30
0.0
 10
966.3455925336839
 20
822.7781691300618
 30
0.0
 10
966.2560360613472
 20
823.0255942692198
 30
0.0
 10
966.1772119044642
 20
823.2895577480518
 30
0.0
 10
966.1405639861875
 20
823.4735068684538
 30
0.0
 10
966.1217609335489
 20
823.567886171737
 30
0.0
  0
SPLINE
  5
C4
330
1F
100
AcDbEntity
  8
0
  6
Continuous
 62
     7
370
    25
100
AcDbSpline
210
0.0
220
0.0
230
1.0
 70
     8
 71
     3
 72
    19
 73
    15
 74
     0
 42
0.00000001
 43
0.00000001
 40
0.0
 40
0.0
 40
0.0
 40
0.0
 40
0.079648251180228
 40
0.1589216764181117
 40
0.2396194947370305
 40
0.3226094298185606
 40
0.4060346366179245
 40
0.4876020954923881
 40
0.5696846265959316
 40
0.653036145008834
 40
0.7374357177222874
 40
0.8224778158555094
 40
0.9097476551184072
 40
1.0
 40
1.0
 40
1.0
 40
1.0
 10
971.5576583694462
 20
823.7906425819933
 30
0.0
 10
971.5535566242613
 20
823.6786203621368
 30
0.0
 10
971.5453724367696
 20
823.4551031007796
 30
0.0
 10
971.4722202669237
 20
823.1248751656177
 30
0.0
 10
971.3588185739087
 20
822.8020740175579
 30
0.0
 10
971.1977741488399
 20
822.4933315278535
 30
0.0
 10
971.001505557232
 20
822.204462085567
 30
0.0
 10
970.7680031019675
 20
821.9460019506233
 30
0.0
 10
970.4999198827439
 20
821.7238337121408
 30
0.0
 10
970.2009355425138
 20
821.5382103337298
 30
0.0
 10
969.8770106774068
 20
821.3898265115736
 30
0.0
 10
969.5305521814137
 20
821.2868380707814
 30
0.0
 10
969.166552058065
 20
821.2197615001044
 30
0.0
 10
968.9169353779452
 20
821.2125686569269
 30
0.0
 10
968.7900301643181
 20
821.2089118127626
 30
0.0
  0
SPLINE
  5
C5
330
1F
100
AcDbEntity
  8
0
  6
Continuous
 62
     7
370
    25
100
AcDbSpline
210
0.0
220
0.0
230
1.0
 70
     8
 71
     3
 72
    15
 73
    11
 74
     0
 42
0.00000001
 43
0.00000001
 40
0.0
 40
0.0
 40
0.0
 40
0.0
 40
0.1281355097972546
 40
0.2541727119019795
 40
0.3781116451390013
 40
0.5017122630072818
 40
0.6239863093684834
 40
0.7470956136177405
 40
0.8728746366500602
 40
1.0
 40
1.0
 40
1.0
 40
1.0
 10
971.0800942668823
 20
825.2121169409677
 30
0.0
 10
971.1185887636885
 20
825.1594135087194
 30
0.0
 10
971.1949473832625
 20
825.0548696994169
 30
0.0
 10
971.289200031838
 20
824.8867864402534
 30
0.0
 10
971.3747065788239
 20
824.7168401790373
 30
0.0
 10
971.4413356515706
 20
824.5404758224063
 30
0.0
 10
971.4929330614834
 20
824.359737505382
 30
0.0
 10
971.5298154208888
 20
824.1743148858201
 30
0.0
 10
971.552727742902
 20
823.98405654885
 30
0.0
 10
971.5560090046495
 20
823.8553423083463
 30
0.0
 10
971.5576583694462
 20
823.7906425819933
 30
0.0
  0
SPLINE
  5
C6
330
1F
100
AcDbEntity
  8
0
  6
Continuous
 62
     7
370
    25
100
AcDbSpline
210
0.0
220
0.0
230
1.0
 70
     8
 71
     3
 72
    11
 73
     7
 74
     0
 42
0.00000001
 43
0.00000001
 40
0.0
 40
0.0
 40
0.0
 40
0.0
 40
0.2538796003266584
 40
0.5030089172783632
 40
0.750291080689974
 40
1.0
 40
1.0
 40
1.0
 40
1.0
 10
970.2131070873951
 20
825.89480924866
 30
0.0
 10
970.2982082407055
 20
825.8537162851366
 30
0.0
 10
970.4668182390305
 20
825.7722992391704
 30
0.0
 10
970.6966480208201
 20
825.6126289362738
 30
0.0
 10
970.9052831644931
 20
825.4282715708936
 30
0.0
 10
971.0216345222161
 20
825.2844026499483
 30
0.0
 10
971.0800942668823
 20
825.2121169409677
 30
0.0
  0
SPLINE
  5
C7
330
1F
100
AcDbEntity
  8
0
  6
Continuous
 62
     7
370
    25
100
AcDbSpline
210
0.0
220
0.0
230
1.0
 70
     8
 71
     3
 72
    15
 73
    11
 74
     0
 42
0.00000001
 43
0.00000001
 40
0.0
 40
0.0
 40
0.0
 40
0.0
 40
0.1280675485958898
 40
0.2506083188676695
 40
0.3706301659145034
 40
0.4900722467299484
 40
0.6103747641546219
 40
0.7343130699115266
 40
0.8632165042449897
 40
1.0
 40
1.0
 40
1.0
 40
1.0
 10
971.1474019591899
 20
827.5406425819933
 30
0.0
 10
971.1447423225109
 20
827.4560556226662
 30
0.0
 10
971.139537826257
 20
827.2905320696078
 30
0.0
 10
971.0953464992573
 20
827.0488829332919
 30
0.0
 10
971.0209778983974
 20
826.8211307040755
 30
0.0
 10
970.9179612982194
 20
826.6063166192218
 30
0.0
 10
970.7846091833845
 20
826.4058026996261
 30
0.0
 10
970.6230715904924
 20
826.2191378062307
 30
0.0
 10
970.4322083635769
 20
826.0454940162232
 30
0.0
 10
970.2875707909521
 20
825.9460209351365
 30
0.0
 10
970.2131070873951
 20
825.89480924866
 30
0.0
  0
SPLINE
  5
C8
330
1F
100
AcDbEntity
  8
0
  6
Continuous
 62
     7
370
    25
100
AcDbSpline
210
0.0
220
0.0
230
1.0
 70
     8
 71
     3
 72
    19
 73
    15
 74
     0
 42
0.00000001
 43
0.00000001
 40
0.0
 40
0.0
 40
0.0
 40
0.0
 40
0.0902542493426766
 40
0.1785397915286857
 40
0.266093033853821
 40
0.3546309779571743
 40
0.4418861533505637
 40
0.525746915163649
 40
0.6081136336036365
 40
0.6901972728278823
 40
0.7708214843303359
 40
0.84832618125541
 40
0.9240117400247435
 40
1.0
 40
1.0
 40
1.0
 40
1.0
 10
968.8108634976514
 20
829.619168223019
 30
0.0
 10
968.915281193823
 20
829.6160156967449
 30
0.0
 10
969.1218389331224
 20
829.6097794099452
 30
0.0
 10
969.4252973261521
 20
829.5528321265643
 30
0.0
 10
969.7179300555284
 20
829.4627175383264
 30
0.0
 10
969.9965340505371
 20
829.3382061620132
 30
0.0
 10
970.2553190393286
 20
829.1846351604997
 30
0.0
 10
970.4855731804649
 20
829.0018586190259
 30
0.0
 10
970.6841754908739
 20
828.7934030727693
 30
0.0
 10
970.85079121124
 20
828.5631572114696
 30
0.0
 10
970.981248351934
 20
828.317087475728
 30
0.0
 10
971.0774457770306
 20
828.0638299736771
 30
0.0
 10
971.1360096193132
 20
827.8039854676454
 30
0.0
 10
971.1435994634509
 20
827.628540258102
 30
0.0
 10
971.1474019591899
 20
827.5406425819933
 30
0.0
  0
SPLINE
  5
C9
330
1F
100
AcDbEntity
  8
0
  6
Continuous
 62
     7
370
    25
100
AcDbSpline
210
0.0
220
0.0
230
1.0
 70
     8
 71
     3
 72
    23
 73
    19
 74
     0
 42
0.00000001
 43
0.00000001
 40
0.0
 40
0.0
 40
0.0
 40
0.0
 40
0.0726253460834356
 40
0.1419766113262352
 40
0.2089849284189382
 40
0.2739568703644447
 40
0.33688934739684
 40
0.39874495349459
 40
0.4601158852788622
 40
0.5208249225900295
 40
0.5809944586324854
 40
0.6401519276014657
 40
0.6986224507562557
 40
0.7572710809271648
 40
0.8164266940046615
 40
0.8762540482034716
 40
0.9371652930625373
 40
1.0
 40
1.0
 40
1.0
 40
1.0
 10
966.4294532412412
 20
827.567886171737
 30
0.0
 10
966.4489036427977
 20
827.6484175636807
 30
0.0
 10
966.4869275869283
 20
827.8058498480021
 30
0.0
 10
966.5662363262858
 20
828.0307807299389
 30
0.0
 10
966.6526346238734
 20
828.2436344931176
 30
0.0
 10
966.7563811485928
 20
828.4404255187071
 30
0.0
 10
966.8695440153955
 20
828.6251087249532
 30
0.0
 10
966.9991959503345
 20
828.793495295166
 30
0.0
 10
967.1393553161995
 20
828.9498677876625
 30
0.0
 10
967.2943837717464
 20
829.0886409020789
 30
0.0
 10
967.4569635697826
 20
829.2143042831228
 30
0.0
 10
967.6293855577842
 20
829.3214472713339
 30
0.0
 10
967.808180743317
 20
829.4136167635955
 30
0.0
 10
967.9945879043424
 20
829.4895487221678
 30
0.0
 10
968.189162011067
 20
829.546749919119
 30
0.0
 10
968.3901440072289
 20
829.5882511890408
 30
0.0
 10
968.5980605789196
 20
829.6152023072452
 30
0.0
 10
968.7391979288583
 20
829.6178326228711
 30
0.0
 10
968.8108634976514
 20
829.619168223019
 30
0.0
  0
LINE
  5
CA
330
1F
100
AcDbEntity
  8
0
  6
Continuous
 62
     7
370
    25
100
AcDbLine
 10
967.1474019592
 20
827.5678861717
 30
0.0
 11
966.4294532412
 21
827.5678861717
 31
0.0
  0
SPLINE
  5
CB
330
1F
100
AcDbEntity
  8
0
  6
Continuous
 62
     7
370
    25
100
AcDbSpline
210
0.0
220
0.0
230
1.0
 70
     8
 71
     3
 72
    19
 73
    15
 74
     0
 42
0.00000001
 43
0.00000001
 40
0.0
 40
0.0
 40
0.0
 40
0.0
 40
0.122711942365779
 40
0.2396849640167739
 40
0.351815855256094
 40
0.463766132862082
 40
0.5208177931608301
 40
0.5794482914480042
 40
0.6406041451203197
 40
0.7052975118059822
 40
0.7736338807131349
 40
0.8446693818863795
 40
0.9200565080211439
 40
1.0
 40
1.0
 40
1.0
 40
1.0
 10
968.8204788822669
 20
828.7986554025061
 30
0.0
 10
968.7293893554029
 20
828.795475146499
 30
0.0
 10
968.5514703236626
 20
828.7892633668472
 30
0.0
 10
968.2949790850219
 20
828.7348564789613
 30
0.0
 10
968.0565348930206
 20
828.6480494309765
 30
0.0
 10
967.8742750836735
 20
828.5444311008465
 30
0.0
 10
967.7396863427398
 20
828.4421443949013
 30
0.0
 10
967.6435104839894
 20
828.352813226053
 30
0.0
 10
967.549063603064
 20
828.2535382005409
 30
0.0
 10
967.4625591988374
 20
828.1382047713352
 30
0.0
 10
967.375075823581
 20
828.0146235366134
 30
0.0
 10
967.2954311115157
 20
827.8765122645182
 30
0.0
 10
967.2180375292268
 20
827.7274736489709
 30
0.0
 10
967.1714031300984
 20
827.6221121985665
 30
0.0
 10
967.1474019591899
 20
827.567886171737
 30
0.0
  0
SPLINE
  5
CC
330
1F
100
AcDbEntity
  8
0
  6
Continuous
 62
     7
370
    25
100
AcDbSpline
210
0.0
220
0.0
230
1.0
 70
     8
 71
     3
 72
    23
 73
    19
 74
     0
 42
0.00000001
 43
0.00000001
 40
0.0
 40
0.0
 40
0.0
 40
0.0
 40
0.0552745490875265
 40
0.1099660938819843
 40
0.1632474428518069
 40
0.2180761854823624
 40
0.2733008743735932
 40
0.3309093000114348
 40
0.3909945233652108
 40
0.4541759534308253
 40
0.5188615408488266
 40
0.5833105320111681
 40
0.648516681863826
 40
0.7150308870971822
 40
0.7825020728543317
 40
0.8523226850768567
 40
0.9249284897844289
 40
1.0
 40
1.0
 40
1.0
 40
1.0
 10
970.4294532412412
 20
827.5438477101984
 30
0.0
 10
970.4285060161859
 20
827.5856254133814
 30
0.0
 10
970.4266215568626
 20
827.6687401724565
 30
0.0
 10
970.4028563505004
 20
827.7901689008871
 30
0.0
 10
970.3671442568256
 20
827.9078853487184
 30
0.0
 10
970.3180477326955
 20
828.0213889150134
 30
0.0
 10
970.2523329927944
 20
828.129892398209
 30
0.0
 10
970.1736907378818
 20
828.2343208529295
 30
0.0
 10
970.0800493658143
 20
828.3340780620865
 30
0.0
 10
969.9727454869376
 20
828.42706164964
 30
0.0
 10
969.8575185041512
 20
828.5156770488754
 30
0.0
 10
969.7312333040417
 20
828.590908219114
 30
0.0
 10
969.5976975904143
 20
828.6552397895744
 30
0.0
 10
969.4567635221861
 20
828.7082900800976
 30
0.0
 10
969.307973738601
 20
828.7481970245929
 30
0.0
 10
969.1520273210954
 20
828.7768503763685
 30
0.0
 10
968.9886269016384
 20
828.794765015755
 30
0.0
 10
968.8771486570506
 20
828.7973442521171
 30
0.0
 10
968.8204788822669
 20
828.7986554025061
 30
0.0
  0
SPLINE
  5
CD
330
1F
100
AcDbEntity
  8
0
  6
Continuous
 62
     7
370
    25
100
AcDbSpline
210
0.0
220
0.0
230
1.0
 70
     8
 71
     3
 72
    31
 73
    27
 74
     0
 42
0.00000001
 43
0.00000001
 40
0.0
 40
0.0
 40
0.0
 40
0.0
 40
0.0337881161627113
 40
0.0671939323738809
 40
0.0998624108568255
 40
0.1325666121262585
 40
0.1651511732547863
 40
0.1979131873557929
 40
0.2313190035669623
 40
0.2650832782673732
 40
0.2992553087581152
 40
0.3343985665049788
 40
0.3699428235093076
 40
0.4062835607000614
 40
0.4440638196985081
 40
0.4829977068727758
 40
0.5233544466133043
 40
0.5655365896041485
 40
0.6096129240658194
 40
0.6563908113764167
 40
0.705885494936457
 40
0.7583245002617315
 40
0.81383178294115
 40
0.8727945590393902
 40
0.9347222295400733
 40
1.0
 40
1.0
 40
1.0
 40
1.0
 10
974.9502865745745
 20
829.619168223019
 30
0.0
 10
975.0139105253959
 20
829.6180532169031
 30
0.0
 10
975.1404385457289
 20
829.6158358205505
 30
0.0
 10
975.3275022605767
 20
829.5945239519
 30
0.0
 10
975.51024439021
 20
829.5591613848213
 30
0.0
 10
975.6878858501037
 20
829.5090563000609
 30
0.0
 10
975.861885819173
 20
829.4468947534108
 30
0.0
 10
976.030883322363
 20
829.3689813428755
 30
0.0
 10
976.195928080402
 20
829.2782867889454
 30
0.0
 10
976.3543973090189
 20
829.1717179265302
 30
0.0
 10
976.5080307155241
 20
829.0529012952234
 30
0.0
 10
976.6530546308891
 20
828.9185866236728
 30
0.0
 10
976.7894822557975
 20
828.7701301224873
 30
0.0
 10
976.919025810966
 20
828.6091201478894
 30
0.0
 10
977.0380100331357
 20
828.4324685254127
 30
0.0
 10
977.1513207353881
 20
828.2432477029803
 30
0.0
 10
977.2527425317347
 20
828.0381485834516
 30
0.0
 10
977.3504217892859
 20
827.8205932283863
 30
0.0
 10
977.4347349018327
 20
827.5845620082569
 30
0.0
 10
977.5107720338837
 20
827.331385412787
 30
0.0
 10
977.5722096763408
 20
827.0580729856936
 30
0.0
 10
977.6233851559707
 20
826.7660587107333
 30
0.0
 10
977.6630306324179
 20
826.454270177613
 30
0.0
 10
977.6919052428831
 20
826.1233757421575
 30
0.0
 10
977.7071580086919
 20
825.7731577064071
 30
0.0
 10
977.7100304685929
 20
825.5337111940022
 30
0.0
 10
977.7115045232924
 20
825.4108348896856
 30
0.0
  0
SPLINE
  5
CE
330
1F
100
AcDbEntity
  8
0
  6
Continuous
 62
     7
370
    25
100
AcDbSpline
210
0.0
220
0.0
230
1.0
 70
     8
 71
     3
 72
    31
 73
    27
 74
     0
 42
0.00000001
 43
0.00000001
 40
0.0
 40
0.0
 40
0.0
 40
0.0
 40
0.0685946222587427
 40
0.1332460424433014
 40
0.194312586468256
 40
0.2512792231169663
 40
0.3045134392563468
 40
0.3542349066533251
 40
0.4004805887739893
 40
0.4434107549384921
 40
0.4840148686163452
 40
0.5232523007732034
 40
0.5610423727283604
 40
0.5979002393643995
 40
0.6335184888561959
 40
0.6683143511696517
 40
0.7024956712863825
 40
0.7366853535134587
 40
0.7702931693607896
 40
0.8034372550192487
 40
0.8359129516660286
 40
0.8684602457892912
 40
0.9008465382431832
 40
0.9334665246307086
 40
0.9662575752981237
 40
1.0
 40
1.0
 40
1.0
 40
1.0
 10
972.275607087395
 20
825.4108348896856
 30
0.0
 10
972.2763568431836
 20
825.539057490221
 30
0.0
 10
972.2778132546094
 20
825.7881317399296
 30
0.0
 10
972.2940153596203
 20
826.1510680646537
 30
0.0
 10
972.3209304277647
 20
826.491548725214
 30
0.0
 10
972.3578158514224
 20
826.8095900190162
 30
0.0
 10
972.4027026633621
 20
827.1052740521995
 30
0.0
 10
972.4626237755937
 20
827.3778106399396
 30
0.0
 10
972.5307673244279
 20
827.628461169341
 30
0.0
 10
972.6097443434234
 20
827.858042994429
 30
0.0
 10
972.698859289751
 20
828.0696491727654
 30
0.0
 10
972.7958518856872
 20
828.2671924900083
 30
0.0
 10
972.9045714157982
 20
828.450374049642
 30
0.0
 10
973.0188043596315
 20
828.6221175706019
 30
0.0
 10
973.1431748090665
 20
828.7796117301272
 30
0.0
 10
973.2741434729917
 20
828.9250806730267
 30
0.0
 10
973.4168220473165
 20
829.0551623883725
 30
0.0
 10
973.5663603519415
 20
829.1736682223956
 30
0.0
 10
973.7241122705512
 20
829.2775527290744
 30
0.0
 10
973.8855812217356
 20
829.3690561316246
 30
0.0
 10
974.0518786065493
 20
829.4472272567849
 30
0.0
 10
974.2234584531731
 20
829.5086911101781
 30
0.0
 10
974.3987785854924
 20
829.559458759944
 30
0.0
 10
974.5784518807867
 20
829.5941763545648
 30
0.0
 10
974.7627749983556
 20
829.6160207168263
 30
0.0
 10
974.8871897064656
 20
829.6181091002323
 30
0.0
 10
974.9502865745745
 20
829.619168223019
 30
0.0
  0
SPLINE
  5
CF
330
1F
100
AcDbEntity
  8
0
  6
Continuous
 62
     7
370
    25
100
AcDbSpline
210
0.0
220
0.0
230
1.0
 70
     8
 71
     3
 72
    31
 73
    27
 74
     0
 42
0.00000001
 43
0.00000001
 40
0.0
 40
0.0
 40
0.0
 40
0.0
 40
0.0337871463469904
 40
0.0666216577242931
 40
0.0992848780959717
 40
0.1313611650426498
 40
0.1635851875953427
 40
0.1961039269870672
 40
0.2289022543238161
 40
0.2621580559050076
 40
0.295991222258316
 40
0.3302178457248002
 40
0.3650598258919541
 40
0.4009507373401072
 40
0.4376203820767379
 40
0.475707529437092
 40
0.5153806916250481
 40
0.5564135414931645
 40
0.5997648298727305
 40
0.6464241555840871
 40
0.6964314445175672
 40
0.7497815178015571
 40
0.8065733069755329
 40
0.8674355315654002
 40
0.9318867532508747
 40
1.0
 40
1.0
 40
1.0
 40
1.0
 10
974.9502865745745
 20
821.2089118127626
 30
0.0
 10
974.8871914568939
 20
821.209977768097
 30
0.0
 10
974.762780200287
 20
821.212079623954
 30
0.0
 10
974.5784317992826
 20
821.233825295927
 30
0.0
 10
974.3995004999914
 20
821.2687864461266
 30
0.0
 10
974.2251033479054
 20
821.3177386840491
 30
0.0
 10
974.0543455991426
 20
821.3776583099129
 30
0.0
 10
973.8895540867866
 20
821.4557238724341
 30
0.0
 10
973.728896524065
 20
821.545630315762
 30
0.0
 10
973.5728015388809
 20
821.6480198504781
 30
0.0
 10
973.4242023136469
 20
821.7653265547715
 30
0.0
 10
973.2822626443582
 20
821.8950735003407
 30
0.0
 10
973.1505483149936
 20
822.040498440449
 30
0.0
 10
973.0279560964398
 20
822.199305121838
 30
0.0
 10
972.9114438948495
 20
822.3700325328844
 30
0.0
 10
972.8042681844055
 20
822.5550116712739
 30
0.0
 10
972.7051348036784
 20
822.7535090666787
 30
0.0
 10
972.6145211107219
 20
822.9668071482218
 30
0.0
 10
972.534181308402
 20
823.1980184119013
 30
0.0
 10
972.4632151184285
 20
823.4497879627642
 30
0.0
 10
972.4071827584969
 20
823.7243379881677
 30
0.0
 10
972.359221717736
 20
824.0194633986943
 30
0.0
 10
972.3205374136367
 20
824.3364323824333
 30
0.0
 10
972.2941275271946
 20
824.6754170182891
 30
0.0
 10
972.2778045213987
 20
825.0362060672632
 30
0.0
 10
972.276352931867
 20
825.2836798371297
 30
0.0
 10
972.275607087395
 20
825.4108348896856
 30
0.0
  0
SPLINE
  5
D0
330
1F
100
AcDbEntity
  8
0
  6
Continuous
 62
     7
370
    25
100
AcDbSpline
210
0.0
220
0.0
230
1.0
 70
     8
 71
     3
 72
    31
 73
    27
 74
     0
 42
0.00000001
 43
0.00000001
 40
0.0
 40
0.0
 40
0.0
 40
0.0
 40
0.0650632896172782
 40
0.1267731664665231
 40
0.1855157632260794
 40
0.2407646791677144
 40
0.2929797960235975
 40
0.3422503727797677
 40
0.3889192861856605
 40
0.4327756640583105
 40
0.4746284326311174
 40
0.5147746906379534
 40
0.5536058934984427
 40
0.5914264064311727
 40
0.6280281199460671
 40
0.6638036341103202
 40
0.6989843361316643
 40
0.7335914893067053
 40
0.7676284691511394
 40
0.8012083477865916
 40
0.8342638397266231
 40
0.866980694728776
 40
0.8997197415181599
 40
0.9327019124985375
 40
0.9661758834327488
 40
1.0
 40
1.0
 40
1.0
 40
1.0
 10
977.7115045232924
 20
825.4108348896856
 30
0.0
 10
977.7100151871921
 20
825.2884945286778
 30
0.0
 10
977.7071132765373
 20
825.050119324429
 30
0.0
 10
977.6920762324968
 20
824.7014770951267
 30
0.0
 10
977.6624565040883
 20
824.3723387104443
 30
0.0
 10
977.6254051022396
 20
824.061914796253
 30
0.0
 10
977.5740886154432
 20
823.7714973817775
 30
0.0
 10
977.5109910925831
 20
823.5000814995652
 30
0.0
 10
977.4409332118477
 20
823.2464950500444
 30
0.0
 10
977.3544536824538
 20
823.01281548065
 30
0.0
 10
977.2598006302316
 20
822.7957829712449
 30
0.0
 10
977.1568173246878
 20
822.593115203634
 30
0.0
 10
977.0464862936349
 20
822.4030208203665
 30
0.0
 10
976.9262834479136
 20
822.2270213988095
 30
0.0
 10
976.7981613606077
 20
822.063870182643
 30
0.0
 10
976.6593778433664
 20
821.9164470451536
 30
0.0
 10
976.513845077419
 20
821.7811997949523
 30
0.0
 10
976.3597595555129
 20
821.6608532178958
 30
0.0
 10
976.1988188669823
 20
821.5555165215841
 30
0.0
 10
976.0343409768682
 20
821.4613134349834
 30
0.0
 10
975.8634075292173
 20
821.3853529891552
 30
0.0
 10
975.6898922086928
 20
821.3201300383489
 30
0.0
 10
975.5113130861442
 20
821.2703004340377
 30
0.0
 10
975.3278927645683
 20
821.2358459071335
 30
0.0
 10
975.1405642253028
 20
821.211681682094
 30
0.0
 10
975.0139320765456
 20
821.2098382995218
 30
0.0
 10
974.9502865745745
 20
821.2089118127626
 30
0.0
  0
CIRCLE
  5
D1
330
1F
100
AcDbEntity
  8
0
  6
Continuous
 62
     7
370
    25
100
AcDbCircle
 10
926.6128567397
 20
845.688177441
 30
0.0
 40
9.499999999999996
  0
CIRCLE
  5
D2
330
1F
100
AcDbEntity
  8
0
  6
Continuous
 62
     7
370
    25
100
AcDbCircle
 10
891.4351102302
 20
810.5104309315
 30
0.0
 40
9.500000000000114
  0
CIRCLE
  5
D3
330
1F
100
AcDbEntity
  8
0
  6
Continuous
 62
     7
370
    25
100
AcDbCircle
 10
891.4351102302
 20
760.7615847241
 30
0.0
 40
9.499999999999996
  0
CIRCLE
  5
D4
330
1F
100
AcDbEntity
  8
0
  6
Continuous
 62
     7
370
    25
100
AcDbCircle
 10
926.6128567397
 20
725.5838382146
 30
0.0
 40
9.499999999999886
  0
CIRCLE
  5
D5
330
1F
100
AcDbEntity
  8
0
  6
Continuous
 62
     7
370
    25
100
AcDbCircle
 10
976.3617029472
 20
725.5838382146
 30
0.0
 40
9.500000000000076
  0
CIRCLE
  5
D6
330
1F
100
AcDbEntity
  8
0
  6
Continuous
 62
     7
370
    25
100
AcDbCircle
 10
1011.5394494567
 20
760.7615847241
 30
0.0
 40
9.5
  0
CIRCLE
  5
D7
330
1F
100
AcDbEntity
  8
0
  6
Continuous
 62
     7
370
    25
100
AcDbCircle
 10
1011.5394494567
 20
810.5104309315
 30
0.0
 40
9.499999999999917
  0
CIRCLE
  5
D8
330
1F
100
AcDbEntity
  8
0
  6
Continuous
 62
     7
370
    25
100
AcDbCircle
 10
976.3617029472
 20
845.688177441
 30
0.0
 40
9.499999999999886
  0
CIRCLE
  5
D9
330
1F
100
AcDbEntity
  8
0
  6
Continuous
 62
     7
370
    25
100
AcDbCircle
 10
951.4872798434
 20
785.6360078278
 30
0.0
 40
82.5
  0
LINE
  5
DA
330
1F
100
AcDbEntity
  8
0
  6
Continuous
 62
     7
370
    25
100
AcDbLine
 10
979.8653506771
 20
825.274616941
 30
0.0
 11
979.8653506771
 21
821.4140400179
 31
0.0
  0
LINE
  5
DB
330
1F
100
AcDbEntity
  8
0
  6
Continuous
 62
     7
370
    25
100
AcDbLine
 10
983.5752865746
 20
821.4140400179
 30
0.0
 11
979.8653506771
 21
825.274616941
 31
0.0
  0
LINE
  5
DC
330
1F
100
AcDbEntity
  8
0
  6
Continuous
 62
     7
370
    25
100
AcDbLine
 10
984.5320173438
 20
821.4140400179
 30
0.0
 11
983.5752865746
 21
821.4140400179
 31
0.0
  0
LINE
  5
DD
330
1F
100
AcDbEntity
  8
0
  6
Continuous
 62
     7
370
    25
100
AcDbLine
 10
980.2932352925
 20
825.8242964281
 30
0.0
 11
984.5320173438
 21
821.4140400179
 31
0.0
  0
LINE
  5
DE
330
1F
100
AcDbEntity
  8
0
  6
Continuous
 62
     7
370
    25
100
AcDbLine
 10
984.2243250361
 20
829.4140400179
 30
0.0
 11
980.2932352925
 21
825.8242964281
 31
0.0
  0
LINE
  5
DF
330
1F
100
AcDbEntity
  8
0
  6
Continuous
 62
     7
370
    25
100
AcDbLine
 10
983.2002865746
 20
829.4140400179
 30
0.0
 11
984.2243250361
 21
829.4140400179
 31
0.0
  0
LINE
  5
E0
330
1F
100
AcDbEntity
  8
0
  6
Continuous
 62
     7
370
    25
100
AcDbLine
 10
979.8653506771
 20
826.3675656589
 30
0.0
 11
983.2002865746
 21
829.4140400179
 31
0.0
  0
LINE
  5
E1
330
1F
100
AcDbEntity
  8
0
  6
Continuous
 62
     7
370
    25
100
AcDbLine
 10
979.8653506771
 20
829.4140400179
 30
0.0
 11
979.8653506771
 21
826.3675656589
 31
0.0
  0
LINE
  5
E2
330
1F
100
AcDbEntity
  8
0
  6
Continuous
 62
     7
370
    25
100
AcDbLine
 10
979.1474019592
 20
829.4140400179
 30
0.0
 11
979.8653506771
 21
829.4140400179
 31
0.0
  0
LINE
  5
E3
330
1F
100
AcDbEntity
  8
0
  6
Continuous
 62
     7
370
    25
100
AcDbLine
 10
979.1474019592
 20
821.4140400179
 30
0.0
 11
979.1474019592
 21
829.4140400179
 31
0.0
  0
LINE
  5
E4
330
1F
100
AcDbEntity
  8
0
  6
Continuous
 62
     7
370
    25
100
AcDbLine
 10
979.8653506771
 20
821.4140400179
 30
0.0
 11
979.1474019592
 21
821.4140400179
 31
0.0
  0
SPLINE
  5
E5
330
1F
100
AcDbEntity
  8
0
  6
Continuous
 62
     7
370
    25
100
AcDbSpline
210
0.0
220
0.0
230
1.0
 70
     8
 71
     3
 72
    23
 73
    19
 74
     0
 42
0.00000001
 43
0.00000001
 40
0.0
 40
0.0
 40
0.0
 40
0.0
 40
0.0611602766365183
 40
0.1203345577262017
 40
0.1781802550631244
 40
0.2352351259863634
 40
0.2926829614441805
 40
0.3511862482150802
 40
0.4104566095096941
 40
0.4717198544629959
 40
0.5337612027725886
 40
0.5957390238870942
 40
0.6578875151248846
 40
0.7212951802914609
 40
0.7868225145418899
 40
0.8546861538286843
 40
0.9254779862699962
 40
1.0
 40
1.0
 40
1.0
 40
1.0
 10
947.8653506771386
 20
823.684873351224
 30
0.0
 10
947.8631178862281
 20
823.6067776435169
 30
0.0
 10
947.8587248075587
 20
823.4531221507025
 30
0.0
 10
947.8263134434519
 20
823.2273961288728
 30
0.0
 10
947.7714354846156
 20
823.0116819651863
 30
0.0
 10
947.6958442929249
 20
822.8045844047194
 30
0.0
 10
947.5971875738429
 20
822.606504097358
 30
0.0
 10
947.4771236553712
 20
822.4172166368173
 30
0.0
 10
947.3339657956618
 20
822.2386238811304
 30
0.0
 10
947.1738220952003
 20
822.0687413140378
 30
0.0
 10
946.9926514769403
 20
821.9159920858325
 30
0.0
 10
946.7971868942603
 20
821.7799561848467
 30
0.0
 10
946.5849667345034
 20
821.6680794714399
 30
0.0
 10
946.3594764624658
 20
821.5740999937191
 30
0.0
 10
946.1181865970618
 20
821.5023121115132
 30
0.0
 10
945.8621806373823
 20
821.4520890854577
 30
0.0
 10
945.5916793760451
 20
821.4182490008894
 30
0.0
 10
945.4060570877903
 20
821.4154668182725
 30
0.0
 10
945.3108634976514
 20
821.4140400178908
 30
0.0
  0
SPLINE
  5
E6
330
1F
100
AcDbEntity
  8
0
  6
Continuous
 62
     7
370
    25
100
AcDbSpline
210
0.0
220
0.0
230
1.0
 70
     8
 71
     3
 72
    19
 73
    15
 74
     0
 42
0.00000001
 43
0.00000001
 40
0.0
 40
0.0
 40
0.0
 40
0.0
 40
0.1060574933033971
 40
0.2029142570846101
 40
0.2903001653958373
 40
0.3702225656250412
 40
0.4463837207709701
 40
0.5213968999648276
 40
0.5982910828464574
 40
0.6761424688569287
 40
0.7555286995560231
 40
0.8348871724576568
 40
0.9166460487466405
 40
1.0
 40
1.0
 40
1.0
 40
1.0
 10
946.3252865745745
 20
825.7297451460959
 30
0.0
 10
946.416167551934
 20
825.6948537199459
 30
0.0
 10
946.5900453745154
 20
825.6280977784718
 30
0.0
 10
946.8293276886455
 20
825.5100738607642
 30
0.0
 10
947.035487334351
 20
825.3817033227268
 30
0.0
 10
947.2101093823172
 20
825.2415162366841
 30
0.0
 10
947.3594525935553
 20
825.0904103834496
 30
0.0
 10
947.4898593171505
 20
824.9261701223105
 30
0.0
 10
947.6011310295181
 20
824.7466529614478
 30
0.0
 10
947.696474854811
 20
824.5537305949052
 30
0.0
 10
947.7708720114424
 20
824.3493729529466
 30
0.0
 10
947.8265883642874
 20
824.1354968932955
 30
0.0
 10
947.8585139623121
 20
823.9128693385655
 30
0.0
 10
947.8630571423766
 20
823.7613599000777
 30
0.0
 10
947.8653506771386
 20
823.684873351224
 30
0.0
  0
SPLINE
  5
E7
330
1F
100
AcDbEntity
  8
0
  6
Continuous
 62
     7
370
    25
100
AcDbSpline
210
0.0
220
0.0
230
1.0
 70
     8
 71
     3
 72
    15
 73
    11
 74
     0
 42
0.00000001
 43
0.00000001
 40
0.0
 40
0.0
 40
0.0
 40
0.0
 40
0.1305691070873079
 40
0.2565806086940823
 40
0.3805516168036832
 40
0.5036229172007081
 40
0.6257393231697876
 40
0.7475485819596254
 40
0.8717661185648725
 40
1.0
 40
1.0
 40
1.0
 40
1.0
 10
947.2499660617541
 20
827.431668223019
 30
0.0
 10
947.2474672767424
 20
827.3433195243265
 30
0.0
 10
947.2425569285479
 20
827.169705999707
 30
0.0
 10
947.1956020500729
 20
826.9157766070588
 30
0.0
 10
947.1220919507825
 20
826.6740595354534
 30
0.0
 10
947.0199085241221
 20
826.4454369402147
 30
0.0
 10
946.8871039613837
 20
826.2350743958817
 30
0.0
 10
946.7297135187205
 20
826.041274930636
 30
0.0
 10
946.5398236844554
 20
825.8722439432189
 30
0.0
 10
946.397553421626
 20
825.7777458802459
 30
0.0
 10
946.3252865745745
 20
825.7297451460959
 30
0.0
  0
SPLINE
  5
E8
330
1F
100
AcDbEntity
  8
0
  6
Continuous
 62
     7
370
    25
100
AcDbSpline
210
0.0
220
0.0
230
1.0
 70
     8
 71
     3
 72
    23
 73
    19
 74
     0
 42
0.00000001
 43
0.00000001
 40
0.0
 40
0.0
 40
0.0
 40
0.0
 40
0.0625940971873315
 40
0.1213229386347494
 40
0.1766801421977661
 40
0.2283650957096757
 40
0.276868445836807
 40
0.3218791276660453
 40
0.3640986251098918
 40
0.4033556962427022
 40
0.4779679481633705
 40
0.5505354613647755
 40
0.6235844567403235
 40
0.6981748822642031
 40
0.7733536703408758
 40
0.8472811254977322
 40
0.9228183395566693
 40
1.0
 40
1.0
 40
1.0
 40
1.0
 10
944.7082993950874
 20
829.4140400178908
 30
0.0
 10
944.7847073452309
 20
829.4136383026868
 30
0.0
 10
944.932804968857
 20
829.4128596786433
 30
0.0
 10
945.148163693037
 20
829.4007839503074
 30
0.0
 10
945.3498752602154
 20
829.3843184191562
 30
0.0
 10
945.5379981684451
 20
829.3581924931123
 30
0.0
 10
945.7124454881962
 20
829.3266684310657
 30
0.0
 10
945.8737429447398
 20
829.2884928514306
 30
0.0
 10
946.0213776242102
 20
829.2427177344958
 30
0.0
 10
946.1976353074243
 20
829.1699262345359
 30
0.0
 10
946.3985968180045
 20
829.0617589925937
 30
0.0
 10
946.6161931441827
 20
828.9019222722532
 30
0.0
 10
946.802259977004
 20
828.7064194994065
 30
0.0
 10
946.9626858449833
 20
828.4858877155796
 30
0.0
 10
947.0902312612376
 20
828.2432916658629
 30
0.0
 10
947.1825039408163
 20
827.9844135200858
 30
0.0
 10
947.2409219416361
 20
827.7125923956982
 30
0.0
 10
947.2469297912725
 20
827.5259794176892
 30
0.0
 10
947.2499660617541
 20
827.431668223019
 30
0.0
  0
LINE
  5
E9
330
1F
100
AcDbEntity
  8
0
  6
Continuous
 62
     7
370
    25
100
AcDbLine
 10
943.1474019592
 20
829.4140400179
 30
0.0
 11
944.7082993951
 21
829.4140400179
 31
0.0
  0
LINE
  5
EA
330
1F
100
AcDbEntity
  8
0
  6
Continuous
 62
     7
370
    25
100
AcDbLine
 10
943.1474019592
 20
821.4140400179
 30
0.0
 11
943.1474019592
 21
829.4140400179
 31
0.0
  0
LINE
  5
EB
330
1F
100
AcDbEntity
  8
0
  6
Continuous
 62
     7
370
    25
100
AcDbLine
 10
945.3108634977
 20
821.4140400179
 30
0.0
 11
943.1474019592
 21
821.4140400179
 31
0.0
  0
LINE
  5
EC
330
1F
100
AcDbEntity
  8
0
  6
Continuous
 62
     7
370
    25
100
AcDbLine
 10
940.9326583694
 20
821.4140400179
 30
0.0
 11
935.660222472
 21
827.6960912999
 31
0.0
  0
LINE
  5
ED
330
1F
100
AcDbEntity
  8
0
  6
Continuous
 62
     7
370
    25
100
AcDbLine
 10
941.0961199079
 20
821.4140400179
 30
0.0
 11
940.9326583694
 21
821.4140400179
 31
0.0
  0
LINE
  5
EE
330
1F
100
AcDbEntity
  8
0
  6
Continuous
 62
     7
370
    25
100
AcDbLine
 10
941.0961199079
 20
829.4140400179
 30
0.0
 11
941.0961199079
 21
821.4140400179
 31
0.0
  0
LINE
  5
EF
330
1F
100
AcDbEntity
  8
0
  6
Continuous
 62
     7
370
    25
100
AcDbLine
 10
940.37817119
 20
829.4140400179
 30
0.0
 11
941.0961199079
 21
829.4140400179
 31
0.0
  0
LINE
  5
F0
330
1F
100
AcDbEntity
  8
0
  6
Continuous
 62
     7
370
    25
100
AcDbLine
 10
940.37817119
 20
823.1175656589
 30
0.0
 11
940.37817119
 21
829.4140400179
 31
0.0
  0
LINE
  5
F1
330
1F
100
AcDbEntity
  8
0
  6
Continuous
 62
     7
370
    25
100
AcDbLine
 10
935.0929147797
 20
829.4140400179
 30
0.0
 11
940.37817119
 21
823.1175656589
 31
0.0
  0
LINE
  5
F2
330
1F
100
AcDbEntity
  8
0
  6
Continuous
 62
     7
370
    25
100
AcDbLine
 10
934.9422737541
 20
829.4140400179
 30
0.0
 11
935.0929147797
 21
829.4140400179
 31
0.0
  0
LINE
  5
F3
330
1F
100
AcDbEntity
  8
0
  6
Continuous
 62
     7
370
    25
100
AcDbLine
 10
934.9422737541
 20
821.4140400179
 30
0.0
 11
934.9422737541
 21
829.4140400179
 31
0.0
  0
LINE
  5
F4
330
1F
100
AcDbEntity
  8
0
  6
Continuous
 62
     7
370
    25
100
AcDbLine
 10
935.660222472
 20
821.4140400179
 30
0.0
 11
934.9422737541
 21
821.4140400179
 31
0.0
  0
LINE
  5
F5
330
1F
100
AcDbEntity
  8
0
  6
Continuous
 62
     7
370
    25
100
AcDbLine
 10
935.660222472
 20
827.6960912999
 30
0.0
 11
935.660222472
 21
821.4140400179
 31
0.0
  0
CIRCLE
  5
F6
330
1F
100
AcDbEntity
  8
0
  6
Continuous
 62
     7
370
    25
100
AcDbCircle
 10
933.9872798434
 20
785.6360078278
 30
0.0
 40
7.5
  0
SPLINE
  5
F7
330
1F
100
AcDbEntity
  8
0
  6
Continuous
 62
     7
370
    25
100
AcDbSpline
210
0.0
220
0.0
230
1.0
 70
     8
 71
     3
 72
    15
 73
    11
 74
     0
 42
0.00000001
 43
0.00000001
 40
0.0
 40
0.0
 40
0.0
 40
0.0
 40
0.1105883385953365
 40
0.2245417540535967
 40
0.3425034940501039
 40
0.4643240984173573
 40
0.590756032701767
 40
0.7222274753555147
 40
0.8588428362087224
 40
1.0
 40
1.0
 40
1.0
 40
1.0
 10
932.485542984831
 20
823.4028220691728
 30
0.0
 10
932.5096613112167
 20
823.47420433081
 30
0.0
 10
932.5586318571195
 20
823.6191409347952
 30
0.0
 10
932.621744484024
 20
823.8439721395506
 30
0.0
 10
932.6714482536324
 20
824.0798641714088
 30
0.0
 10
932.7161645182026
 20
824.3254072953366
 30
0.0
 10
932.7466857888252
 20
824.5824123262189
 30
0.0
 10
932.7712522191867
 20
824.8500840608834
 30
0.0
 10
932.7857223607623
 20
825.1286243174217
 30
0.0
 10
932.7875160774968
 20
825.3178700115822
 30
0.0
 10
932.7884276002155
 20
825.4140400178908
 30
0.0
  0
SPLINE
  5
F8
330
1F
100
AcDbEntity
  8
0
  6
Continuous
 62
     7
370
    25
100
AcDbSpline
210
0.0
220
0.0
230
1.0
 70
     8
 71
     3
 72
    19
 73
    15
 74
     0
 42
0.00000001
 43
0.00000001
 40
0.0
 40
0.0
 40
0.0
 40
0.0
 40
0.1128134007444591
 40
0.2253938839207292
 40
0.3395948145627014
 40
0.459675410224864
 40
0.5217351900879341
 40
0.583925838738916
 40
0.648174144765371
 40
0.713881038113067
 40
0.7810044549073896
 40
0.8514509275565548
 40
0.9240506926641802
 40
1.0
 40
1.0
 40
1.0
 40
1.0
 10
930.7691968309848
 20
822.0294246332753
 30
0.0
 10
930.8577857947694
 20
822.0330767037017
 30
0.0
 10
931.0347808191916
 20
822.0403733043921
 30
0.0
 10
931.29337235095
 20
822.1107704183904
 30
0.0
 10
931.544412968281
 20
822.2169865085931
 30
0.0
 10
931.7411488317755
 20
822.3425808066942
 30
0.0
 10
931.8908232169216
 20
822.4621884168686
 30
0.0
 10
931.9980620514494
 20
822.5641647558696
 30
0.0
 10
932.0964895907255
 20
822.6783495954271
 30
0.0
 10
932.1898429046789
 20
822.8015479860898
 30
0.0
 10
932.2754636490786
 20
822.9361136642012
 30
0.0
 10
932.3533222495248
 20
823.0813995505235
 30
0.0
 10
932.4243699010566
 20
823.2378091000371
 30
0.0
 10
932.4648477203714
 20
823.346997075159
 30
0.0
 10
932.485542984831
 20
823.4028220691728
 30
0.0
  0
SPLINE
  5
F9
330
1F
100
AcDbEntity
  8
0
  6
Continuous
 62
     7
370
    25
100
AcDbSpline
210
0.0
220
0.0
230
1.0
 70
     8
 71
     3
 72
    27
 73
    23
 74
     0
 42
0.00000001
 43
0.00000001
 40
0.0
 40
0.0
 40
0.0
 40
0.0
 40
0.0729510658758678
 40
0.1415836941865456
 40
0.2059264601708678
 40
0.2653013571846063
 40
0.320597232713929
 40
0.3718165030988104
 40
0.418789769709452
 40
0.4616987286157647
 40
0.5021335821035655
 40
0.5408043152926487
 40
0.578180525327966
 40
0.6142968652075153
 40
0.6496782432647878
 40
0.684299460089637
 40
0.7183589527723607
 40
0.7520808646475973
 40
0.8176524386023857
 40
0.8797220764054376
 40
0.9399655597309878
 40
1.0
 40
1.0
 40
1.0
 40
1.0
 10
928.7884276002155
 20
825.4140400178908
 30
0.0
 10
928.7887006220842
 20
825.3071858491962
 30
0.0
 10
928.7892305039205
 20
825.0998028896554
 30
0.0
 10
928.8030732480971
 20
824.7984468645674
 30
0.0
 10
928.8219309212386
 20
824.5173718272712
 30
0.0
 10
928.8462538862333
 20
824.2562208867793
 30
0.0
 10
928.8823749114357
 20
824.0158780010427
 30
0.0
 10
928.9228475693046
 20
823.7946901540366
 30
0.0
 10
928.9721003455771
 20
823.5938278977765
 30
0.0
 10
929.0303746721304
 20
823.4119129018804
 30
0.0
 10
929.0967497507439
 20
823.2458578881767
 30
0.0
 10
929.1692202962755
 20
823.0913408250285
 30
0.0
 10
929.247073377201
 20
822.9465363988896
 30
0.0
 10
929.3342028641792
 20
822.8127452940345
 30
0.0
 10
929.4290944372741
 20
822.6895312047251
 30
0.0
 10
929.5296047438742
 20
822.5747133022742
 30
0.0
 10
929.6394849364276
 20
822.4723202020785
 30
0.0
 10
929.7914934908121
 20
822.3495159620111
 30
0.0
 10
929.9921711466452
 20
822.2226150849149
 30
0.0
 10
930.2450179014592
 20
822.1121097367284
 30
0.0
 10
930.5048315037027
 20
822.0426641220258
 30
0.0
 10
930.681177218187
 20
822.0338326798427
 30
0.0
 10
930.7691968309848
 20
822.0294246332753
 30
0.0
  0
SPLINE
  5
FA
330
1F
100
AcDbEntity
  8
0
  6
Continuous
 62
     7
370
    25
100
AcDbSpline
210
0.0
220
0.0
230
1.0
 70
     8
 71
     3
 72
    27
 73
    23
 74
     0
 42
0.00000001
 43
0.00000001
 40
0.0
 40
0.0
 40
0.0
 40
0.0
 40
0.0603866193110627
 40
0.1208832485859966
 40
0.1827546186251396
 40
0.2478110297583515
 40
0.2812991000432487
 40
0.3150876241506568
 40
0.3497023955502759
 40
0.3848565811185556
 40
0.4209661972261022
 40
0.4585111882611392
 40
0.4971747221273132
 40
0.5376020478662706
 40
0.5805030184200117
 40
0.6274675400267045
 40
0.6783882095592437
 40
0.7339832205925612
 40
0.793746704550835
 40
0.8577136721607319
 40
0.9266978643613872
 40
1.0
 40
1.0
 40
1.0
 40
1.0
 10
930.7691968309848
 20
828.7986554025061
 30
0.0
 10
930.6807154776435
 20
828.7940120958839
 30
0.0
 10
930.5035915791176
 20
828.7847170236462
 30
0.0
 10
930.2419962540279
 20
828.7191324440083
 30
0.0
 10
929.9912434502739
 20
828.6048170932937
 30
0.0
 10
929.7918309367224
 20
828.4792116705167
 30
0.0
 10
929.6389994247049
 20
828.3595812443643
 30
0.0
 10
929.5313818398439
 20
828.2558407779451
 30
0.0
 10
929.4304763033462
 20
828.1423636251105
 30
0.0
 10
929.3375215601744
 20
828.0180163911668
 30
0.0
 10
929.2504603414493
 20
827.884381265866
 30
0.0
 10
929.1705037412763
 20
827.740406946494
 30
0.0
 10
929.0984641305881
 20
827.5853638282645
 30
0.0
 10
929.0319851907478
 20
827.4193834044494
 30
0.0
 10
928.9735331038307
 20
827.2374841028825
 30
0.0
 10
928.9253183307336
 20
827.0368692603831
 30
0.0
 10
928.880776495031
 20
826.8163849362936
 30
0.0
 10
928.8492444518297
 20
826.5747403467045
 30
0.0
 10
928.8212130100886
 20
826.3135239961463
 30
0.0
 10
928.8031985004834
 20
826.031747268765
 30
0.0
 10
928.7891841976966
 20
825.7298858278454
 30
0.0
 10
928.7886848505817
 20
825.5214306084107
 30
0.0
 10
928.7884276002155
 20
825.4140400178908
 30
0.0
  0
SPLINE
  5
FB
330
1F
100
AcDbEntity
  8
0
  6
Continuous
 62
     7
370
    25
100
AcDbSpline
210
0.0
220
0.0
230
1.0
 70
     8
 71
     3
 72
    27
 73
    23
 74
     0
 42
0.00000001
 43
0.00000001
 40
0.0
 40
0.0
 40
0.0
 40
0.0
 40
0.0656811979906383
 40
0.128486464174064
 40
0.1881751303280078
 40
0.2451061306699859
 40
0.2994484245294747
 40
0.3508229360093825
 40
0.3999416805337773
 40
0.4466717436323714
 40
0.4912545333734974
 40
0.5333763442704357
 40
0.5738527549682234
 40
0.6125263117194524
 40
0.6495971364453287
 40
0.6855320415538502
 40
0.7201057860682003
 40
0.7538376629736493
 40
0.8189254160467137
 40
0.8804934616501633
 40
0.940311333846057
 40
1.0
 40
1.0
 40
1.0
 40
1.0
 10
932.7884276002155
 20
825.4140400178908
 30
0.0
 10
932.7871700248261
 20
825.5101944693606
 30
0.0
 10
932.7847099385276
 20
825.6982931317161
 30
0.0
 10
932.7753065380679
 20
825.9737632589439
 30
0.0
 10
932.7510240820862
 20
826.2354038553077
 30
0.0
 10
932.7240546675387
 20
826.4843420785404
 30
0.0
 10
932.6842895907567
 20
826.7191999132934
 30
0.0
 10
932.6414146036018
 20
826.941943468165
 30
0.0
 10
932.5838118326528
 20
827.1498132391808
 30
0.0
 10
932.5222809184265
 20
827.3460637116644
 30
0.0
 10
932.4518571572117
 20
827.5284652076662
 30
0.0
 10
932.3743354789088
 20
827.6978681479221
 30
0.0
 10
932.2915428874368
 20
827.8550903759376
 30
0.0
 10
932.201617766387
 20
827.9997005281126
 30
0.0
 10
932.1056276336664
 20
828.1323463404808
 30
0.0
 10
932.0010389497862
 20
828.2503682708971
 30
0.0
 10
931.8920003833614
 20
828.3574241980023
 30
0.0
 10
931.7392753871932
 20
828.4796243559946
 30
0.0
 10
931.5393341533636
 20
828.6042225170988
 30
0.0
 10
931.2905441022951
 20
828.7188871110653
 30
0.0
 10
931.0316397725783
 20
828.7847346370561
 30
0.0
 10
930.8566147346536
 20
828.7940184931432
 30
0.0
 10
930.7691968309848
 20
828.7986554025061
 30
0.0
  0
LINE
  5
FC
330
1F
100
AcDbEntity
  8
0
  6
Continuous
 62
     7
370
    25
100
AcDbLine
 10
943.8653506771
 20
826.0294246333
 30
0.0
 11
944.347722472
 21
826.0294246333
 31
0.0
  0
SPLINE
  5
FD
330
1F
100
AcDbEntity
  8
0
  6
Continuous
 62
     7
370
    25
100
AcDbSpline
210
0.0
220
0.0
230
1.0
 70
     8
 71
     3
 72
    23
 73
    19
 74
     0
 42
0.00000001
 43
0.00000001
 40
0.0
 40
0.0
 40
0.0
 40
0.0
 40
0.0723010339955049
 40
0.1397003317393861
 40
0.2022885114847729
 40
0.2605995332222008
 40
0.3131903291553315
 40
0.3617389329854278
 40
0.4057064756322226
 40
0.4455399848948707
 40
0.5188319558616069
 40
0.5897782395835756
 40
0.6588674786561446
 40
0.7284304780610623
 40
0.7972827036080989
 40
0.8648153774014443
 40
0.9313637528792664
 40
1.0
 40
1.0
 40
1.0
 40
1.0
 10
944.3477224720104
 20
826.0294246332753
 30
0.0
 10
944.4182340042767
 20
826.0303387430044
 30
0.0
 10
944.5544766539965
 20
826.0321049892855
 30
0.0
 10
944.7517792747024
 20
826.0371644568557
 30
0.0
 10
944.9349221734363
 20
826.0513314132373
 30
0.0
 10
945.1035892204626
 20
826.0654942979336
 30
0.0
 10
945.257514806672
 20
826.0885219268796
 30
0.0
 10
945.3963579186769
 20
826.1159324935363
 30
0.0
 10
945.522297568822
 20
826.1449219908997
 30
0.0
 10
945.6675308157625
 20
826.1942236752433
 30
0.0
 10
945.8322689836667
 20
826.2670869328066
 30
0.0
 10
946.0078875074482
 20
826.3801654153665
 30
0.0
 10
946.1627091522228
 20
826.5148496512502
 30
0.0
 10
946.2934455812955
 20
826.670257563833
 30
0.0
 10
946.4004432282179
 20
826.841380274366
 30
0.0
 10
946.4747602914276
 20
827.0254874296453
 30
0.0
 10
946.525154083845
 20
827.2179905885838
 30
0.0
 10
946.5297061555186
 20
827.3501465949604
 30
0.0
 10
946.5320173438054
 20
827.417245146096
 30
0.0
  0
SPLINE
  5
FE
330
1F
100
AcDbEntity
  8
0
  6
Continuous
 62
     7
370
    25
100
AcDbSpline
210
0.0
220
0.0
230
1.0
 70
     8
 71
     3
 72
    23
 73
    19
 74
     0
 42
0.00000001
 43
0.00000001
 40
0.0
 40
0.0
 40
0.0
 40
0.0
 40
0.0570031325129236
 40
0.1118178691207219
 40
0.1644023722182105
 40
0.2158698048987953
 40
0.2668411100818657
 40
0.3174789632053572
 40
0.3699021362727598
 40
0.4234004494436345
 40
0.4797183982994506
 40
0.5392414966442948
 40
0.6024306889434224
 40
0.6710295461473353
 40
0.7444847975608467
 40
0.8234539713786831
 40
0.908740312730665
 40
1.0
 40
1.0
 40
1.0
 40
1.0
 10
946.5320173438054
 20
827.417245146096
 30
0.0
 10
946.5308146462423
 20
827.4616469095555
 30
0.0
 10
946.528455423639
 20
827.5487458172184
 30
0.0
 10
946.5091335891134
 20
827.675715769576
 30
0.0
 10
946.4762934189749
 20
827.7951300610324
 30
0.0
 10
946.4341121772833
 20
827.908625170345
 30
0.0
 10
946.3751666030744
 20
828.0126522565629
 30
0.0
 10
946.3057644012413
 20
828.1108081324367
 30
0.0
 10
946.2219113948648
 20
828.1997501175725
 30
0.0
 10
946.1264661087939
 20
828.2828803994361
 30
0.0
 10
946.016732113689
 20
828.3565821772602
 30
0.0
 10
945.8927748752449
 20
828.4211324930855
 30
0.0
 10
945.7529173276638
 20
828.473111411211
 30
0.0
 10
945.5995165162776
 20
828.5186340454454
 30
0.0
 10
945.4302111734237
 20
828.5506072884585
 30
0.0
 10
945.2469550513468
 20
828.5772436031033
 30
0.0
 10
945.0482471221424
 20
828.5908041562566
 30
0.0
 10
944.9107726020835
 20
828.5925992713987
 30
0.0
 10
944.8397096514976
 20
828.5935271973779
 30
0.0
  0
LINE
  5
FF
330
1F
100
AcDbEntity
  8
0
  6
Continuous
 62
     7
370
    25
100
AcDbLine
 10
944.8397096515
 20
828.5935271974
 30
0.0
 11
943.8653506771
 21
828.5935271974
 31
0.0
  0
LINE
  5
100
330
1F
100
AcDbEntity
  8
0
  6
Continuous
 62
     7
370
    25
100
AcDbLine
 10
943.8653506771
 20
828.5935271974
 30
0.0
 11
943.8653506771
 21
826.0294246333
 31
0.0
  0
LINE
  5
101
330
1F
100
AcDbEntity
  8
0
  6
Continuous
 62
     7
370
    25
100
AcDbLine
 10
943.8653506771
 20
825.2089118128
 30
0.0
 11
943.8653506771
 21
822.2345528384
 31
0.0
  0
LINE
  5
102
330
1F
100
AcDbEntity
  8
0
  6
Continuous
 62
     7
370
    25
100
AcDbLine
 10
943.8653506771
 20
822.2345528384
 30
0.0
 11
944.8877865746
 21
822.2345528384
 31
0.0
  0
SPLINE
  5
103
330
1F
100
AcDbEntity
  8
0
  6
Continuous
 62
     7
370
    25
100
AcDbSpline
210
0.0
220
0.0
230
1.0
 70
     8
 71
     3
 72
    19
 73
    15
 74
     0
 42
0.00000001
 43
0.00000001
 40
0.0
 40
0.0
 40
0.0
 40
0.0
 40
0.0602873979279726
 40
0.119602354707522
 40
0.1775033710185401
 40
0.2351426637323318
 40
0.2921325932269338
 40
0.3508712086415664
 40
0.410097862566594
 40
0.4707315215304504
 40
0.594828704080415
 40
0.7225788240942911
 40
0.8566913895440171
 40
1.0
 40
1.0
 40
1.0
 40
1.0
 10
947.1474019591899
 20
823.684873351224
 30
0.0
 10
947.1467708635615
 20
823.7271438438299
 30
0.0
 10
947.145518851934
 20
823.8110030021959
 30
0.0
 10
947.1266374463943
 20
823.9342391603396
 30
0.0
 10
947.09917717258
 20
824.0536125850466
 30
0.0
 10
947.0636767522769
 20
824.1694474204403
 30
0.0
 10
947.0119751132116
 20
824.279649423521
 30
0.0
 10
946.9516172960298
 20
824.3863981310335
 30
0.0
 10
946.8808483779848
 20
824.4898346554307
 30
0.0
 10
946.7705759988588
 20
824.620605520458
 30
0.0
 10
946.6101828913845
 20
824.7712729785229
 30
0.0
 10
946.3822816903722
 20
824.918787269418
 30
0.0
 10
946.1231450092996
 20
825.0377536856181
 30
0.0
 10
945.9351964541086
 20
825.0882667743916
 30
0.0
 10
945.838107087395
 20
825.1143605307113
 30
0.0
  0
SPLINE
  5
104
330
1F
100
AcDbEntity
  8
0
  6
Continuous
 62
     7
370
    25
100
AcDbSpline
210
0.0
220
0.0
230
1.0
 70
     8
 71
     3
 72
    15
 73
    11
 74
     0
 42
0.00000001
 43
0.00000001
 40
0.0
 40
0.0
 40
0.0
 40
0.0
 40
0.0793064855230003
 40
0.171952818927932
 40
0.2770565073915913
 40
0.3947305758644772
 40
0.5261773212767583
 40
0.6713447665976138
 40
0.8292852571892514
 40
1.0
 40
1.0
 40
1.0
 40
1.0
 10
945.838107087395
 20
825.1143605307113
 30
0.0
 10
945.7991834397327
 20
825.1222578654665
 30
0.0
 10
945.714788942935
 20
825.1393809161758
 30
0.0
 10
945.5771716162407
 20
825.1574556667802
 30
0.0
 10
945.4200610587498
 20
825.1735586608193
 30
0.0
 10
945.243094482233
 20
825.1854698783363
 30
0.0
 10
945.0460479882589
 20
825.1977819778747
 30
0.0
 10
944.8285007455489
 20
825.2025701404399
 30
0.0
 10
944.591341169185
 20
825.2082827349391
 30
0.0
 10
944.4267871751285
 20
825.2086967560632
 30
0.0
 10
944.3413122156002
 20
825.2089118127626
 30
0.0
  0
LINE
  5
105
330
1F
100
AcDbEntity
  8
0
  6
Continuous
 62
     7
370
    25
100
AcDbLine
 10
944.3413122156
 20
825.2089118128
 30
0.0
 11
943.8653506771
 21
825.2089118128
 31
0.0
  0
SPLINE
  5
106
330
1F
100
AcDbEntity
  8
0
  6
Continuous
 62
     7
370
    25
100
AcDbSpline
210
0.0
220
0.0
230
1.0
 70
     8
 71
     3
 72
    23
 73
    19
 74
     0
 42
0.00000001
 43
0.00000001
 40
0.0
 40
0.0
 40
0.0
 40
0.0
 40
0.0725024889330334
 40
0.1397389892678939
 40
0.2017951348259221
 40
0.2598219344148626
 40
0.3122059893845967
 40
0.3607734341243379
 40
0.4045403426007487
 40
0.4436980985527627
 40
0.5168407942439694
 40
0.5878743359442808
 40
0.6579654175616315
 40
0.7289693886473123
 40
0.7993077199548829
 40
0.8666357778344711
 40
0.9331163290572735
 40
1.0
 40
1.0
 40
1.0
 40
1.0
 10
944.8877865745745
 20
822.2345528384036
 30
0.0
 10
944.9609726909472
 20
822.2354299753104
 30
0.0
 10
945.1020292819809
 20
822.2371205410636
 30
0.0
 10
945.3056892365429
 20
822.242639522917
 30
0.0
 10
945.4944506166597
 20
822.2551932959434
 30
0.0
 10
945.6674520697555
 20
822.2749552380319
 30
0.0
 10
945.8265616757686
 20
822.2963916932827
 30
0.0
 10
945.9698707112632
 20
822.3252174782464
 30
0.0
 10
946.0985408677466
 20
822.3582436737331
 30
0.0
 10
946.2477392854366
 20
822.4092932102703
 30
0.0
 10
946.4157473043643
 20
822.4885994295098
 30
0.0
 10
946.5968006903887
 20
822.6081748041801
 30
0.0
 10
946.7577749032893
 20
822.7506280790894
 30
0.0
 10
946.8944726386187
 20
822.9154987400576
 30
0.0
 10
947.0065023267238
 20
823.0947703444651
 30
0.0
 10
947.088000509772
 20
823.2848168586428
 30
0.0
 10
947.1382653251299
 20
823.4824980641705
 30
0.0
 10
947.1443502835068
 20
823.6172791214116
 30
0.0
 10
947.1474019591899
 20
823.684873351224
 30
0.0
  0
SPLINE
  5
107
330
1F
100
AcDbEntity
  8
0
  6
Continuous
 62
     7
370
    25
100
AcDbSpline
210
0.0
220
0.0
230
1.0
 70
     8
 71
     3
 72
    27
 73
    23
 74
     0
 42
0.00000001
 43
0.00000001
 40
0.0
 40
0.0
 40
0.0
 40
0.0
 40
0.0729510658758678
 40
0.1415836941865455
 40
0.2059264601708677
 40
0.2653013571846063
 40
0.3205972327139289
 40
0.3718165030988104
 40
0.418789769709452
 40
0.4616987286157648
 40
0.5021335821035655
 40
0.5408043152926487
 40
0.5781805253279657
 40
0.6142968652075155
 40
0.649678243264788
 40
0.6842994600896372
 40
0.7183589527723608
 40
0.7520808646475974
 40
0.8176524386023851
 40
0.879722076405437
 40
0.9399655597309878
 40
1.0
 40
1.0
 40
1.0
 40
1.0
 10
972.9935558053437
 20
825.4140400178908
 30
0.0
 10
972.9938288272124
 20
825.3071858491962
 30
0.0
 10
972.9943587090487
 20
825.0998028896554
 30
0.0
 10
973.0082014532253
 20
824.7984468645675
 30
0.0
 10
973.0270591263669
 20
824.5173718272712
 30
0.0
 10
973.0513820913616
 20
824.2562208867793
 30
0.0
 10
973.0875031165639
 20
824.0158780010426
 30
0.0
 10
973.1279757744329
 20
823.7946901540366
 30
0.0
 10
973.1772285507053
 20
823.5938278977765
 30
0.0
 10
973.2355028772585
 20
823.4119129018804
 30
0.0
 10
973.3018779558721
 20
823.2458578881767
 30
0.0
 10
973.3743485014037
 20
823.0913408250285
 30
0.0
 10
973.4522015823293
 20
822.9465363988896
 30
0.0
 10
973.5393310693074
 20
822.8127452940345
 30
0.0
 10
973.6342226424023
 20
822.6895312047251
 30
0.0
 10
973.7347329490023
 20
822.5747133022742
 30
0.0
 10
973.8446131415557
 20
822.4723202020785
 30
0.0
 10
973.9966216959401
 20
822.3495159620111
 30
0.0
 10
974.1972993517735
 20
822.2226150849149
 30
0.0
 10
974.4501461065875
 20
822.1121097367284
 30
0.0
 10
974.7099597088308
 20
822.0426641220258
 30
0.0
 10
974.8863054233152
 20
822.0338326798427
 30
0.0
 10
974.974325036113
 20
822.0294246332753
 30
0.0
  0
SPLINE
  5
108
330
1F
100
AcDbEntity
  8
0
  6
Continuous
 62
     7
370
    25
100
AcDbSpline
210
0.0
220
0.0
230
1.0
 70
     8
 71
     3
 72
    19
 73
    15
 74
     0
 42
0.00000001
 43
0.00000001
 40
0.0
 40
0.0
 40
0.0
 40
0.0
 40
0.1128134007444591
 40
0.2253938839207292
 40
0.3395948145627014
 40
0.4596754102248628
 40
0.5217351900879341
 40
0.583925838738916
 40
0.648174144765371
 40
0.713881038113067
 40
0.7810044549073896
 40
0.851450927556554
 40
0.9240506926641802
 40
1.0
 40
1.0
 40
1.0
 40
1.0
 10
974.974325036113
 20
822.0294246332753
 30
0.0
 10
975.0629139998975
 20
822.0330767037017
 30
0.0
 10
975.2399090243198
 20
822.0403733043921
 30
0.0
 10
975.4985005560783
 20
822.1107704183904
 30
0.0
 10
975.749541173409
 20
822.2169865085931
 30
0.0
 10
975.9462770369038
 20
822.3425808066942
 30
0.0
 10
976.0959514220499
 20
822.4621884168686
 30
0.0
 10
976.2031902565776
 20
822.5641647558696
 30
0.0
 10
976.3016177958536
 20
822.6783495954271
 30
0.0
 10
976.3949711098071
 20
822.8015479860898
 30
0.0
 10
976.4805918542068
 20
822.9361136642012
 30
0.0
 10
976.558450454653
 20
823.0813995505235
 30
0.0
 10
976.6294981061848
 20
823.2378091000371
 30
0.0
 10
976.6699759254997
 20
823.346997075159
 30
0.0
 10
976.6906711899591
 20
823.4028220691728
 30
0.0
  0
SPLINE
  5
109
330
1F
100
AcDbEntity
  8
0
  6
Continuous
 62
     7
370
    25
100
AcDbSpline
210
0.0
220
0.0
230
1.0
 70
     8
 71
     3
 72
    15
 73
    11
 74
     0
 42
0.00000001
 43
0.00000001
 40
0.0
 40
0.0
 40
0.0
 40
0.0
 40
0.1105883385953361
 40
0.2245417540535963
 40
0.3425034940501039
 40
0.4643240984173573
 40
0.5907560327017671
 40
0.7222274753555148
 40
0.8588428362087224
 40
1.0
 40
1.0
 40
1.0
 40
1.0
 10
976.6906711899591
 20
823.4028220691728
 30
0.0
 10
976.7147895163449
 20
823.47420433081
 30
0.0
 10
976.7637600622477
 20
823.6191409347952
 30
0.0
 10
976.8268726891522
 20
823.8439721395506
 30
0.0
 10
976.8765764587607
 20
824.0798641714088
 30
0.0
 10
976.9212927233308
 20
824.3254072953366
 30
0.0
 10
976.9518139939532
 20
824.5824123262189
 30
0.0
 10
976.976380424315
 20
824.8500840608834
 30
0.0
 10
976.9908505658905
 20
825.1286243174217
 30
0.0
 10
976.9926442826248
 20
825.3178700115822
 30
0.0
 10
976.9935558053437
 20
825.4140400178908
 30
0.0
  0
SPLINE
  5
10A
330
1F
100
AcDbEntity
  8
0
  6
Continuous
 62
     7
370
    25
100
AcDbSpline
210
0.0
220
0.0
230
1.0
 70
     8
 71
     3
 72
    27
 73
    23
 74
     0
 42
0.00000001
 43
0.00000001
 40
0.0
 40
0.0
 40
0.0
 40
0.0
 40
0.0656811979906383
 40
0.128486464174064
 40
0.1881751303280079
 40
0.245106130669986
 40
0.2994484245294747
 40
0.3508229360093825
 40
0.3999416805337773
 40
0.4466717436323714
 40
0.4912545333734974
 40
0.5333763442704356
 40
0.5738527549682237
 40
0.6125263117194524
 40
0.6495971364453287
 40
0.6855320415538507
 40
0.7201057860682003
 40
0.7538376629736493
 40
0.8189254160467137
 40
0.8804934616501641
 40
0.9403113338460578
 40
1.0
 40
1.0
 40
1.0
 40
1.0
 10
976.9935558053437
 20
825.4140400178908
 30
0.0
 10
976.9922982299543
 20
825.5101944693606
 30
0.0
 10
976.9898381436558
 20
825.6982931317161
 30
0.0
 10
976.980434743196
 20
825.9737632589439
 30
0.0
 10
976.9561522872144
 20
826.2354038553077
 30
0.0
 10
976.929182872667
 20
826.4843420785404
 30
0.0
 10
976.889417795885
 20
826.7191999132934
 30
0.0
 10
976.8465428087301
 20
826.941943468165
 30
0.0
 10
976.7889400377809
 20
827.1498132391808
 30
0.0
 10
976.7274091235547
 20
827.3460637116644
 30
0.0
 10
976.65698536234
 20
827.5284652076662
 30
0.0
 10
976.579463684037
 20
827.6978681479221
 30
0.0
 10
976.496671092565
 20
827.8550903759376
 30
0.0
 10
976.4067459715152
 20
827.9997005281126
 30
0.0
 10
976.3107558387945
 20
828.1323463404808
 30
0.0
 10
976.2061671549145
 20
828.2503682708971
 30
0.0
 10
976.0971285884897
 20
828.3574241980023
 30
0.0
 10
975.9444035923212
 20
828.4796243559946
 30
0.0
 10
975.7444623584919
 20
828.6042225170988
 30
0.0
 10
975.4956723074234
 20
828.7188871110653
 30
0.0
 10
975.2367679777066
 20
828.7847346370561
 30
0.0
 10
975.0617429397819
 20
828.7940184931432
 30
0.0
 10
974.974325036113
 20
828.7986554025061
 30
0.0
  0
SPLINE
  5
10B
330
1F
100
AcDbEntity
  8
0
  6
Continuous
 62
     7
370
    25
100
AcDbSpline
210
0.0
220
0.0
230
1.0
 70
     8
 71
     3
 72
    27
 73
    23
 74
     0
 42
0.00000001
 43
0.00000001
 40
0.0
 40
0.0
 40
0.0
 40
0.0
 40
0.0603866193110627
 40
0.1208832485859966
 40
0.1827546186251396
 40
0.2478110297583515
 40
0.2812991000432487
 40
0.3150876241506568
 40
0.3497023955502764
 40
0.3848565811185561
 40
0.4209661972261022
 40
0.4585111882611393
 40
0.4971747221273132
 40
0.5376020478662704
 40
0.580503018420012
 40
0.6274675400267045
 40
0.6783882095592438
 40
0.7339832205925612
 40
0.793746704550835
 40
0.857713672160732
 40
0.9266978643613873
 40
1.0
 40
1.0
 40
1.0
 40
1.0
 10
974.974325036113
 20
828.7986554025061
 30
0.0
 10
974.8858436827718
 20
828.7940120958839
 30
0.0
 10
974.7087197842458
 20
828.7847170236462
 30
0.0
 10
974.447124459156
 20
828.7191324440083
 30
0.0
 10
974.1963716554022
 20
828.6048170932938
 30
0.0
 10
973.9969591418505
 20
828.4792116705167
 30
0.0
 10
973.8441276298332
 20
828.3595812443643
 30
0.0
 10
973.7365100449721
 20
828.2558407779451
 30
0.0
 10
973.6356045084744
 20
828.1423636251105
 30
0.0
 10
973.5426497653027
 20
828.0180163911668
 30
0.0
 10
973.4555885465776
 20
827.884381265866
 30
0.0
 10
973.3756319464044
 20
827.740406946494
 30
0.0
 10
973.3035923357164
 20
827.5853638282645
 30
0.0
 10
973.2371133958759
 20
827.4193834044494
 30
0.0
 10
973.1786613089589
 20
827.2374841028825
 30
0.0
 10
973.1304465358618
 20
827.0368692603831
 30
0.0
 10
973.0859047001592
 20
826.8163849362936
 30
0.0
 10
973.054372656958
 20
826.5747403467045
 30
0.0
 10
973.0263412152168
 20
826.3135239961463
 30
0.0
 10
973.0083267056117
 20
826.031747268765
 30
0.0
 10
972.9943124028249
 20
825.7298858278454
 30
0.0
 10
972.99381305571
 20
825.5214306084107
 30
0.0
 10
972.9935558053437
 20
825.4140400178908
 30
0.0
  0
ENDSEC
  0
SECTION
  2
OBJECTS
  0
DICTIONARY
  5
C
330
0
100
AcDbDictionary
281
     1
  3
ACAD_DETAILVIEWSTYLE
350
113
  3
ACAD_GROUP
350
D
  3
ACAD_LAYOUT
350
1A
  3
ACAD_MATERIAL
350
43
  3
ACAD_MLEADERSTYLE
350
5B
  3
ACAD_MLINESTYLE
350
17
  3
ACAD_PLOTSETTINGS
350
19
  3
ACAD_PLOTSTYLENAME
350
E
  3
ACAD_SCALELIST
350
47
  3
ACAD_SECTIONVIEWSTYLE
350
114
  3
ACAD_TABLESTYLE
350
59
  3
ACAD_VISUALSTYLE
350
2A
  3
ACDB_RECOMPOSE_DATA
350
110
  3
AcDbVariableDictionary
350
10C
  0
SUN
  5
5D
330
29
100
AcDbSun
 90
        1
290
     0
 63
     7
421
 16777215
 40
1.0
291
     1
 91
  2455826
 92
 54000000
292
     0
 70
     2
 71
   256
280
     1
  0
DICTIONARY
  5
113
102
{ACAD_REACTORS
330
C
102
}
330
C
100
AcDbDictionary
281
     1
  0
DICTIONARY
  5
D
102
{ACAD_REACTORS
330
C
102
}
330
C
100
AcDbDictionary
281
     1
  0
DICTIONARY
  5
1A
102
{ACAD_REACTORS
330
C
102
}
330
C
100
AcDbDictionary
281
     1
  3
Layout1
350
1E
  3
Layout2
350
26
  3
Model
350
22
  0
DICTIONARY
  5
43
102
{ACAD_REACTORS
330
C
102
}
330
C
100
AcDbDictionary
281
     1
  3
ByBlock
350
45
  3
ByLayer
350
44
  3
Global
350
46
  0
DICTIONARY
  5
5B
102
{ACAD_REACTORS
330
C
102
}
330
C
100
AcDbDictionary
281
     1
  3
Standard
350
5C
  0
DICTIONARY
  5
17
102
{ACAD_REACTORS
330
C
102
}
330
C
100
AcDbDictionary
281
     1
  3
Standard
350
18
  0
DICTIONARY
  5
19
102
{ACAD_REACTORS
330
C
102
}
330
C
100
AcDbDictionary
281
     1
  0
ACDBDICTIONARYWDFLT
  5
E
102
{ACAD_REACTORS
330
C
102
}
330
C
100
AcDbDictionary
281
     1
  3
Normal
350
F
100
AcDbDictionaryWithDefault
340
F
  0
DICTIONARY
  5
47
102
{ACAD_REACTORS
330
C
102
}
330
C
100
AcDbDictionary
281
     1
  3
A0
350
48
  3
A1
350
49
  3
A2
350
4A
  3
A3
350
4B
  3
A4
350
4C
  3
A5
350
4D
  3
A6
350
4E
  3
A7
350
4F
  3
A8
350
50
  3
A9
350
51
  3
B0
350
52
  3
B1
350
53
  3
B2
350
54
  3
B3
350
55
  3
B4
350
56
  3
B5
350
57
  3
B6
350
58
  0
DICTIONARY
  5
114
102
{ACAD_REACTORS
330
C
102
}
330
C
100
AcDbDictionary
281
     1
  0
DICTIONARY
  5
59
102
{ACAD_REACTORS
330
C
102
}
330
C
100
AcDbDictionary
281
     1
  3
Standard
350
5A
  0
DICTIONARY
  5
2A
102
{ACAD_REACTORS
330
C
102
}
330
C
100
AcDbDictionary
281
     1
  3
2dWireframe
350
2F
  3
Basic
350
32
  3
Brighten
350
36
  3
ColorChange
350
3A
  3
Conceptual
350
34
  3
Dim
350
35
  3
EdgeColorOff
350
3D
  3
Facepattern
350
39
  3
Flat
350
2B
  3
FlatWithEdges
350
2C
  3
Gouraud
350
2D
  3
GouraudWithEdges
350
2E
  3
Hidden
350
31
  3
JitterOff
350
3B
  3
Linepattern
350
38
  3
OverhangOff
350
3C
  3
Realistic
350
33
  3
Shaded
350
42
  3
Shaded with edges
350
41
  3
Shades of Gray
350
3E
  3
Sketchy
350
3F
  3
Thicken
350
37
  3
Wireframe
350
30
  3
X-Ray
350
40
  0
XRECORD
  5
110
102
{ACAD_REACTORS
330
C
102
}
330
C
100
AcDbXrecord
280
     1
 90
        1
330
5A
  0
DICTIONARY
  5
10C
102
{ACAD_REACTORS
330
C
102
}
330
C
100
AcDbDictionary
281
     1
  3
CANNOSCALE
350
10D
  3
CENTEREXE
350
115
  3
CENTERLTYPEFILE
350
116
  3
CMLEADERSTYLE
350
112
  3
CTABLESTYLE
350
111
  0
LAYOUT
  5
1E
102
{ACAD_REACTORS
330
1A
102
}
330
1A
100
AcDbPlotSettings
  1

  2
none_device
  4

  6

 40
0.0
 41
0.0
 42
0.0
 43
0.0
 44
0.0
 45
0.0
 46
0.0
 47
0.0
 48
0.0
 49
0.0
140
0.0
141
0.0
142
1.0
143
1.0
 70
   688
 72
     1
 73
     0
 74
     5
  7

 75
    16
 76
     0
 77
     2
 78
   300
147
1.0
148
0.0
149
0.0
100
AcDbLayout
  1
Layout1
 70
     1
 71
     1
 10
0.0
 20
0.0
 11
420.0
 21
297.0
 12
0.0
 22
0.0
 32
0.0
 14
1.0000000000E+20
 24
1.0000000000E+20
 34
1.0000000000E+20
 15
-1.0000000000E+20
 25
-1.0000000000E+20
 35
-1.0000000000E+20
146
0.0
 13
0.0
 23
0.0
 33
0.0
 16
1.0
 26
0.0
 36
0.0
 17
0.0
 27
1.0
 37
0.0
 76
     0
330
1B
  0
LAYOUT
  5
26
102
{ACAD_REACTORS
330
1A
102
}
330
1A
100
AcDbPlotSettings
  1

  2
none_device
  4

  6

 40
0.0
 41
0.0
 42
0.0
 43
0.0
 44
0.0
 45
0.0
 46
0.0
 47
0.0
 48
0.0
 49
0.0
140
0.0
141
0.0
142
1.0
143
1.0
 70
   688
 72
     1
 73
     0
 74
     5
  7

 75
    16
 76
     0
 77
     2
 78
   300
147
1.0
148
0.0
149
0.0
100
AcDbLayout
  1
Layout2
 70
     1
 71
     2
 10
0.0
 20
0.0
 11
0.0
 21
0.0
 12
0.0
 22
0.0
 32
0.0
 14
0.0
 24
0.0
 34
0.0
 15
0.0
 25
0.0
 35
0.0
146
0.0
 13
0.0
 23
0.0
 33
0.0
 16
1.0
 26
0.0
 36
0.0
 17
0.0
 27
1.0
 37
0.0
 76
     0
330
23
  0
LAYOUT
  5
22
102
{ACAD_REACTORS
330
1A
102
}
330
1A
100
AcDbPlotSettings
  1

  2
none_device
  4
Letter_(8.50_x_11.00_Inches)
  6

 40
6.35
 41
6.35
 42
6.35000508
 43
6.35000508
 44
215.9
 45
279.4
 46
0.0
 47
0.0
 48
0.0
 49
0.0
140
0.0
141
0.0
142
1.0
143
1.0
 70
  1712
 72
     1
 73
     0
 74
     0
  7

 75
     0
 76
     0
 77
     2
 78
   300
147
1.0
148
0.0
149
0.0
100
AcDbLayout
  1
Model
 70
     1
 71
     0
 10
0.0
 20
0.0
 11
420.0
 21
297.0
 12
0.0
 22
0.0
 32
0.0
 14
0.0
 24
0.0
 34
0.0
 15
420.0
 25
297.0
 35
0.0
146
0.0
 13
0.0
 23
0.0
 33
0.0
 16
1.0
 26
0.0
 36
0.0
 17
0.0
 27
1.0
 37
0.0
 76
     0
330
1F
331
29
  0
MATERIAL
  5
45
102
{ACAD_REACTORS
330
43
102
}
330
43
100
AcDbMaterial
  1
ByBlock
 72
     1
 94
      127
  0
MATERIAL
  5
44
102
{ACAD_REACTORS
330
43
102
}
330
43
100
AcDbMaterial
  1
ByLayer
 72
     1
 94
      127
  0
MATERIAL
  5
46
102
{ACAD_REACTORS
330
43
102
}
330
43
100
AcDbMaterial
  1
Global
 72
     1
 94
      127
  0
MLEADERSTYLE
  5
5C
102
{ACAD_REACTORS
330
5B
102
}
330
5B
100
AcDbMLeaderStyle
179
     2
170
     2
171
     1
172
     0
 90
        2
 40
0.0
 41
0.0
173
     1
 91
-1056964608
340
14
 92
       -2
290
     1
 42
2.0
291
     1
 43
8.0
  3
Standard
341
0
 44
4.0
300

342
11
174
     1
178
     6
175
     1
176
     0
 93
-1056964608
 45
4.0
292
     0
297
     0
 46
4.0
343
0
 94
-1056964608
 47
1.0
 49
1.0
140
1.0
293
     1
141
0.0
294
     1
177
     0
142
1.0
295
     0
296
     0
143
3.75
271
     0
272
     9
273
     9
298
     0
  0
MLINESTYLE
  5
18
102
{ACAD_REACTORS
330
17
102
}
330
17
100
AcDbMlineStyle
  2
Standard
 70
     0
  3

 62
   256
 51
90.0
 52
90.0
 71
     2
 49
0.5
 62
   256
  6
BYLAYER
 49
-0.5
 62
   256
  6
BYLAYER
  0
ACDBPLACEHOLDER
  5
F
102
{ACAD_REACTORS
330
E
102
}
330
E
  0
SCALE
  5
48
102
{ACAD_REACTORS
330
47
102
}
330
47
100
AcDbScale
 70
     0
300
1:1
140
1.0
141
1.0
290
     1
  0
SCALE
  5
49
102
{ACAD_REACTORS
330
47
102
}
330
47
100
AcDbScale
 70
     0
300
1:2
140
1.0
141
2.0
290
     0
  0
SCALE
  5
4A
102
{ACAD_REACTORS
330
47
102
}
330
47
100
AcDbScale
 70
     0
300
1:4
140
1.0
141
4.0
290
     0
  0
SCALE
  5
4B
102
{ACAD_REACTORS
330
47
102
}
330
47
100
AcDbScale
 70
     0
300
1:5
140
1.0
141
5.0
290
     0
  0
SCALE
  5
4C
102
{ACAD_REACTORS
330
47
102
}
330
47
100
AcDbScale
 70
     0
300
1:8
140
1.0
141
8.0
290
     0
  0
SCALE
  5
4D
102
{ACAD_REACTORS
330
47
102
}
330
47
100
AcDbScale
 70
     0
300
1:10
140
1.0
141
10.0
290
     0
  0
SCALE
  5
4E
102
{ACAD_REACTORS
330
47
102
}
330
47
100
AcDbScale
 70
     0
300
1:16
140
1.0
141
16.0
290
     0
  0
SCALE
  5
4F
102
{ACAD_REACTORS
330
47
102
}
330
47
100
AcDbScale
 70
     0
300
1:20
140
1.0
141
20.0
290
     0
  0
SCALE
  5
50
102
{ACAD_REACTORS
330
47
102
}
330
47
100
AcDbScale
 70
     0
300
1:30
140
1.0
141
30.0
290
     0
  0
SCALE
  5
51
102
{ACAD_REACTORS
330
47
102
}
330
47
100
AcDbScale
 70
     0
300
1:40
140
1.0
141
40.0
290
     0
  0
SCALE
  5
52
102
{ACAD_REACTORS
330
47
102
}
330
47
100
AcDbScale
 70
     0
300
1:50
140
1.0
141
50.0
290
     0
  0
SCALE
  5
53
102
{ACAD_REACTORS
330
47
102
}
330
47
100
AcDbScale
 70
     0
300
1:100
140
1.0
141
100.0
290
     0
  0
SCALE
  5
54
102
{ACAD_REACTORS
330
47
102
}
330
47
100
AcDbScale
 70
     0
300
2:1
140
2.0
141
1.0
290
     0
  0
SCALE
  5
55
102
{ACAD_REACTORS
330
47
102
}
330
47
100
AcDbScale
 70
     0
300
4:1
140
4.0
141
1.0
290
     0
  0
SCALE
  5
56
102
{ACAD_REACTORS
330
47
102
}
330
47
100
AcDbScale
 70
     0
300
8:1
140
8.0
141
1.0
290
     0
  0
SCALE
  5
57
102
{ACAD_REACTORS
330
47
102
}
330
47
100
AcDbScale
 70
     0
300
10:1
140
10.0
141
1.0
290
     0
  0
SCALE
  5
58
102
{ACAD_REACTORS
330
47
102
}
330
47
100
AcDbScale
 70
     0
300
100:1
140
100.0
141
1.0
290
     0
  0
TABLESTYLE
  5
5A
102
{ACAD_REACTORS
330
59
102
}
102
{ACAD_XDICTIONARY
360
10E
102
}
330
59
100
AcDbTableStyle
  3
Standard
 70
     0
 71
     0
 40
0.06
 41
0.06
280
     0
281
     0
  7
Standard
140
4.5
170
     2
 62
     0
 63
   257
283
     0
 90
        4
 91
        0
  1

274
    -2
284
     1
 64
     0
275
    -2
285
     1
 65
     0
276
    -2
286
     1
 66
     0
277
    -2
287
     1
 67
     0
278
    -2
288
     1
 68
     0
279
    -2
289
     1
 69
     0
  7
Standard
140
6.0
170
     5
 62
     0
 63
   257
283
     0
 90
        4
 91
        0
  1

274
    -2
284
     1
 64
     0
275
    -2
285
     1
 65
     0
276
    -2
286
     1
 66
     0
277
    -2
287
     1
 67
     0
278
    -2
288
     1
 68
     0
279
    -2
289
     1
 69
     0
  7
Standard
140
4.5
170
     5
 62
     0
 63
   257
283
     0
 90
        4
 91
        0
  1

274
    -2
284
     1
 64
     0
275
    -2
285
     1
 65
     0
276
    -2
286
     1
 66
     0
277
    -2
287
     1
 67
     0
278
    -2
288
     1
 68
     0
279
    -2
289
     1
 69
     0
  0
VISUALSTYLE
  5
2F
102
{ACAD_REACTORS
330
2A
102
}
330
2A
100
AcDbVisualStyle
  2
2dWireframe
 70
     4
177
     3
291
     0
 70
    58
 90
        0
176
     1
 90
        2
176
     1
 90
        0
176
     1
 90
        0
176
     1
 40
0.6
176
     1
 40
30.0
176
     1
 62
     7
420
 16777215
176
     1
 90
        1
176
     1
 90
        4
176
     1
 62
     7
176
     1
 62
   257
176
     1
 90
        1
176
     1
 90
        1
176
     1
 40
1.0
176
     1
 90
        0
176
     1
 62
   257
176
     1
 40
1.0
176
     1
 90
        1
176
     1
 90
        6
176
     1
 90
        2
176
     1
 62
     7
176
     1
 90
        5
176
     1
 90
        0
176
     1
 90
        0
176
     1
290
     0
176
     1
 90
        1
176
     1
 40
0.0
176
     1
 90
        0
176
     1
290
     1
176
     1
290
     1
176
     1
290
     0
176
     1
290
     0
176
     1
290
     0
176
     1
290
     0
176
     1
290
     0
176
     1
290
     0
176
     1
290
     0
176
     1
 90
       50
176
     1
 40
0.0
176
     1
 40
1.0
176
     1
 90
        0
176
     1
 62
    18
420
        0
176
     1
 90
       50
176
     1
 90
        3
176
     1
 62
     5
420
      255
176
     1
290
     0
176
     1
 90
       50
176
     1
 90
       50
176
     1
 90
       50
176
     1
290
     0
176
     1
 90
       50
176
     1
 62
   256
176
     0
 40
1.0
176
     0
 90
        2
176
     1
  1
strokes_ogs.tif
176
     1
290
     0
176
     1
 40
1.0
176
     1
 40
1.0
176
     1
  0
VISUALSTYLE
  5
32
102
{ACAD_REACTORS
330
2A
102
}
330
2A
100
AcDbVisualStyle
  2
Basic
 70
     7
177
     3
291
     1
 70
    58
 90
        1
176
     1
 90
        0
176
     1
 90
        1
176
     1
 90
        0
176
     1
 40
0.6
176
     1
 40
30.0
176
     1
 62
     7
420
 16777215
176
     1
 90
        0
176
     1
 90
        4
176
     1
 62
     7
176
     1
 62
   257
176
     1
 90
        1
176
     1
 90
        1
176
     1
 40
1.0
176
     1
 90
        8
176
     1
 62
     7
176
     1
 40
1.0
176
     1
 90
        1
176
     1
 90
        6
176
     1
 90
        2
176
     1
 62
     7
176
     1
 90
        5
176
     1
 90
        0
176
     1
 90
        0
176
     1
290
     0
176
     1
 90
        1
176
     1
 40
0.0
176
     1
 90
        0
176
     1
290
     0
176
     1
290
     1
176
     1
290
     1
176
     1
290
     0
176
     1
290
     0
176
     1
290
     0
176
     1
290
     0
176
     1
290
     0
176
     1
290
     0
176
     1
 90
       50
176
     1
 40
0.0
176
     1
 40
1.0
176
     1
 90
        0
176
     1
 62
    18
420
        0
176
     1
 90
       50
176
     1
 90
        3
176
     1
 62
     5
420
      255
176
     1
290
     0
176
     1
 90
       50
176
     1
 90
       50
176
     1
 90
       50
176
     1
290
     0
176
     1
 90
       50
176
     1
 62
   256
176
     0
 40
1.0
176
     0
 90
        2
176
     1
  1
strokes_ogs.tif
176
     1
290
     0
176
     1
 40
1.0
176
     1
 40
1.0
176
     1
  0
VISUALSTYLE
  5
36
102
{ACAD_REACTORS
330
2A
102
}
330
2A
100
AcDbVisualStyle
  2
Brighten
 70
    12
177
     3
291
     1
 70
    58
 90
        2
176
     1
 90
        2
176
     1
 90
        0
176
     1
 90
        0
176
     1
 40
0.6
176
     1
 40
30.0
176
     1
 62
     7
420
 16777215
176
     1
 90
        1
176
     1
 90
        4
176
     1
 62
     7
176
     1
 62
   257
176
     1
 90
        1
176
     1
 90
        1
176
     1
 40
1.0
176
     1
 90
        8
176
     1
 62
     7
176
     1
 40
1.0
176
     1
 90
        1
176
     1
 90
        6
176
     1
 90
        2
176
     1
 62
     7
176
     1
 90
        5
176
     1
 90
        0
176
     1
 90
        0
176
     1
290
     0
176
     1
 90
        1
176
     1
 40
50.0
176
     1
 90
        0
176
     1
290
     0
176
     1
290
     1
176
     1
290
     1
176
     1
290
     0
176
     1
290
     0
176
     1
290
     0
176
     1
290
     0
176
     1
290
     0
176
     1
290
     0
176
     1
 90
       50
176
     1
 40
0.0
176
     1
 40
1.0
176
     1
 90
        0
176
     1
 62
    18
420
        0
176
     1
 90
       50
176
     1
 90
        3
176
     1
 62
     5
420
      255
176
     1
290
     0
176
     1
 90
       50
176
     1
 90
       50
176
     1
 90
       50
176
     1
290
     0
176
     1
 90
       50
176
     1
 62
   256
176
     0
 40
1.0
176
     0
 90
        2
176
     1
  1
strokes_ogs.tif
176
     1
290
     0
176
     1
 40
1.0
176
     1
 40
1.0
176
     1
  0
VISUALSTYLE
  5
3A
102
{ACAD_REACTORS
330
2A
102
}
330
2A
100
AcDbVisualStyle
  2
ColorChange
 70
    16
177
     3
291
     1
 70
    58
 90
        2
176
     1
 90
        2
176
     1
 90
        3
176
     1
 90
        0
176
     1
 40
0.6
176
     1
 40
30.0
176
     1
 62
     8
420
  8421504
176
     1
 90
        1
176
     1
 90
        4
176
     1
 62
     7
176
     1
 62
   257
176
     1
 90
        1
176
     1
 90
        1
176
     1
 40
1.0
176
     1
 90
        8
176
     1
 62
     8
420
  8421504
176
     1
 40
1.0
176
     1
 90
        1
176
     1
 90
        6
176
     1
 90
        2
176
     1
 62
     7
176
     1
 90
        5
176
     1
 90
        0
176
     1
 90
        0
176
     1
290
     0
176
     1
 90
        1
176
     1
 40
0.0
176
     1
 90
        0
176
     1
290
     0
176
     1
290
     1
176
     1
290
     1
176
     1
290
     0
176
     1
290
     0
176
     1
290
     0
176
     1
290
     0
176
     1
290
     0
176
     1
290
     0
176
     1
 90
       50
176
     1
 40
0.0
176
     1
 40
1.0
176
     1
 90
        0
176
     1
 62
    18
420
        0
176
     1
 90
       50
176
     1
 90
        3
176
     1
 62
     5
420
      255
176
     1
290
     0
176
     1
 90
       50
176
     1
 90
       50
176
     1
 90
       50
176
     1
290
     0
176
     1
 90
       50
176
     1
 62
   256
176
     0
 40
1.0
176
     0
 90
        2
176
     1
  1
strokes_ogs.tif
176
     1
290
     0
176
     1
 40
1.0
176
     1
 40
1.0
176
     1
  0
VISUALSTYLE
  5
34
102
{ACAD_REACTORS
330
2A
102
}
330
2A
100
AcDbVisualStyle
  2
Conceptual
 70
     9
177
     3
291
     0
 70
    58
 90
        3
176
     1
 90
        2
176
     1
 90
        0
176
     1
 90
        0
176
     1
 40
0.6
176
     1
 40
30.0
176
     1
 62
     7
420
 16777215
176
     1
 90
        2
176
     1
 90
        2
176
     1
 62
     7
176
     1
 62
   257
176
     1
 90
        1
176
     1
 90
        1
176
     1
 40
179.0
176
     1
 90
        8
176
     1
 62
     7
176
     1
 40
1.0
176
     1
 90
        1
176
     1
 90
        6
176
     1
 90
        2
176
     1
 62
     7
176
     1
 90
        3
176
     1
 90
        0
176
     1
 90
        0
176
     1
290
     0
176
     1
 90
        1
176
     1
 40
0.0
176
     1
 90
        0
176
     1
290
     0
176
     1
290
     1
176
     1
290
     1
176
     1
290
     0
176
     1
290
     0
176
     1
290
     0
176
     1
290
     0
176
     1
290
     0
176
     1
290
     0
176
     1
 90
       50
176
     1
 40
0.0
176
     1
 40
1.0
176
     1
 90
        0
176
     1
 62
    18
420
        0
176
     1
 90
       50
176
     1
 90
        3
176
     1
 62
     5
420
      255
176
     1
290
     0
176
     1
 90
       50
176
     1
 90
       50
176
     1
 90
       50
176
     1
290
     0
176
     1
 90
       50
176
     1
 62
   256
176
     0
 40
1.0
176
     0
 90
        2
176
     1
  1
strokes_ogs.tif
176
     1
290
     0
176
     1
 40
1.0
176
     1
 40
1.0
176
     1
  0
VISUALSTYLE
  5
35
102
{ACAD_REACTORS
330
2A
102
}
330
2A
100
AcDbVisualStyle
  2
Dim
 70
    11
177
     3
291
     1
 70
    58
 90
        2
176
     1
 90
        2
176
     1
 90
        0
176
     1
 90
        0
176
     1
 40
0.6
176
     1
 40
30.0
176
     1
 62
     7
420
 16777215
176
     1
 90
        1
176
     1
 90
        4
176
     1
 62
     7
176
     1
 62
   257
176
     1
 90
        1
176
     1
 90
        1
176
     1
 40
1.0
176
     1
 90
        8
176
     1
 62
     7
176
     1
 40
1.0
176
     1
 90
        1
176
     1
 90
        6
176
     1
 90
        2
176
     1
 62
     7
176
     1
 90
        5
176
     1
 90
        0
176
     1
 90
        0
176
     1
290
     0
176
     1
 90
        1
176
     1
 40
-50.0
176
     1
 90
        0
176
     1
290
     0
176
     1
290
     1
176
     1
290
     1
176
     1
290
     0
176
     1
290
     0
176
     1
290
     0
176
     1
290
     0
176
     1
290
     0
176
     1
290
     0
176
     1
 90
       50
176
     1
 40
0.0
176
     1
 40
1.0
176
     1
 90
        0
176
     1
 62
    18
420
        0
176
     1
 90
       50
176
     1
 90
        3
176
     1
 62
     5
420
      255
176
     1
290
     0
176
     1
 90
       50
176
     1
 90
       50
176
     1
 90
       50
176
     1
290
     0
176
     1
 90
       50
176
     1
 62
   256
176
     0
 40
1.0
176
     0
 90
        2
176
     1
  1
strokes_ogs.tif
176
     1
290
     0
176
     1
 40
1.0
176
     1
 40
1.0
176
     1
  0
VISUALSTYLE
  5
3D
102
{ACAD_REACTORS
330
2A
102
}
330
2A
100
AcDbVisualStyle
  2
EdgeColorOff
 70
    22
177
     3
291
     1
 70
    58
 90
        2
176
     0
 90
        2
176
     0
 90
        0
176
     0
 90
        0
176
     0
 40
0.6
176
     0
 40
30.0
176
     0
 62
     7
420
 16777215
176
     0
 90
        1
176
     0
 90
        4
176
     0
 62
     7
176
     0
 62
   257
176
     0
 90
        1
176
     0
 90
        1
176
     0
 40
1.0
176
     0
 90
        8
176
     2
 62
     7
176
     0
 40
1.0
176
     0
 90
        1
176
     0
 90
        6
176
     0
 90
        2
176
     0
 62
     7
176
     0
 90
        5
176
     0
 90
        0
176
     0
 90
        0
176
     0
290
     0
176
     0
 90
        1
176
     0
 40
0.0
176
     0
 90
        0
176
     0
290
     0
176
     0
290
     1
176
     0
290
     1
176
     0
290
     0
176
     0
290
     0
176
     0
290
     0
176
     0
290
     0
176
     0
290
     0
176
     0
290
     0
176
     0
 90
       50
176
     0
 40
0.0
176
     0
 40
1.0
176
     0
 90
        0
176
     0
 62
    18
420
        0
176
     0
 90
       50
176
     0
 90
        3
176
     0
 62
     5
420
      255
176
     0
290
     0
176
     0
 90
       50
176
     0
 90
       50
176
     0
 90
       50
176
     0
290
     0
176
     0
 90
       50
176
     0
 62
   256
176
     0
 40
1.0
176
     0
 90
        2
176
     0
  1
strokes_ogs.tif
176
     0
290
     0
176
     0
 40
1.0
176
     0
 40
1.0
176
     0
  0
VISUALSTYLE
  5
39
102
{ACAD_REACTORS
330
2A
102
}
330
2A
100
AcDbVisualStyle
  2
Facepattern
 70
    15
177
     3
291
     1
 70
    58
 90
        2
176
     1
 90
        2
176
     1
 90
        0
176
     1
 90
        0
176
     1
 40
0.6
176
     1
 40
30.0
176
     1
 62
     7
420
 16777215
176
     1
 90
        1
176
     1
 90
        4
176
     1
 62
     7
176
     1
 62
   257
176
     1
 90
        1
176
     1
 90
        1
176
     1
 40
1.0
176
     1
 90
        8
176
     1
 62
     7
176
     1
 40
1.0
176
     1
 90
        1
176
     1
 90
        6
176
     1
 90
        2
176
     1
 62
     7
176
     1
 90
        5
176
     1
 90
        0
176
     1
 90
        0
176
     1
290
     0
176
     1
 90
        1
176
     1
 40
0.0
176
     1
 90
        0
176
     1
290
     0
176
     1
290
     1
176
     1
290
     1
176
     1
290
     0
176
     1
290
     0
176
     1
290
     0
176
     1
290
     0
176
     1
290
     0
176
     1
290
     0
176
     1
 90
       50
176
     1
 40
0.0
176
     1
 40
1.0
176
     1
 90
        0
176
     1
 62
    18
420
        0
176
     1
 90
       50
176
     1
 90
        3
176
     1
 62
     5
420
      255
176
     1
290
     0
176
     1
 90
       50
176
     1
 90
       50
176
     1
 90
       50
176
     1
290
     0
176
     1
 90
       50
176
     1
 62
   256
176
     0
 40
1.0
176
     0
 90
        2
176
     1
  1
strokes_ogs.tif
176
     1
290
     0
176
     1
 40
1.0
176
     1
 40
1.0
176
     1
  0
VISUALSTYLE
  5
2B
102
{ACAD_REACTORS
330
2A
102
}
330
2A
100
AcDbVisualStyle
  2
Flat
 70
     0
177
     3
291
     1
 70
    58
 90
        2
176
     1
 90
        1
176
     1
 90
        1
176
     1
 90
        2
176
     1
 40
0.6
176
     1
 40
30.0
176
     1
 62
     7
420
 16777215
176
     1
 90
        0
176
     1
 90
        0
176
     1
 62
     7
176
     1
 62
   257
176
     1
 90
        1
176
     1
 90
        1
176
     1
 40
1.0
176
     1
 90
        8
176
     1
 62
     7
176
     1
 40
1.0
176
     1
 90
        1
176
     1
 90
        6
176
     1
 90
        2
176
     1
 62
     7
176
     1
 90
        5
176
     1
 90
        0
176
     1
 90
        0
176
     1
290
     0
176
     1
 90
       13
176
     1
 40
0.0
176
     1
 90
        0
176
     1
290
     0
176
     1
290
     1
176
     1
290
     1
176
     1
290
     0
176
     1
290
     0
176
     1
290
     0
176
     1
290
     0
176
     1
290
     0
176
     1
290
     0
176
     1
 90
       50
176
     1
 40
0.0
176
     1
 40
1.0
176
     1
 90
        0
176
     1
 62
    18
420
        0
176
     1
 90
       50
176
     1
 90
        3
176
     1
 62
     5
420
      255
176
     1
290
     0
176
     1
 90
       50
176
     1
 90
       50
176
     1
 90
       50
176
     1
290
     0
176
     1
 90
       50
176
     1
 62
   256
176
     0
 40
1.0
176
     0
 90
        2
176
     1
  1
strokes_ogs.tif
176
     1
290
     0
176
     1
 40
1.0
176
     1
 40
1.0
176
     1
  0
VISUALSTYLE
  5
2C
102
{ACAD_REACTORS
330
2A
102
}
330
2A
100
AcDbVisualStyle
  2
FlatWithEdges
 70
     1
177
     3
291
     1
 70
    58
 90
        2
176
     1
 90
        1
176
     1
 90
        1
176
     1
 90
        2
176
     1
 40
0.6
176
     1
 40
30.0
176
     1
 62
     7
420
 16777215
176
     1
 90
        1
176
     1
 90
        0
176
     1
 62
     7
176
     1
 62
   257
176
     1
 90
        1
176
     1
 90
        1
176
     1
 40
1.0
176
     1
 90
        0
176
     1
 62
   257
176
     1
 40
1.0
176
     1
 90
        1
176
     1
 90
        6
176
     1
 90
        2
176
     1
 62
     7
176
     1
 90
        5
176
     1
 90
        0
176
     1
 90
        0
176
     1
290
     0
176
     1
 90
       13
176
     1
 40
0.0
176
     1
 90
        0
176
     1
290
     0
176
     1
290
     1
176
     1
290
     1
176
     1
290
     0
176
     1
290
     0
176
     1
290
     0
176
     1
290
     0
176
     1
290
     0
176
     1
290
     0
176
     1
 90
       50
176
     1
 40
0.0
176
     1
 40
1.0
176
     1
 90
        0
176
     1
 62
    18
420
        0
176
     1
 90
       50
176
     1
 90
        3
176
     1
 62
     5
420
      255
176
     1
290
     0
176
     1
 90
       50
176
     1
 90
       50
176
     1
 90
       50
176
     1
290
     0
176
     1
 90
       50
176
     1
 62
   256
176
     0
 40
1.0
176
     0
 90
        2
176
     1
  1
strokes_ogs.tif
176
     1
290
     0
176
     1
 40
1.0
176
     1
 40
1.0
176
     1
  0
VISUALSTYLE
  5
2D
102
{ACAD_REACTORS
330
2A
102
}
330
2A
100
AcDbVisualStyle
  2
Gouraud
 70
     2
177
     3
291
     1
 70
    58
 90
        2
176
     1
 90
        2
176
     1
 90
        1
176
     1
 90
        2
176
     1
 40
0.6
176
     1
 40
30.0
176
     1
 62
     7
420
 16777215
176
     1
 90
        0
176
     1
 90
        0
176
     1
 62
     7
176
     1
 62
   257
176
     1
 90
        1
176
     1
 90
        1
176
     1
 40
1.0
176
     1
 90
        0
176
     1
 62
     7
176
     1
 40
1.0
176
     1
 90
        1
176
     1
 90
        6
176
     1
 90
        2
176
     1
 62
     7
176
     1
 90
        5
176
     1
 90
        0
176
     1
 90
        0
176
     1
290
     0
176
     1
 90
       13
176
     1
 40
0.0
176
     1
 90
        0
176
     1
290
     0
176
     1
290
     1
176
     1
290
     1
176
     1
290
     0
176
     1
290
     0
176
     1
290
     0
176
     1
290
     0
176
     1
290
     0
176
     1
290
     0
176
     1
 90
       50
176
     1
 40
0.0
176
     1
 40
1.0
176
     1
 90
        0
176
     1
 62
    18
420
        0
176
     1
 90
       50
176
     1
 90
        3
176
     1
 62
     5
420
      255
176
     1
290
     0
176
     1
 90
       50
176
     1
 90
       50
176
     1
 90
       50
176
     1
290
     0
176
     1
 90
       50
176
     1
 62
   256
176
     0
 40
1.0
176
     0
 90
        2
176
     1
  1
strokes_ogs.tif
176
     1
290
     0
176
     1
 40
1.0
176
     1
 40
1.0
176
     1
  0
VISUALSTYLE
  5
2E
102
{ACAD_REACTORS
330
2A
102
}
330
2A
100
AcDbVisualStyle
  2
GouraudWithEdges
 70
     3
177
     3
291
     1
 70
    58
 90
        2
176
     1
 90
        2
176
     1
 90
        1
176
     1
 90
        2
176
     1
 40
0.6
176
     1
 40
30.0
176
     1
 62
     7
420
 16777215
176
     1
 90
        1
176
     1
 90
        0
176
     1
 62
     7
176
     1
 62
   257
176
     1
 90
        1
176
     1
 90
        1
176
     1
 40
1.0
176
     1
 90
        0
176
     1
 62
   257
176
     1
 40
1.0
176
     1
 90
        1
176
     1
 90
        6
176
     1
 90
        2
176
     1
 62
     7
176
     1
 90
        5
176
     1
 90
        0
176
     1
 90
        0
176
     1
290
     0
176
     1
 90
       13
176
     1
 40
0.0
176
     1
 90
        0
176
     1
290
     0
176
     1
290
     1
176
     1
290
     1
176
     1
290
     0
176
     1
290
     0
176
     1
290
     0
176
     1
290
     0
176
     1
290
     0
176
     1
290
     0
176
     1
 90
       50
176
     1
 40
0.0
176
     1
 40
1.0
176
     1
 90
        0
176
     1
 62
    18
420
        0
176
     1
 90
       50
176
     1
 90
        3
176
     1
 62
     5
420
      255
176
     1
290
     0
176
     1
 90
       50
176
     1
 90
       50
176
     1
 90
       50
176
     1
290
     0
176
     1
 90
       50
176
     1
 62
   256
176
     0
 40
1.0
176
     0
 90
        2
176
     1
  1
strokes_ogs.tif
176
     1
290
     0
176
     1
 40
1.0
176
     1
 40
1.0
176
     1
  0
VISUALSTYLE
  5
31
102
{ACAD_REACTORS
330
2A
102
}
330
2A
100
AcDbVisualStyle
  2
Hidden
 70
     6
177
     3
291
     0
 70
    58
 90
        1
176
     1
 90
        2
176
     1
 90
        2
176
     1
 90
        0
176
     1
 40
0.6
176
     1
 40
30.0
176
     1
 62
     7
420
 16777215
176
     1
 90
        2
176
     1
 90
        2
176
     1
 62
     7
176
     1
 62
   257
176
     1
 90
        2
176
     1
 90
        1
176
     1
 40
40.0
176
     1
 90
        0
176
     1
 62
   257
176
     1
 40
1.0
176
     1
 90
        1
176
     1
 90
        6
176
     1
 90
        2
176
     1
 62
     7
176
     1
 90
        3
176
     1
 90
        0
176
     1
 90
        0
176
     1
290
     0
176
     1
 90
        1
176
     1
 40
0.0
176
     1
 90
        0
176
     1
290
     0
176
     1
290
     1
176
     1
290
     1
176
     1
290
     0
176
     1
290
     0
176
     1
290
     0
176
     1
290
     0
176
     1
290
     0
176
     1
290
     0
176
     1
 90
       50
176
     1
 40
0.0
176
     1
 40
1.0
176
     1
 90
        0
176
     1
 62
    18
420
        0
176
     1
 90
       50
176
     1
 90
        3
176
     1
 62
     5
420
      255
176
     1
290
     0
176
     1
 90
       50
176
     1
 90
       50
176
     1
 90
       50
176
     1
290
     0
176
     1
 90
       50
176
     1
 62
   256
176
     0
 40
1.0
176
     0
 90
        2
176
     1
  1
strokes_ogs.tif
176
     1
290
     0
176
     1
 40
1.0
176
     1
 40
1.0
176
     1
  0
VISUALSTYLE
  5
3B
102
{ACAD_REACTORS
330
2A
102
}
330
2A
100
AcDbVisualStyle
  2
JitterOff
 70
    20
177
     3
291
     1
 70
    58
 90
        2
176
     0
 90
        2
176
     0
 90
        0
176
     0
 90
        0
176
     0
 40
0.6
176
     0
 40
30.0
176
     0
 62
     7
420
 16777215
176
     0
 90
        1
176
     0
 90
        4
176
     0
 62
     7
176
     0
 62
   257
176
     0
 90
        1
176
     0
 90
        1
176
     0
 40
1.0
176
     0
 90
       10
176
     2
 62
     7
176
     0
 40
1.0
176
     0
 90
        1
176
     0
 90
        6
176
     0
 90
        2
176
     0
 62
     7
176
     0
 90
        5
176
     0
 90
        0
176
     0
 90
        0
176
     0
290
     0
176
     0
 90
        1
176
     0
 40
0.0
176
     0
 90
        0
176
     0
290
     0
176
     0
290
     1
176
     0
290
     1
176
     0
290
     0
176
     0
290
     0
176
     0
290
     0
176
     0
290
     0
176
     0
290
     0
176
     0
290
     0
176
     0
 90
       50
176
     0
 40
0.0
176
     0
 40
1.0
176
     0
 90
        0
176
     0
 62
    18
420
        0
176
     0
 90
       50
176
     0
 90
        3
176
     0
 62
     5
420
      255
176
     0
290
     0
176
     0
 90
       50
176
     0
 90
       50
176
     0
 90
       50
176
     0
290
     0
176
     0
 90
       50
176
     0
 62
   256
176
     0
 40
1.0
176
     0
 90
        2
176
     0
  1
strokes_ogs.tif
176
     0
290
     0
176
     0
 40
1.0
176
     0
 40
1.0
176
     0
  0
VISUALSTYLE
  5
38
102
{ACAD_REACTORS
330
2A
102
}
330
2A
100
AcDbVisualStyle
  2
Linepattern
 70
    14
177
     3
291
     1
 70
    58
 90
        2
176
     1
 90
        2
176
     1
 90
        0
176
     1
 90
        0
176
     1
 40
0.6
176
     1
 40
30.0
176
     1
 62
     7
420
 16777215
176
     1
 90
        1
176
     1
 90
        4
176
     1
 62
     7
176
     1
 62
   257
176
     1
 90
        7
176
     1
 90
        7
176
     1
 40
1.0
176
     1
 90
        8
176
     1
 62
     7
176
     1
 40
1.0
176
     1
 90
        1
176
     1
 90
        6
176
     1
 90
        2
176
     1
 62
     7
176
     1
 90
        5
176
     1
 90
        0
176
     1
 90
        0
176
     1
290
     0
176
     1
 90
        1
176
     1
 40
0.0
176
     1
 90
        0
176
     1
290
     0
176
     1
290
     1
176
     1
290
     1
176
     1
290
     0
176
     1
290
     0
176
     1
290
     0
176
     1
290
     0
176
     1
290
     0
176
     1
290
     0
176
     1
 90
       50
176
     1
 40
0.0
176
     1
 40
1.0
176
     1
 90
        0
176
     1
 62
    18
420
        0
176
     1
 90
       50
176
     1
 90
        3
176
     1
 62
     5
420
      255
176
     1
290
     0
176
     1
 90
       50
176
     1
 90
       50
176
     1
 90
       50
176
     1
290
     0
176
     1
 90
       50
176
     1
 62
   256
176
     0
 40
1.0
176
     0
 90
        2
176
     1
  1
strokes_ogs.tif
176
     1
290
     0
176
     1
 40
1.0
176
     1
 40
1.0
176
     1
  0
VISUALSTYLE
  5
3C
102
{ACAD_REACTORS
330
2A
102
}
330
2A
100
AcDbVisualStyle
  2
OverhangOff
 70
    21
177
     3
291
     1
 70
    58
 90
        2
176
     0
 90
        2
176
     0
 90
        0
176
     0
 90
        0
176
     0
 40
0.6
176
     0
 40
30.0
176
     0
 62
     7
420
 16777215
176
     0
 90
        1
176
     0
 90
        4
176
     0
 62
     7
176
     0
 62
   257
176
     0
 90
        1
176
     0
 90
        1
176
     0
 40
1.0
176
     0
 90
        9
176
     2
 62
     7
176
     0
 40
1.0
176
     0
 90
        1
176
     0
 90
        6
176
     0
 90
        2
176
     0
 62
     7
176
     0
 90
        5
176
     0
 90
        0
176
     0
 90
        0
176
     0
290
     0
176
     0
 90
        1
176
     0
 40
0.0
176
     0
 90
        0
176
     0
290
     0
176
     0
290
     1
176
     0
290
     1
176
     0
290
     0
176
     0
290
     0
176
     0
290
     0
176
     0
290
     0
176
     0
290
     0
176
     0
290
     0
176
     0
 90
       50
176
     0
 40
0.0
176
     0
 40
1.0
176
     0
 90
        0
176
     0
 62
    18
420
        0
176
     0
 90
       50
176
     0
 90
        3
176
     0
 62
     5
420
      255
176
     0
290
     0
176
     0
 90
       50
176
     0
 90
       50
176
     0
 90
       50
176
     0
290
     0
176
     0
 90
       50
176
     0
 62
   256
176
     0
 40
1.0
176
     0
 90
        2
176
     0
  1
strokes_ogs.tif
176
     0
290
     0
176
     0
 40
1.0
176
     0
 40
1.0
176
     0
  0
VISUALSTYLE
  5
33
102
{ACAD_REACTORS
330
2A
102
}
330
2A
100
AcDbVisualStyle
  2
Realistic
 70
     8
177
     3
291
     0
 70
    58
 90
        2
176
     1
 90
        3
176
     1
 90
        0
176
     1
 90
        2
176
     1
 40
0.6
176
     1
 40
30.0
176
     1
 62
     7
420
 16777215
176
     1
 90
        0
176
     1
 90
        0
176
     1
 62
     7
176
     1
 62
   257
176
     1
 90
        1
176
     1
 90
        1
176
     1
 40
1.0
176
     1
 90
        8
176
     1
 62
   257
176
     1
 40
1.0
176
     1
 90
        1
176
     1
 90
        6
176
     1
 90
        2
176
     1
 62
     7
176
     1
 90
        3
176
     1
 90
        0
176
     1
 90
        0
176
     1
290
     0
176
     1
 90
       13
176
     1
 40
0.0
176
     1
 90
        0
176
     1
290
     0
176
     1
290
     1
176
     1
290
     1
176
     1
290
     0
176
     1
290
     0
176
     1
290
     0
176
     1
290
     0
176
     1
290
     0
176
     1
290
     0
176
     1
 90
       50
176
     1
 40
0.0
176
     1
 40
1.0
176
     1
 90
        0
176
     1
 62
    18
420
        0
176
     1
 90
       50
176
     1
 90
        3
176
     1
 62
     5
420
      255
176
     1
290
     0
176
     1
 90
       50
176
     1
 90
       50
176
     1
 90
       50
176
     1
290
     0
176
     1
 90
       50
176
     1
 62
   256
176
     0
 40
1.0
176
     0
 90
        2
176
     1
  1
strokes_ogs.tif
176
     1
290
     0
176
     1
 40
1.0
176
     1
 40
1.0
176
     1
  0
VISUALSTYLE
  5
42
102
{ACAD_REACTORS
330
2A
102
}
330
2A
100
AcDbVisualStyle
  2
Shaded
 70
    27
177
     3
291
     0
 70
    58
 90
        2
176
     1
 90
        2
176
     1
 90
        1
176
     1
 90
        2
176
     1
 40
0.6
176
     1
 40
30.0
176
     1
 62
     7
420
 16777215
176
     1
 90
        0
176
     1
 90
        4
176
     1
 62
     7
176
     1
 62
   257
176
     1
 90
        1
176
     1
 90
        1
176
     1
 40
1.0
176
     1
 90
        8
176
     1
 62
   257
176
     1
 40
1.0
176
     1
 90
        1
176
     1
 90
        6
176
     1
 90
        2
176
     1
 62
     8
420
  7895160
176
     1
 90
        3
176
     1
 90
        0
176
     1
 90
        0
176
     1
290
     0
176
     1
 90
        5
176
     1
 40
0.0
176
     1
 90
        0
176
     1
290
     0
176
     1
290
     1
176
     1
290
     1
176
     1
290
     0
176
     1
290
     0
176
     1
290
     0
176
     1
290
     0
176
     1
290
     0
176
     1
290
     0
176
     1
 90
       50
176
     1
 40
0.0
176
     1
 40
1.0
176
     1
 90
        0
176
     1
 62
    18
420
        0
176
     1
 90
       50
176
     1
 90
        3
176
     1
 62
     5
420
      255
176
     1
290
     0
176
     1
 90
       50
176
     1
 90
       50
176
     1
 90
       50
176
     1
290
     0
176
     1
 90
       50
176
     1
 62
   256
176
     0
 40
1.0
176
     0
 90
        2
176
     1
  1
strokes_ogs.tif
176
     1
290
     0
176
     1
 40
1.0
176
     1
 40
1.0
176
     1
  0
VISUALSTYLE
  5
41
102
{ACAD_REACTORS
330
2A
102
}
330
2A
100
AcDbVisualStyle
  2
Shaded with edges
 70
    26
177
     3
291
     0
 70
    58
 90
        2
176
     1
 90
        2
176
     1
 90
        1
176
     1
 90
        2
176
     1
 40
0.6
176
     1
 40
30.0
176
     1
 62
     7
420
 16777215
176
     1
 90
        1
176
     1
 90
       10
176
     1
 62
     7
176
     1
 62
   257
176
     1
 90
        2
176
     1
 90
        1
176
     1
 40
1.0
176
     1
 90
        8
176
     1
 62
   257
176
     1
 40
1.0
176
     1
 90
        1
176
     1
 90
        6
176
     1
 90
        2
176
     1
 62
     7
176
     1
 90
        3
176
     1
 90
        0
176
     1
 90
        0
176
     1
290
     0
176
     1
 90
        5
176
     1
 40
0.0
176
     1
 90
        0
176
     1
290
     0
176
     1
290
     1
176
     1
290
     1
176
     1
290
     0
176
     1
290
     0
176
     1
290
     0
176
     1
290
     0
176
     1
290
     0
176
     1
290
     0
176
     1
 90
       50
176
     1
 40
0.0
176
     1
 40
1.0
176
     1
 90
        0
176
     1
 62
    18
420
        0
176
     1
 90
       50
176
     1
 90
        3
176
     1
 62
     5
420
      255
176
     1
290
     0
176
     1
 90
       50
176
     1
 90
       50
176
     1
 90
       50
176
     1
290
     0
176
     1
 90
       50
176
     1
 62
   256
176
     0
 40
1.0
176
     0
 90
        2
176
     1
  1
strokes_ogs.tif
176
     1
290
     0
176
     1
 40
1.0
176
     1
 40
1.0
176
     1
  0
VISUALSTYLE
  5
3E
102
{ACAD_REACTORS
330
2A
102
}
330
2A
100
AcDbVisualStyle
  2
Shades of Gray
 70
    23
177
     3
291
     0
 70
    58
 90
        2
176
     1
 90
        2
176
     1
 90
        3
176
     1
 90
        0
176
     1
 40
0.6
176
     1
 40
30.0
176
     1
 62
     7
420
 16777215
176
     1
 90
        2
176
     1
 90
        2
176
     1
 62
     7
176
     1
 62
     7
176
     1
 90
        1
176
     1
 90
        1
176
     1
 40
40.0
176
     1
 90
        8
176
     1
 62
     7
176
     1
 40
1.0
176
     1
 90
        1
176
     1
 90
        6
176
     1
 90
        2
176
     1
 62
     7
176
     1
 90
        3
176
     1
 90
        0
176
     1
 90
        0
176
     1
290
     0
176
     1
 90
        1
176
     1
 40
0.0
176
     1
 90
        0
176
     1
290
     0
176
     1
290
     1
176
     1
290
     1
176
     1
290
     0
176
     1
290
     0
176
     1
290
     0
176
     1
290
     0
176
     1
290
     0
176
     1
290
     0
176
     1
 90
       50
176
     1
 40
0.0
176
     1
 40
1.0
176
     1
 90
        0
176
     1
 62
    18
420
        0
176
     1
 90
       50
176
     1
 90
        3
176
     1
 62
     5
420
      255
176
     1
290
     0
176
     1
 90
       50
176
     1
 90
       50
176
     1
 90
       50
176
     1
290
     0
176
     1
 90
       50
176
     1
 62
   256
176
     0
 40
1.0
176
     0
 90
        2
176
     1
  1
strokes_ogs.tif
176
     1
290
     0
176
     1
 40
1.0
176
     1
 40
1.0
176
     1
  0
VISUALSTYLE
  5
3F
102
{ACAD_REACTORS
330
2A
102
}
330
2A
100
AcDbVisualStyle
  2
Sketchy
 70
    24
177
     3
291
     0
 70
    58
 90
        1
176
     1
 90
        2
176
     1
 90
        2
176
     1
 90
        0
176
     1
 40
0.6
176
     1
 40
30.0
176
     1
 62
     7
420
 16777215
176
     1
 90
        2
176
     1
 90
        2
176
     1
 62
     7
176
     1
 62
     7
176
     1
 90
        1
176
     1
 90
        1
176
     1
 40
40.0
176
     1
 90
       11
176
     1
 62
     7
176
     1
 40
1.0
176
     1
 90
        1
176
     1
 90
        6
176
     1
 90
        2
176
     1
 62
     7
176
     1
 90
        6
176
     1
 90
        0
176
     1
 90
        0
176
     1
290
     0
176
     1
 90
        1
176
     1
 40
0.0
176
     1
 90
        0
176
     1
290
     0
176
     1
290
     1
176
     1
290
     1
176
     1
290
     0
176
     1
290
     0
176
     1
290
     0
176
     1
290
     0
176
     1
290
     0
176
     1
290
     0
176
     1
 90
       50
176
     1
 40
0.0
176
     1
 40
1.0
176
     1
 90
        0
176
     1
 62
    18
420
        0
176
     1
 90
       50
176
     1
 90
        3
176
     1
 62
     5
420
      255
176
     1
290
     0
176
     1
 90
       50
176
     1
 90
       50
176
     1
 90
       50
176
     1
290
     0
176
     1
 90
       50
176
     1
 62
   256
176
     0
 40
1.0
176
     0
 90
        2
176
     1
  1
strokes_ogs.tif
176
     1
290
     0
176
     1
 40
1.0
176
     1
 40
1.0
176
     1
  0
VISUALSTYLE
  5
37
102
{ACAD_REACTORS
330
2A
102
}
330
2A
100
AcDbVisualStyle
  2
Thicken
 70
    13
177
     3
291
     1
 70
    58
 90
        2
176
     1
 90
        2
176
     1
 90
        0
176
     1
 90
        0
176
     1
 40
0.6
176
     1
 40
30.0
176
     1
 62
     7
420
 16777215
176
     1
 90
        1
176
     1
 90
        4
176
     1
 62
     7
176
     1
 62
   257
176
     1
 90
        1
176
     1
 90
        1
176
     1
 40
1.0
176
     1
 90
       12
176
     1
 62
     7
176
     1
 40
1.0
176
     1
 90
        1
176
     1
 90
        6
176
     1
 90
        2
176
     1
 62
     7
176
     1
 90
        5
176
     1
 90
        0
176
     1
 90
        0
176
     1
290
     0
176
     1
 90
        1
176
     1
 40
0.0
176
     1
 90
        0
176
     1
290
     0
176
     1
290
     1
176
     1
290
     1
176
     1
290
     0
176
     1
290
     0
176
     1
290
     0
176
     1
290
     0
176
     1
290
     0
176
     1
290
     0
176
     1
 90
       50
176
     1
 40
0.0
176
     1
 40
1.0
176
     1
 90
        0
176
     1
 62
    18
420
        0
176
     1
 90
       50
176
     1
 90
        3
176
     1
 62
     5
420
      255
176
     1
290
     0
176
     1
 90
       50
176
     1
 90
       50
176
     1
 90
       50
176
     1
290
     0
176
     1
 90
       50
176
     1
 62
   256
176
     0
 40
1.0
176
     0
 90
        2
176
     1
  1
strokes_ogs.tif
176
     1
290
     0
176
     1
 40
1.0
176
     1
 40
1.0
176
     1
  0
VISUALSTYLE
  5
30
102
{ACAD_REACTORS
330
2A
102
}
330
2A
100
AcDbVisualStyle
  2
Wireframe
 70
     5
177
     3
291
     0
 70
    58
 90
        0
176
     1
 90
        2
176
     1
 90
        0
176
     1
 90
        0
176
     1
 40
0.6
176
     1
 40
30.0
176
     1
 62
     7
420
 16777215
176
     1
 90
        1
176
     1
 90
        4
176
     1
 62
     7
176
     1
 62
   257
176
     1
 90
        1
176
     1
 90
        1
176
     1
 40
1.0
176
     1
 90
        0
176
     1
 62
   257
176
     1
 40
1.0
176
     1
 90
        1
176
     1
 90
        6
176
     1
 90
        2
176
     1
 62
     7
176
     1
 90
        3
176
     1
 90
        0
176
     1
 90
        0
176
     1
290
     0
176
     1
 90
        1
176
     1
 40
0.0
176
     1
 90
        0
176
     1
290
     0
176
     1
290
     1
176
     1
290
     1
176
     1
290
     0
176
     1
290
     0
176
     1
290
     0
176
     1
290
     0
176
     1
290
     0
176
     1
290
     0
176
     1
 90
       50
176
     1
 40
0.0
176
     1
 40
1.0
176
     1
 90
        0
176
     1
 62
    18
420
        0
176
     1
 90
       50
176
     1
 90
        3
176
     1
 62
     5
420
      255
176
     1
290
     0
176
     1
 90
       50
176
     1
 90
       50
176
     1
 90
       50
176
     1
290
     0
176
     1
 90
       50
176
     1
 62
   256
176
     0
 40
1.0
176
     0
 90
        2
176
     1
  1
strokes_ogs.tif
176
     1
290
     0
176
     1
 40
1.0
176
     1
 40
1.0
176
     1
  0
VISUALSTYLE
  5
40
102
{ACAD_REACTORS
330
2A
102
}
330
2A
100
AcDbVisualStyle
  2
X-Ray
 70
    25
177
     3
291
     0
 70
    58
 90
        2
176
     1
 90
        2
176
     1
 90
        1
176
     1
 90
        1
176
     1
 40
0.5
176
     1
 40
30.0
176
     1
 62
     7
420
 16777215
176
     1
 90
        1
176
     1
 90
        0
176
     1
 62
     7
176
     1
 62
   257
176
     1
 90
        1
176
     1
 90
        1
176
     1
 40
1.0
176
     1
 90
        8
176
     1
 62
     7
176
     1
 40
1.0
176
     1
 90
        1
176
     1
 90
        6
176
     1
 90
        2
176
     1
 62
     7
176
     1
 90
        3
176
     1
 90
        0
176
     1
 90
        0
176
     1
290
     0
176
     1
 90
       13
176
     1
 40
0.0
176
     1
 90
        0
176
     1
290
     0
176
     1
290
     1
176
     1
290
     1
176
     1
290
     0
176
     1
290
     0
176
     1
290
     0
176
     1
290
     0
176
     1
290
     0
176
     1
290
     0
176
     1
 90
       50
176
     1
 40
0.0
176
     1
 40
1.0
176
     1
 90
        0
176
     1
 62
    18
420
        0
176
     1
 90
       50
176
     1
 90
        3
176
     1
 62
     5
420
      255
176
     1
290
     0
176
     1
 90
       50
176
     1
 90
       50
176
     1
 90
       50
176
     1
290
     0
176
     1
 90
       50
176
     1
 62
   256
176
     0
 40
1.0
176
     0
 90
        2
176
     1
  1
strokes_ogs.tif
176
     1
290
     0
176
     1
 40
1.0
176
     1
 40
1.0
176
     1
  0
DICTIONARYVAR
  5
10D
102
{ACAD_REACTORS
330
10C
102
}
330
10C
100
DictionaryVariables
280
     0
  1
1:1
  0
DICTIONARYVAR
  5
115
102
{ACAD_REACTORS
330
10C
102
}
330
10C
100
DictionaryVariables
280
     0
  1
3.500000
  0
DICTIONARYVAR
  5
116
102
{ACAD_REACTORS
330
10C
102
}
330
10C
100
DictionaryVariables
280
     0
  1
acadiso.lin
  0
DICTIONARYVAR
  5
112
102
{ACAD_REACTORS
330
10C
102
}
330
10C
100
DictionaryVariables
280
     0
  1
Standard
  0
DICTIONARYVAR
  5
111
102
{ACAD_REACTORS
330
10C
102
}
330
10C
100
DictionaryVariables
280
     0
  1
Standard
  0
DICTIONARY
  5
10E
330
5A
100
AcDbDictionary
280
     1
281
     1
  3
ACAD_ROUNDTRIP_2008_TABLESTYLE_CELLSTYLEMAP
360
10F
  0
CELLSTYLEMAP
  5
10F
102
{ACAD_REACTORS
330
10E
102
}
330
10E
100
AcDbCellStyleMap
 90
        3
300
CELLSTYLE
  1
TABLEFORMAT_BEGIN
 90
        5
170
     1
 91
        0
 92
    32768
 62
   257
 93
        1
300
CONTENTFORMAT
  1
CONTENTFORMAT_BEGIN
 90
        0
 91
        0
 92
        4
 93
        0
300

 40
0.0
140
1.0
 94
        5
 62
     0
340
11
144
6.0
309
CONTENTFORMAT_END
171
     1
301
MARGIN
  1
CELLMARGIN_BEGIN
 40
1.5
 40
1.5
 40
1.5
 40
1.5
 40
1.5
 40
1.5
309
CELLMARGIN_END
 94
        6
 95
        1
302
GRIDFORMAT
  1
GRIDFORMAT_BEGIN
 90
        0
 91
        1
 62
     0
 92
       -2
340
14
 93
        0
 40
0.045
309
GRIDFORMAT_END
 95
        2
302
GRIDFORMAT
  1
GRIDFORMAT_BEGIN
 90
        0
 91
        1
 62
     0
 92
       -2
340
14
 93
        0
 40
0.045
309
GRIDFORMAT_END
 95
        4
302
GRIDFORMAT
  1
GRIDFORMAT_BEGIN
 90
        0
 91
        1
 62
     0
 92
       -2
340
14
 93
        0
 40
0.045
309
GRIDFORMAT_END
 95
        8
302
GRIDFORMAT
  1
GRIDFORMAT_BEGIN
 90
        0
 91
        1
 62
     0
 92
       -2
340
14
 93
        0
 40
0.045
309
GRIDFORMAT_END
 95
       16
302
GRIDFORMAT
  1
GRIDFORMAT_BEGIN
 90
        0
 91
        1
 62
     0
 92
       -2
340
14
 93
        0
 40
0.045
309
GRIDFORMAT_END
 95
       32
302
GRIDFORMAT
  1
GRIDFORMAT_BEGIN
 90
        0
 91
        1
 62
     0
 92
       -2
340
14
 93
        0
 40
0.045
309
GRIDFORMAT_END
309
TABLEFORMAT_END
  1
CELLSTYLE_BEGIN
 90
        1
 91
        1
300
_TITLE
309
CELLSTYLE_END
300
CELLSTYLE
  1
TABLEFORMAT_BEGIN
 90
        5
170
     1
 91
        0
 92
        0
 62
   257
 93
        1
300
CONTENTFORMAT
  1
CONTENTFORMAT_BEGIN
 90
        0
 91
        0
 92
        4
 93
        0
300

 40
0.0
140
1.0
 94
        5
 62
     0
340
11
144
4.5
309
CONTENTFORMAT_END
171
     1
301
MARGIN
  1
CELLMARGIN_BEGIN
 40
1.5
 40
1.5
 40
1.5
 40
1.5
 40
1.5
 40
1.5
309
CELLMARGIN_END
 94
        6
 95
        1
302
GRIDFORMAT
  1
GRIDFORMAT_BEGIN
 90
        0
 91
        1
 62
     0
 92
       -2
340
14
 93
        0
 40
0.045
309
GRIDFORMAT_END
 95
        2
302
GRIDFORMAT
  1
GRIDFORMAT_BEGIN
 90
        0
 91
        1
 62
     0
 92
       -2
340
14
 93
        0
 40
0.045
309
GRIDFORMAT_END
 95
        4
302
GRIDFORMAT
  1
GRIDFORMAT_BEGIN
 90
        0
 91
        1
 62
     0
 92
       -2
340
14
 93
        0
 40
0.045
309
GRIDFORMAT_END
 95
        8
302
GRIDFORMAT
  1
GRIDFORMAT_BEGIN
 90
        0
 91
        1
 62
     0
 92
       -2
340
14
 93
        0
 40
0.045
309
GRIDFORMAT_END
 95
       16
302
GRIDFORMAT
  1
GRIDFORMAT_BEGIN
 90
        0
 91
        1
 62
     0
 92
       -2
340
14
 93
        0
 40
0.045
309
GRIDFORMAT_END
 95
       32
302
GRIDFORMAT
  1
GRIDFORMAT_BEGIN
 90
        0
 91
        1
 62
     0
 92
       -2
340
14
 93
        0
 40
0.045
309
GRIDFORMAT_END
309
TABLEFORMAT_END
  1
CELLSTYLE_BEGIN
 90
        2
 91
        1
300
_HEADER
309
CELLSTYLE_END
300
CELLSTYLE
  1
TABLEFORMAT_BEGIN
 90
        5
170
     1
 91
        0
 92
        0
 62
   257
 93
        1
300
CONTENTFORMAT
  1
CONTENTFORMAT_BEGIN
 90
        0
 91
        0
 92
        4
 93
        0
300

 40
0.0
140
1.0
 94
        2
 62
     0
340
11
144
4.5
309
CONTENTFORMAT_END
171
     1
301
MARGIN
  1
CELLMARGIN_BEGIN
 40
1.5
 40
1.5
 40
1.5
 40
1.5
 40
1.5
 40
1.5
309
CELLMARGIN_END
 94
        6
 95
        1
302
GRIDFORMAT
  1
GRIDFORMAT_BEGIN
 90
        0
 91
        1
 62
     0
 92
       -2
340
14
 93
        0
 40
0.045
309
GRIDFORMAT_END
 95
        2
302
GRIDFORMAT
  1
GRIDFORMAT_BEGIN
 90
        0
 91
        1
 62
     0
 92
       -2
340
14
 93
        0
 40
0.045
309
GRIDFORMAT_END
 95
        4
302
GRIDFORMAT
  1
GRIDFORMAT_BEGIN
 90
        0
 91
        1
 62
     0
 92
       -2
340
14
 93
        0
 40
0.045
309
GRIDFORMAT_END
 95
        8
302
GRIDFORMAT
  1
GRIDFORMAT_BEGIN
 90
        0
 91
        1
 62
     0
 92
       -2
340
14
 93
        0
 40
0.045
309
GRIDFORMAT_END
 95
       16
302
GRIDFORMAT
  1
GRIDFORMAT_BEGIN
 90
        0
 91
        1
 62
     0
 92
       -2
340
14
 93
        0
 40
0.045
309
GRIDFORMAT_END
 95
       32
302
GRIDFORMAT
  1
GRIDFORMAT_BEGIN
 90
        0
 91
        1
 62
     0
 92
       -2
340
14
 93
        0
 40
0.045
309
GRIDFORMAT_END
309
TABLEFORMAT_END
  1
CELLSTYLE_BEGIN
 90
        3
 91
        2
300
_DATA
309
CELLSTYLE_END
  0
ENDSEC
  0
EOF
