  0
SECTION
  2
HEADER
  9
$ACADVER
  1
AC1027
  9
$ACADMAINTVER
 70
   105
  9
$DWGCODEPAGE
  3
ANSI_1252
  9
$LASTSAVEDBY
  1
Nick
  9
$REQUIREDVERSIONS
160
                 0
  9
$INSBASE
 10
0.0
 20
0.0
 30
0.0
  9
$EXTMIN
 10
0.0
 20
0.0
 30
0.0
  9
$EXTMAX
 10
420.0
 20
297.0
 30
0.0
  9
$LIMMIN
 10
0.0
 20
0.0
  9
$LIMMAX
 10
420.0
 20
297.0
  9
$ORTHOMODE
 70
     0
  9
$REGENMODE
 70
     1
  9
$FILLMODE
 70
     1
  9
$QTEXTMODE
 70
     0
  9
$MIRRTEXT
 70
     1
  9
$LTSCALE
 40
1.0
  9
$ATTMODE
 70
     1
  9
$TEXTSIZE
 40
4.2333333333
  9
$TRACEWID
 40
1.0
  9
$TEXTSTYLE
  7
Standard
  9
$CLAYER
  8
0
  9
$CELTYPE
  6
ByLayer
  9
$CECOLOR
 62
   256
  9
$CELTSCALE
 40
1.0
  9
$DISPSILH
 70
     0
  9
$DIMSCALE
 40
1.0
  9
$DIMASZ
 40
3.302
  9
$DIMEXO
 40
1.0
  9
$DIMDLI
 40
3.75
  9
$DIMRND
 40
0.0
  9
$DIMDLE
 40
0.0
  9
$DIMEXE
 40
1.0
  9
$DIMTP
 40
0.0
  9
$DIMTM
 40
0.0
  9
$DIMTXT
 40
4.2333333333
  9
$DIMCEN
 40
2.5
  9
$DIMTSZ
 40
0.0
  9
$DIMTOL
 70
     0
  9
$DIMLIM
 70
     0
  9
$DIMTIH
 70
     1
  9
$DIMTOH
 70
     1
  9
$DIMSE1
 70
     0
  9
$DIMSE2
 70
     0
  9
$DIMTAD
 70
     1
  9
$DIMZIN
 70
     1
  9
$DIMBLK
  1

  9
$DIMASO
 70
     1
  9
$DIMSHO
 70
     1
  9
$DIMPOST
  1

  9
$DIMAPOST
  1

  9
$DIMALT
 70
     0
  9
$DIMALTD
 70
     3
  9
$DIMALTF
 40
0.0393700787
  9
$DIMLFAC
 40
1.0
  9
$DIMTOFL
 70
     1
  9
$DIMTVP
 40
0.0
  9
$DIMTIX
 70
     0
  9
$DIMSOXD
 70
     0
  9
$DIMSAH
 70
     0
  9
$DIMBLK1
  1

  9
$DIMBLK2
  1

  9
$DIMSTYLE
  2
ISO-25
  9
$DIMCLRD
 70
     0
  9
$DIMCLRE
 70
     0
  9
$DIMCLRT
 70
     0
  9
$DIMTFAC
 40
1.0
  9
$DIMGAP
 40
1.524
  9
$DIMJUST
 70
     0
  9
$DIMSD1
 70
     0
  9
$DIMSD2
 70
     0
  9
$DIMTOLJ
 70
     0
  9
$DIMTZIN
 70
     1
  9
$DIMALTZ
 70
     0
  9
$DIMALTTZ
 70
     0
  9
$DIMUPT
 70
     0
  9
$DIMDEC
 70
     0
  9
$DIMTDEC
 70
     0
  9
$DIMALTU
 70
     2
  9
$DIMALTTD
 70
     3
  9
$DIMTXSTY
  7
Standard
  9
$DIMAUNIT
 70
     0
  9
$DIMADEC
 70
     2
  9
$DIMALTRND
 40
0.0
  9
$DIMAZIN
 70
     0
  9
$DIMDSEP
 70
    44
  9
$DIMATFIT
 70
     3
  9
$DIMFRAC
 70
     0
  9
$DIMLDRBLK
  1

  9
$DIMLUNIT
 70
     2
  9
$DIMLWD
 70
    -2
  9
$DIMLWE
 70
    -2
  9
$DIMTMOVE
 70
     0
  9
$DIMFXL
 40
1.0
  9
$DIMFXLON
 70
     0
  9
$DIMJOGANG
 40
0.7853981634
  9
$DIMTFILL
 70
     0
  9
$DIMTFILLCLR
 70
     0
  9
$DIMARCSYM
 70
     0
  9
$DIMLTYPE
  6

  9
$DIMLTEX1
  6

  9
$DIMLTEX2
  6

  9
$DIMTXTDIRECTION
 70
     0
  9
$LUNITS
 70
     2
  9
$LUPREC
 70
     0
  9
$SKETCHINC
 40
1.0
  9
$FILLETRAD
 40
0.0
  9
$AUNITS
 70
     0
  9
$AUPREC
 70
     2
  9
$MENU
  1
.
  9
$ELEVATION
 40
0.0
  9
$PELEVATION
 40
0.0
  9
$THICKNESS
 40
0.0
  9
$LIMCHECK
 70
     0
  9
$CHAMFERA
 40
0.0
  9
$CHAMFERB
 40
0.0
  9
$CHAMFERC
 40
0.0
  9
$CHAMFERD
 40
0.0
  9
$SKPOLY
 70
     0
  9
$TDCREATE
 40
2460934.582478496
  9
$TDUCREATE
 40
2460934.165811829
  9
$TDUPDATE
 40
2460934.582478774
  9
$TDUUPDATE
 40
2460934.165812107
  9
$TDINDWG
 40
0.0000000116
  9
$TDUSRTIMER
 40
0.0000000116
  9
$USRTIMER
 70
     1
  9
$ANGBASE
 50
0.0
  9
$ANGDIR
 70
     0
  9
$PDMODE
 70
     0
  9
$PDSIZE
 40
-1.0
  9
$PLINEWID
 40
0.0
  9
$SPLFRAME
 70
     0
  9
$SPLINETYPE
 70
     6
  9
$SPLINESEGS
 70
     8
  9
$HANDSEED
  5
10E
  9
$SURFTAB1
 70
     6
  9
$SURFTAB2
 70
     6
  9
$SURFTYPE
 70
     6
  9
$SURFU
 70
     6
  9
$SURFV
 70
     6
  9
$UCSBASE
  2

  9
$UCSNAME
  2

  9
$UCSORG
 10
0.0
 20
0.0
 30
0.0
  9
$UCSXDIR
 10
1.0
 20
0.0
 30
0.0
  9
$UCSYDIR
 10
0.0
 20
1.0
 30
0.0
  9
$UCSORTHOREF
  2

  9
$UCSORTHOVIEW
 70
     0
  9
$UCSORGTOP
 10
0.0
 20
0.0
 30
0.0
  9
$UCSORGBOTTOM
 10
0.0
 20
0.0
 30
0.0
  9
$UCSORGLEFT
 10
0.0
 20
0.0
 30
0.0
  9
$UCSORGRIGHT
 10
0.0
 20
0.0
 30
0.0
  9
$UCSORGFRONT
 10
0.0
 20
0.0
 30
0.0
  9
$UCSORGBACK
 10
0.0
 20
0.0
 30
0.0
  9
$PUCSBASE
  2

  9
$PUCSNAME
  2

  9
$PUCSORG
 10
0.0
 20
0.0
 30
0.0
  9
$PUCSXDIR
 10
1.0
 20
0.0
 30
0.0
  9
$PUCSYDIR
 10
0.0
 20
1.0
 30
0.0
  9
$PUCSORTHOREF
  2

  9
$PUCSORTHOVIEW
 70
     0
  9
$PUCSORGTOP
 10
0.0
 20
0.0
 30
0.0
  9
$PUCSORGBOTTOM
 10
0.0
 20
0.0
 30
0.0
  9
$PUCSORGLEFT
 10
0.0
 20
0.0
 30
0.0
  9
$PUCSORGRIGHT
 10
0.0
 20
0.0
 30
0.0
  9
$PUCSORGFRONT
 10
0.0
 20
0.0
 30
0.0
  9
$PUCSORGBACK
 10
0.0
 20
0.0
 30
0.0
  9
$USERI1
 70
     0
  9
$USERI2
 70
     0
  9
$USERI3
 70
     0
  9
$USERI4
 70
     0
  9
$USERI5
 70
     0
  9
$USERR1
 40
0.0
  9
$USERR2
 40
0.0
  9
$USERR3
 40
0.0
  9
$USERR4
 40
0.0
  9
$USERR5
 40
0.0
  9
$WORLDVIEW
 70
     1
  9
$SHADEDGE
 70
     3
  9
$SHADEDIF
 70
    70
  9
$TILEMODE
 70
     1
  9
$MAXACTVP
 70
    64
  9
$PINSBASE
 10
0.0
 20
0.0
 30
0.0
  9
$PLIMCHECK
 70
     0
  9
$PEXTMIN
 10
1.0000000000E+20
 20
1.0000000000E+20
 30
1.0000000000E+20
  9
$PEXTMAX
 10
-1.0000000000E+20
 20
-1.0000000000E+20
 30
-1.0000000000E+20
  9
$PLIMMIN
 10
0.0
 20
0.0
  9
$PLIMMAX
 10
420.0
 20
297.0
  9
$UNITMODE
 70
     0
  9
$VISRETAIN
 70
     1
  9
$PLINEGEN
 70
     0
  9
$PSLTSCALE
 70
     1
  9
$TREEDEPTH
 70
  3020
  9
$CMLSTYLE
  2
Standard
  9
$CMLJUST
 70
     0
  9
$CMLSCALE
 40
20.0
  9
$PROXYGRAPHICS
 70
     1
  9
$MEASUREMENT
 70
     1
  9
$CELWEIGHT
370
    -1
  9
$ENDCAPS
280
     0
  9
$JOINSTYLE
280
     0
  9
$LWDISPLAY
290
     1
  9
$INSUNITS
 70
     4
  9
$HYPERLINKBASE
  1

  9
$STYLESHEET
  1

  9
$XEDIT
290
     1
  9
$CEPSNTYPE
380
     0
  9
$PSTYLEMODE
290
     1
  9
$FINGERPRINTGUID
  2
{730391e4-392d-443b-9f04-6abfb1970ecf}
  9
$VERSIONGUID
  2
{FAEB1C32-E019-11D5-929B-00C0DF256EC4}
  9
$EXTNAMES
290
     1
  9
$PSVPSCALE
 40
0.0
  9
$OLESTARTUP
290
     0
  9
$SORTENTS
280
   127
  9
$INDEXCTL
280
     0
  9
$HIDETEXT
280
     1
  9
$XCLIPFRAME
280
     2
  9
$HALOGAP
280
     0
  9
$OBSCOLOR
 70
   257
  9
$OBSLTYPE
280
     0
  9
$INTERSECTIONDISPLAY
280
     0
  9
$INTERSECTIONCOLOR
 70
   257
  9
$DIMASSOC
280
     2
  9
$PROJECTNAME
  1

  9
$CAMERADISPLAY
290
     0
  9
$LENSLENGTH
 40
50.0
  9
$CAMERAHEIGHT
 40
0.0
  9
$STEPSPERSEC
 40
2.0
  9
$STEPSIZE
 40
6.0
  9
$3DDWFPREC
 40
2.0
  9
$PSOLWIDTH
 40
5.0
  9
$PSOLHEIGHT
 40
80.0
  9
$LOFTANG1
 40
1.5707963268
  9
$LOFTANG2
 40
1.5707963268
  9
$LOFTMAG1
 40
0.0
  9
$LOFTMAG2
 40
0.0
  9
$LOFTPARAM
 70
     7
  9
$LOFTNORMALS
280
     1
  9
$LATITUDE
 40
37.795
  9
$LONGITUDE
 40
-122.394
  9
$NORTHDIRECTION
 40
0.0
  9
$TIMEZONE
 70
 -8000
  9
$LIGHTGLYPHDISPLAY
280
     1
  9
$TILEMODELIGHTSYNCH
280
     1
  9
$CMATERIAL
347
44
  9
$SOLIDHIST
280
     0
  9
$SHOWHIST
280
     1
  9
$DWFFRAME
280
     2
  9
$DGNFRAME
280
     2
  9
$REALWORLDSCALE
290
     1
  9
$INTERFERECOLOR
 62
   256
  9
$CSHADOW
280
     0
  9
$SHADOWPLANELOCATION
 40
0.0
  0
ENDSEC
  0
SECTION
  2
CLASSES
  0
CLASS
  1
ACDBDICTIONARYWDFLT
  2
AcDbDictionaryWithDefault
  3
ObjectDBX Classes
 90
        0
 91
        3
280
     0
281
     0
  0
CLASS
  1
VISUALSTYLE
  2
AcDbVisualStyle
  3
ObjectDBX Classes
 90
     4095
 91
        3
280
     0
281
     0
  0
CLASS
  1
MATERIAL
  2
AcDbMaterial
  3
ObjectDBX Classes
 90
     1153
 91
        3
280
     0
281
     0
  0
CLASS
  1
SCALE
  2
AcDbScale
  3
ObjectDBX Classes
 90
     1153
 91
        3
280
     0
281
     0
  0
CLASS
  1
TABLESTYLE
  2
AcDbTableStyle
  3
ObjectDBX Classes
 90
     4095
 91
        3
280
     0
281
     0
  0
CLASS
  1
MLEADERSTYLE
  2
AcDbMLeaderStyle
  3
ACDB_MLEADERSTYLE_CLASS
 90
     4095
 91
        3
280
     0
281
     0
  0
CLASS
  1
SUN
  2
AcDbSun
  3
SCENEOE
 90
     1153
 91
        3
280
     0
281
     0
  0
CLASS
  1
DICTIONARYVAR
  2
AcDbDictionaryVar
  3
ObjectDBX Classes
 90
        0
 91
        3
280
     0
281
     0
  0
CLASS
  1
CELLSTYLEMAP
  2
AcDbCellStyleMap
  3
ObjectDBX Classes
 90
     1152
 91
        3
280
     0
281
     0
  0
ENDSEC
  0
SECTION
  2
TABLES
  0
TABLE
  2
VPORT
  5
8
330
0
100
AcDbSymbolTable
 70
     1
  0
VPORT
  5
29
330
8
100
AcDbSymbolTableRecord
100
AcDbViewportTableRecord
  2
*Active
 70
     0
 10
0.0
 20
0.0
 11
1.0
 21
1.0
 12
210.0
 22
148.5
 13
0.0
 23
0.0
 14
10.0
 24
10.0
 15
10.0
 25
10.0
 16
0.0
 26
0.0
 36
1.0
 17
0.0
 27
0.0
 37
0.0
 40
297.0
 41
1.4141414141
 42
50.0
 43
0.0
 44
0.0
 50
0.0
 51
0.0
 71
     0
 72
  2000
 73
     1
 74
     3
 75
     0
 76
     0
 77
     0
 78
     0
281
     0
 65
     1
110
0.0
120
0.0
130
0.0
111
1.0
121
0.0
131
0.0
112
0.0
122
1.0
132
0.0
 79
     0
146
0.0
348
2F
 60
     3
 61
     5
292
     1
282
     1
141
0.0
142
0.0
 63
   250
361
5D
  0
ENDTAB
  0
TABLE
  2
LTYPE
  5
5
330
0
100
AcDbSymbolTable
 70
     6
  0
LTYPE
  5
14
330
5
100
AcDbSymbolTableRecord
100
AcDbLinetypeTableRecord
  2
ByBlock
 70
     0
  3

 72
    65
 73
     0
 40
0.0
  0
LTYPE
  5
15
330
5
100
AcDbSymbolTableRecord
100
AcDbLinetypeTableRecord
  2
ByLayer
 70
     0
  3

 72
    65
 73
     0
 40
0.0
  0
LTYPE
  5
16
330
5
100
AcDbSymbolTableRecord
100
AcDbLinetypeTableRecord
  2
Continuous
 70
     0
  3
Solid line
 72
    65
 73
     0
 40
0.0
  0
LTYPE
  5
5E
330
5
100
AcDbSymbolTableRecord
100
AcDbLinetypeTableRecord
  2
HIDDEN
 70
     0
  3
Hidden __ __ __ __ __ __ __ __ __ __ __ __ __ __
 72
    65
 73
     2
 40
1.905
 49
1.27
 74
     0
 49
-0.635
 74
     0
  0
LTYPE
  5
5F
330
5
100
AcDbSymbolTableRecord
100
AcDbLinetypeTableRecord
  2
PHANTOM
 70
     0
  3
Phantom ______  __  __  ______  __  __  ______
 72
    65
 73
     6
 40
12.7
 49
6.35
 74
     0
 49
-1.27
 74
     0
 49
1.27
 74
     0
 49
-1.27
 74
     0
 49
1.27
 74
     0
 49
-1.27
 74
     0
  0
LTYPE
  5
60
330
5
100
AcDbSymbolTableRecord
100
AcDbLinetypeTableRecord
  2
CENTER
 70
     0
  3
Center ____ _ ____ _ ____ _ ____ _ ____ _ ____
 72
    65
 73
     4
 40
10.16
 49
6.35
 74
     0
 49
-1.27
 74
     0
 49
1.27
 74
     0
 49
-1.27
 74
     0
  0
LTYPE
  5
61
330
5
100
AcDbSymbolTableRecord
100
AcDbLinetypeTableRecord
  2
CENTERX2
 70
     0
  3
Center (2x) ________  __  ________  __  _____
 72
    65
 73
     4
 40
20.32
 49
12.7
 74
     0
 49
-2.54
 74
     0
 49
2.54
 74
     0
 49
-2.54
 74
     0
  0
LTYPE
  5
62
330
5
100
AcDbSymbolTableRecord
100
AcDbLinetypeTableRecord
  2
DOT2
 70
     0
  3
Dot (.5x) ........................................
 72
    65
 73
     2
 40
0.635
 49
0.0
 74
     0
 49
-0.635
 74
     0
  0
ENDTAB
  0
TABLE
  2
LAYER
  5
2
330
0
100
AcDbSymbolTable
 70
    13
  0
LAYER
  5
10
330
2
100
AcDbSymbolTableRecord
100
AcDbLayerTableRecord
  2
0
 70
     0
 62
     7
  6
Continuous
370
    -3
390
F
347
46
348
0
  0
LAYER
  5
63
330
2
100
AcDbSymbolTableRecord
100
AcDbLayerTableRecord
  2
DRAWING-SHEET
 70
     0
 62
   179
  6
Continuous
370
    -3
390
F
347
46
348
0
  0
LAYER
  5
64
330
2
100
AcDbSymbolTableRecord
100
AcDbLayerTableRecord
  2
BORDER
 70
     0
 62
   179
  6
Continuous
370
    -3
390
F
347
46
348
0
  0
LAYER
  5
65
330
2
100
AcDbSymbolTableRecord
100
AcDbLayerTableRecord
  2
DIMENSIONS
 70
     0
 62
     7
  6
Continuous
370
    -3
390
F
347
46
348
0
  0
LAYER
  5
66
330
2
100
AcDbSymbolTableRecord
100
AcDbLayerTableRecord
  2
CENTRE_LINES
 70
     0
 62
     7
  6
Continuous
370
    -3
390
F
347
46
348
0
  0
LAYER
  5
67
330
2
100
AcDbSymbolTableRecord
100
AcDbLayerTableRecord
  2
FORMAT
 70
     0
 62
     7
  6
Continuous
370
    -3
390
F
347
46
348
0
  0
LAYER
  5
68
330
2
100
AcDbSymbolTableRecord
100
AcDbLayerTableRecord
  2
SLD-0
 70
     0
 62
   179
  6
Continuous
370
    -3
390
F
347
46
348
0
  0
LAYER
  5
69
330
2
100
AcDbSymbolTableRecord
100
AcDbLayerTableRecord
  2
OUTLINE
 70
     0
 62
     4
  6
Continuous
370
    -3
390
F
347
46
348
0
  0
LAYER
  5
6A
330
2
100
AcDbSymbolTableRecord
100
AcDbLayerTableRecord
  2
4
 70
     0
 62
     7
  6
Continuous
370
    70
390
F
347
46
348
0
  0
LAYER
  5
6B
330
2
100
AcDbSymbolTableRecord
100
AcDbLayerTableRecord
  2
TEXT25
 70
     0
 62
   179
  6
Continuous
370
    -3
390
F
347
46
348
0
  0
LAYER
  5
6C
330
2
100
AcDbSymbolTableRecord
100
AcDbLayerTableRecord
  2
TEXT35
 70
     0
 62
     7
  6
Continuous
370
    -3
390
F
347
46
348
0
  0
LAYER
  5
6D
330
2
100
AcDbSymbolTableRecord
100
AcDbLayerTableRecord
  2
TEXT5
 70
     0
 62
     7
  6
Continuous
370
    -3
390
F
347
46
348
0
  0
LAYER
  5
6E
330
2
100
AcDbSymbolTableRecord
100
AcDbLayerTableRecord
  2
5
 70
     0
 62
     7
  6
Continuous
370
    35
390
F
347
46
348
0
  0
ENDTAB
  0
TABLE
  2
STYLE
  5
3
330
0
100
AcDbSymbolTable
 70
     3
  0
STYLE
  5
11
330
3
100
AcDbSymbolTableRecord
100
AcDbTextStyleTableRecord
  2
Standard
 70
     0
 40
0.0
 41
1.0
 50
0.0
 71
     0
 42
4.2333333333
  3
txt
  4

  0
STYLE
  5
75
330
3
100
AcDbSymbolTableRecord
100
AcDbTextStyleTableRecord
  2
SLDTEXTSTYLE0
 70
     0
 40
0.0
 41
0.75
 50
0.0
 71
     0
 42
4.2333333333
  3
TXT
  4

  0
STYLE
  5
7B
330
3
100
AcDbSymbolTableRecord
100
AcDbTextStyleTableRecord
  2
SLDTEXTSTYLE1
 70
     0
 40
0.0
 41
0.6
 50
0.0
 71
     0
 42
4.2333333333
  3
TXT
  4

  0
ENDTAB
  0
TABLE
  2
VIEW
  5
6
330
0
100
AcDbSymbolTable
 70
     0
  0
ENDTAB
  0
TABLE
  2
UCS
  5
7
330
0
100
AcDbSymbolTable
 70
     0
  0
ENDTAB
  0
TABLE
  2
APPID
  5
9
330
0
100
AcDbSymbolTable
 70
     1
  0
APPID
  5
12
330
9
100
AcDbSymbolTableRecord
100
AcDbRegAppTableRecord
  2
ACAD
 70
     0
  0
ENDTAB
  0
TABLE
  2
DIMSTYLE
  5
A
330
0
100
AcDbSymbolTable
 70
     1
100
AcDbDimStyleTable
  0
DIMSTYLE
105
27
330
A
100
AcDbSymbolTableRecord
100
AcDbDimStyleTableRecord
  2
ISO-25
 70
     0
 41
2.5
 42
0.625
 43
3.75
 44
1.25
 73
     0
 74
     0
 77
     1
 78
     8
140
2.5
141
2.5
143
0.0393700787
147
0.625
171
     3
172
     1
178
     0
271
     2
272
     2
274
     3
278
    44
283
     0
284
     8
340
11
  0
ENDTAB
  0
TABLE
  2
BLOCK_RECORD
  5
1
330
0
100
AcDbSymbolTable
 70
     6
  0
BLOCK_RECORD
  5
1F
330
1
100
AcDbSymbolTableRecord
100
AcDbBlockTableRecord
  2
*Model_Space
340
22
 70
     0
280
     1
281
     0
  0
BLOCK_RECORD
  5
1B
330
1
100
AcDbSymbolTableRecord
100
AcDbBlockTableRecord
  2
*Paper_Space
340
1E
 70
     0
280
     1
281
     0
  0
BLOCK_RECORD
  5
23
330
1
100
AcDbSymbolTableRecord
100
AcDbBlockTableRecord
  2
*Paper_Space0
340
26
 70
     0
280
     1
281
     0
  0
BLOCK_RECORD
  5
6F
330
1
100
AcDbSymbolTableRecord
100
AcDbBlockTableRecord
  2
Block1
340
0
 70
     0
280
     1
281
     0
  0
BLOCK_RECORD
  5
72
330
1
100
AcDbSymbolTableRecord
100
AcDbBlockTableRecord
  2
SW_NOTE_0
340
0
102
{BLKREFS
331
77
102
}
 70
     0
280
     1
281
     0
  0
BLOCK_RECORD
  5
78
330
1
100
AcDbSymbolTableRecord
100
AcDbBlockTableRecord
  2
SW_NOTE_0_1
340
0
102
{BLKREFS
331
7D
102
}
 70
     0
280
     1
281
     0
  0
BLOCK_RECORD
  5
7E
330
1
100
AcDbSymbolTableRecord
100
AcDbBlockTableRecord
  2
SW_NOTE_0_2
340
0
102
{BLKREFS
331
82
102
}
 70
     0
280
     1
281
     0
  0
BLOCK_RECORD
  5
83
330
1
100
AcDbSymbolTableRecord
100
AcDbBlockTableRecord
  2
SW_NOTE_0_3
340
0
102
{BLKREFS
331
87
102
}
 70
     0
280
     1
281
     0
  0
ENDTAB
  0
ENDSEC
  0
SECTION
  2
BLOCKS
  0
BLOCK
  5
20
330
1F
100
AcDbEntity
  8
0
100
AcDbBlockBegin
  2
*Model_Space
 70
     0
 10
0.0
 20
0.0
 30
0.0
  3
*Model_Space
  1

  0
ENDBLK
  5
21
330
1F
100
AcDbEntity
  8
0
100
AcDbBlockEnd
  0
BLOCK
  5
1C
330
1B
100
AcDbEntity
 67
     1
  8
0
100
AcDbBlockBegin
  2
*Paper_Space
 70
     0
 10
0.0
 20
0.0
 30
0.0
  3
*Paper_Space
  1

  0
ENDBLK
  5
1D
330
1B
100
AcDbEntity
 67
     1
  8
0
100
AcDbBlockEnd
  0
BLOCK
  5
24
330
23
100
AcDbEntity
  8
0
100
AcDbBlockBegin
  2
*Paper_Space0
 70
     0
 10
0.0
 20
0.0
 30
0.0
  3
*Paper_Space0
  1

  0
ENDBLK
  5
25
330
23
100
AcDbEntity
  8
0
100
AcDbBlockEnd
  0
BLOCK
  5
70
330
6F
100
AcDbEntity
  8
0
100
AcDbBlockBegin
  2
Block1
 70
     0
 10
0.0
 20
0.0
 30
0.0
  3
Block1
  1

  0
INSERT
  5
77
330
6F
100
AcDbEntity
  8
0
  6
Continuous
 62
     7
370
     0
100
AcDbBlockReference
  2
SW_NOTE_0
 10
40.5248655077
 20
20.5912386523
 30
0.0
  0
INSERT
  5
7D
330
6F
100
AcDbEntity
  8
DRAWING-SHEET
 62
     7
100
AcDbBlockReference
  2
SW_NOTE_0_1
 10
3.556761253
 20
-0.3611706024
 30
0.0
  0
INSERT
  5
82
330
6F
100
AcDbEntity
  8
DRAWING-SHEET
 62
     7
100
AcDbBlockReference
  2
SW_NOTE_0_2
 10
7.9590819428
 20
3.0109637777
 30
0.0
  0
INSERT
  5
87
330
6F
100
AcDbEntity
  8
DRAWING-SHEET
 62
     7
100
AcDbBlockReference
  2
SW_NOTE_0_3
 10
0.0721004934
 20
6.5234823937
 30
0.0
  0
ENDBLK
  5
71
330
6F
100
AcDbEntity
  8
0
100
AcDbBlockEnd
  0
BLOCK
  5
73
330
72
100
AcDbEntity
  8
0
100
AcDbBlockBegin
  2
SW_NOTE_0
 70
     0
 10
0.0
 20
0.0
 30
0.0
  3
SW_NOTE_0
  1

  0
MTEXT
  5
76
330
72
100
AcDbEntity
  8
0
  6
Continuous
 62
     0
370
     0
100
AcDbMText
 10
0.0
 20
1.9336016097
 30
0.0
 40
1.5
 41
0.0
 46
0.0
 71
     1
 72
     1
  1
TITLE:
  7
SLDTEXTSTYLE0
 73
     1
 44
1.0
  0
ENDBLK
  5
74
330
72
100
AcDbEntity
  8
0
100
AcDbBlockEnd
  0
BLOCK
  5
79
330
78
100
AcDbEntity
  8
0
100
AcDbBlockBegin
  2
SW_NOTE_0_1
 70
     0
 10
0.0
 20
0.0
 30
0.0
  3
SW_NOTE_0_1
  1

  0
MTEXT
  5
7C
330
78
100
AcDbEntity
  8
DRAWING-SHEET
 62
     0
100
AcDbMText
 10
0.0
 20
2.7285267159
 30
0.0
 40
2.1166666667
 41
0.0
 46
0.0
 71
     1
 72
     1
  1
Email: roddyeng.com.au
  7
SLDTEXTSTYLE1
 73
     1
 44
1.0
  0
ENDBLK
  5
7A
330
78
100
AcDbEntity
  8
0
100
AcDbBlockEnd
  0
BLOCK
  5
7F
330
7E
100
AcDbEntity
  8
0
100
AcDbBlockBegin
  2
SW_NOTE_0_2
 70
     0
 10
0.0
 20
0.0
 30
0.0
  3
SW_NOTE_0_2
  1

  0
MTEXT
  5
81
330
7E
100
AcDbEntity
  8
DRAWING-SHEET
 62
     0
100
AcDbMText
 10
0.0
 20
2.7285267159
 30
0.0
 40
2.1166666667
 41
0.0
 46
0.0
 71
     1
 72
     1
  1
Ph: - 02 6947 4039
  7
SLDTEXTSTYLE1
 73
     1
 44
1.0
  0
ENDBLK
  5
80
330
7E
100
AcDbEntity
  8
0
100
AcDbBlockEnd
  0
BLOCK
  5
84
330
83
100
AcDbEntity
  8
0
100
AcDbBlockBegin
  2
SW_NOTE_0_3
 70
     0
 10
0.0
 20
0.0
 30
0.0
  3
SW_NOTE_0_3
  1

  0
MTEXT
  5
86
330
83
100
AcDbEntity
  8
DRAWING-SHEET
 62
     0
100
AcDbMText
 10
0.0
 20
2.7285267159
 30
0.0
 40
2.1166666667
 41
0.0
 46
0.0
 71
     1
 72
     1
  1
14 Waratah St TUMUT NSW 2720
  7
SLDTEXTSTYLE1
 73
     1
 44
1.0
  0
ENDBLK
  5
85
330
83
100
AcDbEntity
  8
0
100
AcDbBlockEnd
  0
ENDSEC
  0
SECTION
  2
ENTITIES
  0
SPLINE
  5
88
330
1F
100
AcDbEntity
  8
0
  6
Continuous
 62
     7
370
    25
100
AcDbSpline
210
0.0
220
0.0
230
1.0
 70
     8
 71
     3
 72
    19
 73
    15
 74
     0
 42
0.00000001
 43
0.00000001
 40
0.0
 40
0.0
 40
0.0
 40
0.0
 40
0.074058426273383
 40
0.1488703523168785
 40
0.2266676683691797
 40
0.3077347594511144
 40
0.39115720380598
 40
0.4739293555425543
 40
0.5579277515150556
 40
0.6449892900513604
 40
0.7333640555176183
 40
0.8210920421841613
 40
0.9092872149973381
 40
1.0
 40
1.0
 40
1.0
 40
1.0
 10
923.1426869965949
 20
844.843102919608
 30
0.0
 10
923.1464251088184
 20
844.9283544816232
 30
0.0
 10
923.1539393663002
 20
845.0997249888212
 30
0.0
 10
923.2147012419238
 20
845.3548246992685
 30
0.0
 10
923.3137185368107
 20
845.6053768478952
 30
0.0
 10
923.4483951014123
 20
845.8501670486278
 30
0.0
 10
923.6161373097468
 20
846.0809103964269
 30
0.0
 10
923.8173865573604
 20
846.2878611307927
 30
0.0
 10
924.0473369500935
 20
846.46914451933
 30
0.0
 10
924.3048406461014
 20
846.6213186284695
 30
0.0
 10
924.581952042064
 20
846.7451669914122
 30
0.0
 10
924.8743308395119
 20
846.8306033864263
 30
0.0
 10
925.1768828238739
 20
846.8864573674721
 30
0.0
 10
925.3828204680991
 20
846.8927811495035
 30
0.0
 10
925.4872382786461
 20
846.8959875349926
 30
0.0
  0
SPLINE
  5
89
330
1F
100
AcDbEntity
  8
0
  6
Continuous
 62
     7
370
    25
100
AcDbSpline
210
0.0
220
0.0
230
1.0
 70
     8
 71
     3
 72
    15
 73
    11
 74
     0
 42
0.00000001
 43
0.00000001
 40
0.0
 40
0.0
 40
0.0
 40
0.0
 40
0.145860060391668
 40
0.2824259030758204
 40
0.4108504003575522
 40
0.5350294213479333
 40
0.6547010781259425
 40
0.7701334325965058
 40
0.8845558441988611
 40
1.0
 40
1.0
 40
1.0
 40
1.0
 10
924.310956227364
 20
843.1475900990953
 30
0.0
 10
924.2181759423985
 20
843.1981838559404
 30
0.0
 10
924.0385273415501
 20
843.29614753036
 30
0.0
 10
923.8006543332474
 20
843.4761402300014
 30
0.0
 10
923.5963329082091
 20
843.6710838067219
 30
0.0
 10
923.4311792679455
 20
843.8850947663184
 30
0.0
 10
923.3011856037806
 20
844.1114876218703
 30
0.0
 10
923.2120002219594
 20
844.348845913023
 30
0.0
 10
923.1516654013788
 20
844.592768458178
 30
0.0
 10
923.1456886536273
 20
844.7594111932129
 30
0.0
 10
923.1426869965949
 20
844.843102919608
 30
0.0
  0
SPLINE
  5
8A
330
1F
100
AcDbEntity
  8
0
  6
Continuous
 62
     7
370
    25
100
AcDbSpline
210
0.0
220
0.0
230
1.0
 70
     8
 71
     3
 72
    23
 73
    19
 74
     0
 42
0.00000001
 43
0.00000001
 40
0.0
 40
0.0
 40
0.0
 40
0.0
 40
0.0588535860286673
 40
0.1163154589633496
 40
0.172674843411456
 40
0.2287803868808985
 40
0.2845803591252741
 40
0.3402565063845437
 40
0.3966298050124553
 40
0.4535072628751903
 40
0.5123181897799942
 40
0.5726484440568299
 40
0.6360219358218008
 40
0.7023629463891918
 40
0.7714830560569286
 40
0.8441844774898994
 40
0.9200697939721533
 40
1.0
 40
1.0
 40
1.0
 40
1.0
 10
922.7324305863385
 20
840.9552824067875
 30
0.0
 10
922.7337514572613
 20
841.0114177028717
 30
0.0
 10
922.7363619644198
 20
841.1223608614566
 30
0.0
 10
922.7544301889476
 20
841.2862678975373
 30
0.0
 10
922.7834781004981
 20
841.4458019198785
 30
0.0
 10
922.8229282874547
 20
841.6015521911413
 30
0.0
 10
922.8763934908109
 20
841.7523848140455
 30
0.0
 10
922.9409469379982
 20
841.89901446817
 30
0.0
 10
923.0162199722315
 20
842.0416066943279
 30
0.0
 10
923.1032626352076
 20
842.1809412796283
 30
0.0
 10
923.2045244043533
 20
842.3150658790096
 30
0.0
 10
923.3191841752947
 20
842.446256723832
 30
0.0
 10
923.4495335893864
 20
842.5724781344314
 30
0.0
 10
923.5941225240163
 20
842.6952722485266
 30
0.0
 10
923.7512986142231
 20
842.8168173315431
 30
0.0
 10
923.9251443981893
 20
842.9305447112258
 30
0.0
 10
924.1110512959968
 20
843.0445057735412
 30
0.0
 10
924.243177937385
 20
843.1126390888229
 30
0.0
 10
924.310956227364
 20
843.1475900990953
 30
0.0
  0
SPLINE
  5
8B
330
1F
100
AcDbEntity
  8
0
  6
Continuous
 62
     7
370
    25
100
AcDbSpline
210
0.0
220
0.0
230
1.0
 70
     8
 71
     3
 72
    23
 73
    19
 74
     0
 42
0.00000001
 43
0.00000001
 40
0.0
 40
0.0
 40
0.0
 40
0.0
 40
0.0785564333527027
 40
0.1528628401420922
 40
0.2235596934382875
 40
0.2903749439782087
 40
0.3554030728222039
 40
0.4182911570440922
 40
0.4803885637756455
 40
0.5430726152062784
 40
0.6049239444620939
 40
0.664398309113298
 40
0.7219425547367025
 40
0.7783748910546731
 40
0.8338299406509386
 40
0.8888612363188838
 40
0.944088939577886
 40
1.0
 40
1.0
 40
1.0
 40
1.0
 10
925.4391613555692
 20
838.4857311247363
 30
0.0
 10
925.3317021815897
 20
838.4883653600612
 30
0.0
 10
925.1225975439071
 20
838.4934913144378
 30
0.0
 10
924.8182366809568
 20
838.5282214437576
 30
0.0
 10
924.5345268070248
 20
838.5890851390222
 30
0.0
 10
924.2698183080564
 20
838.6723871031868
 30
0.0
 10
924.0257070089949
 20
838.780753339338
 30
0.0
 10
923.8028884920284
 20
838.9156297021893
 30
0.0
 10
923.5981479840196
 20
839.0715872842719
 30
0.0
 10
923.4176989015825
 20
839.2531051773032
 30
0.0
 10
923.2574967441967
 20
839.4475231711831
 30
0.0
 10
923.1167697657568
 20
839.6480982792077
 30
0.0
 10
922.9998004434076
 20
839.8548488107256
 30
0.0
 10
922.9007670826178
 20
840.064691935722
 30
0.0
 10
922.8249544593406
 20
840.2805688594502
 30
0.0
 10
922.7724465500183
 20
840.5013688894696
 30
0.0
 10
922.7390995464907
 20
840.726706358846
 30
0.0
 10
922.7346626667135
 20
840.8787787091863
 30
0.0
 10
922.7324305863385
 20
840.9552824067875
 30
0.0
  0
SPLINE
  5
8C
330
1F
100
AcDbEntity
  8
0
  6
Continuous
 62
     7
370
    25
100
AcDbSpline
210
0.0
220
0.0
230
1.0
 70
     8
 71
     3
 72
    15
 73
    11
 74
     0
 42
0.00000001
 43
0.00000001
 40
0.0
 40
0.0
 40
0.0
 40
0.0
 40
0.1192834503733708
 40
0.2370928820686309
 40
0.3547960442151283
 40
0.4745763009408482
 40
0.5974600658149762
 40
0.7249261546156146
 40
0.8588831991927639
 40
1.0
 40
1.0
 40
1.0
 40
1.0
 10
927.5625587914667
 20
839.3639362529414
 30
0.0
 10
927.4989325644854
 20
839.2940076262194
 30
0.0
 10
927.3724663574557
 20
839.1550145002095
 30
0.0
 10
927.1558196657616
 20
838.9745555059447
 30
0.0
 10
926.9180553598966
 20
838.8228997480174
 30
0.0
 10
926.6600934567224
 20
838.6993068461916
 30
0.0
 10
926.382623510652
 20
838.6031105972203
 30
0.0
 10
926.0857046429713
 20
838.5339848419899
 30
0.0
 10
925.768758007729
 20
838.4943907180661
 30
0.0
 10
925.5509169308931
 20
838.4886673130388
 30
0.0
 10
925.4391613555692
 20
838.4857311247363
 30
0.0
  0
SPLINE
  5
8D
330
1F
100
AcDbEntity
  8
0
  6
Continuous
 62
     7
370
    25
100
AcDbSpline
210
0.0
220
0.0
230
1.0
 70
     8
 71
     3
 72
    15
 73
    11
 74
     0
 42
0.00000001
 43
0.00000001
 40
0.0
 40
0.0
 40
0.0
 40
0.0
 40
0.1281581855276732
 40
0.2536731361531684
 40
0.3773253059734881
 40
0.4993845547646057
 40
0.6229183680423441
 40
0.745839393104578
 40
0.8713952850140295
 40
1.0
 40
1.0
 40
1.0
 40
1.0
 10
928.1683280222359
 20
841.0209875349926
 30
0.0
 10
928.1665647752884
 20
840.9439641461337
 30
0.0
 10
928.163074647981
 20
840.7915059591786
 30
0.0
 10
928.1326746844967
 20
840.5664862757557
 30
0.0
 10
928.0871593051041
 20
840.3479450599192
 30
0.0
 10
928.020691848467
 20
840.1359302237703
 30
0.0
 10
927.9344898122392
 20
839.9316116561314
 30
0.0
 10
927.8282570442854
 20
839.7348144596901
 30
0.0
 10
927.708002861093
 20
839.5423131815786
 30
0.0
 10
927.6114263143361
 20
839.423868835012
 30
0.0
 10
927.5625587914667
 20
839.3639362529414
 30
0.0
  0
SPLINE
  5
8E
330
1F
100
AcDbEntity
  8
0
  6
Continuous
 62
     7
370
    25
100
AcDbSpline
210
0.0
220
0.0
230
1.0
 70
     8
 71
     3
 72
    23
 73
    19
 74
     0
 42
0.00000001
 43
0.00000001
 40
0.0
 40
0.0
 40
0.0
 40
0.0
 40
0.0795248295850136
 40
0.1550999763495355
 40
0.2272198200732677
 40
0.295910504191471
 40
0.3620558809471782
 40
0.4255201169126369
 40
0.4858127192253088
 40
0.5444947060018102
 40
0.6014596357222267
 40
0.6578405937966495
 40
0.7139744721931386
 40
0.7694679515974512
 40
0.8261299671813291
 40
0.8828853593090689
 40
0.9407008816662019
 40
1.0
 40
1.0
 40
1.0
 40
1.0
 10
926.6218536632615
 20
843.1475900990953
 30
0.0
 10
926.687336056747
 20
843.1134461997611
 30
0.0
 10
926.8150485929941
 20
843.0468541931285
 30
0.0
 10
926.9969393546173
 20
842.9396294441266
 30
0.0
 10
927.1631679289047
 20
842.8266215244316
 30
0.0
 10
927.3183463558486
 20
842.7131681314887
 30
0.0
 10
927.4597483005496
 20
842.5949243568626
 30
0.0
 10
927.5857926727995
 20
842.4714199998159
 30
0.0
 10
927.6995929468974
 20
842.3457378391427
 30
0.0
 10
927.7988541674446
 20
842.2157496330518
 30
0.0
 10
927.8861612228026
 20
842.0818007208366
 30
0.0
 10
927.9616175318392
 20
841.9435395253114
 30
0.0
 10
928.0261139954569
 20
841.8012690481214
 30
0.0
 10
928.0772292839757
 20
841.653436293983
 30
0.0
 10
928.119336236412
 20
841.5022128387643
 30
0.0
 10
928.1483090479361
 20
841.3456460231022
 30
0.0
 10
928.1638905743762
 20
841.1847675296267
 30
0.0
 10
928.1668364336705
 20
841.0760399829207
 30
0.0
 10
928.1683280222359
 20
841.0209875349926
 30
0.0
  0
SPLINE
  5
8F
330
1F
100
AcDbEntity
  8
0
  6
Continuous
 62
     7
370
    25
100
AcDbSpline
210
0.0
220
0.0
230
1.0
 70
     8
 71
     3
 72
    15
 73
    11
 74
     0
 42
0.00000001
 43
0.00000001
 40
0.0
 40
0.0
 40
0.0
 40
0.0
 40
0.1219040408698855
 40
0.2394126076020053
 40
0.3554101042801773
 40
0.4720907288033035
 40
0.5928589821563579
 40
0.7187034677136831
 40
0.8548923829515256
 40
1.0
 40
1.0
 40
1.0
 40
1.0
 10
927.7580716119794
 20
844.8206670221721
 30
0.0
 10
927.7547926162481
 20
844.7338632190709
 30
0.0
 10
927.748352855
 20
844.5633854834525
 30
0.0
 10
927.6941815646519
 20
844.3148677223598
 30
0.0
 10
927.602951133564
 20
844.0821316333743
 30
0.0
 10
927.4783930467454
 20
843.8625363141284
 30
0.0
 10
927.3160490753489
 20
843.6600643195919
 30
0.0
 10
927.1180862569563
 20
843.4721409598402
 30
0.0
 10
926.8860828780869
 20
843.2972224950797
 30
0.0
 10
926.7117722810276
 20
843.1985108053042
 30
0.0
 10
926.6218536632615
 20
843.1475900990953
 30
0.0
  0
SPLINE
  5
90
330
1F
100
AcDbEntity
  8
0
  6
Continuous
 62
     7
370
    25
100
AcDbSpline
210
0.0
220
0.0
230
1.0
 70
     8
 71
     3
 72
    19
 73
    15
 74
     0
 42
0.00000001
 43
0.00000001
 40
0.0
 40
0.0
 40
0.0
 40
0.0
 40
0.089409711110136
 40
0.1763057644831058
 40
0.2626259021834181
 40
0.3494457264756545
 40
0.4354982637429564
 40
0.5189281301037145
 40
0.6013546565787405
 40
0.6842564217184176
 40
0.7658067397968339
 40
0.8448768657103879
 40
0.9222797948488742
 40
1.0
 40
1.0
 40
1.0
 40
1.0
 10
925.4872382786461
 20
846.8959875349926
 30
0.0
 10
925.58896128434
 20
846.8926816078842
 30
0.0
 10
925.7895474629742
 20
846.8861626962475
 30
0.0
 10
926.0843923260111
 20
846.8317926892488
 30
0.0
 10
926.366506331579
 20
846.7409823584004
 30
0.0
 10
926.6349166148486
 20
846.6177887050767
 30
0.0
 10
926.8848180262083
 20
846.4660471260889
 30
0.0
 10
927.1056233045026
 20
846.2822736996404
 30
0.0
 10
927.3006692061379
 20
846.0762358694213
 30
0.0
 10
927.4620049644426
 20
845.8455624904188
 30
0.0
 10
927.594948711685
 20
845.6017129049665
 30
0.0
 10
927.6875221999517
 20
845.346575714354
 30
0.0
 10
927.7468409976028
 20
845.0856635798135
 30
0.0
 10
927.7543229728498
 20
844.9091195708844
 30
0.0
 10
927.7580716119794
 20
844.8206670221721
 30
0.0
  0
LINE
  5
91
330
1F
100
AcDbEntity
  8
0
  6
Continuous
 62
     7
370
    25
100
AcDbLine
 10
941.7484562274
 20
838.6908593299
 30
0.0
 11
936.4760203299
 21
844.9729106119
 31
0.0
  0
LINE
  5
92
330
1F
100
AcDbEntity
  8
0
  6
Continuous
 62
     7
370
    25
100
AcDbLine
 10
941.9119177658
 20
838.6908593299
 30
0.0
 11
941.7484562274
 21
838.6908593299
 31
0.0
  0
LINE
  5
93
330
1F
100
AcDbEntity
  8
0
  6
Continuous
 62
     7
370
    25
100
AcDbLine
 10
941.9119177658
 20
846.6908593299
 30
0.0
 11
941.9119177658
 21
838.6908593299
 31
0.0
  0
LINE
  5
94
330
1F
100
AcDbEntity
  8
0
  6
Continuous
 62
     7
370
    25
100
AcDbLine
 10
941.1939690479
 20
846.6908593299
 30
0.0
 11
941.9119177658
 21
846.6908593299
 31
0.0
  0
LINE
  5
95
330
1F
100
AcDbEntity
  8
0
  6
Continuous
 62
     7
370
    25
100
AcDbLine
 10
941.1939690479
 20
840.3943849709
 30
0.0
 11
941.1939690479
 21
846.6908593299
 31
0.0
  0
LINE
  5
96
330
1F
100
AcDbEntity
  8
0
  6
Continuous
 62
     7
370
    25
100
AcDbLine
 10
935.9087126376
 20
846.6908593299
 30
0.0
 11
941.1939690479
 21
840.3943849709
 31
0.0
  0
LINE
  5
97
330
1F
100
AcDbEntity
  8
0
  6
Continuous
 62
     7
370
    25
100
AcDbLine
 10
935.758071612
 20
846.6908593299
 30
0.0
 11
935.9087126376
 21
846.6908593299
 31
0.0
  0
LINE
  5
98
330
1F
100
AcDbEntity
  8
0
  6
Continuous
 62
     7
370
    25
100
AcDbLine
 10
935.758071612
 20
838.6908593299
 30
0.0
 11
935.758071612
 21
846.6908593299
 31
0.0
  0
LINE
  5
99
330
1F
100
AcDbEntity
  8
0
  6
Continuous
 62
     7
370
    25
100
AcDbLine
 10
936.4760203299
 20
838.6908593299
 30
0.0
 11
935.758071612
 21
838.6908593299
 31
0.0
  0
LINE
  5
9A
330
1F
100
AcDbEntity
  8
0
  6
Continuous
 62
     7
370
    25
100
AcDbLine
 10
936.4760203299
 20
844.9729106119
 30
0.0
 11
936.4760203299
 21
838.6908593299
 31
0.0
  0
SPLINE
  5
9B
330
1F
100
AcDbEntity
  8
0
  6
Continuous
 62
     7
370
    25
100
AcDbSpline
210
0.0
220
0.0
230
1.0
 70
     8
 71
     3
 72
    23
 73
    19
 74
     0
 42
0.00000001
 43
0.00000001
 40
0.0
 40
0.0
 40
0.0
 40
0.0
 40
0.0611602766365183
 40
0.1203345577262017
 40
0.1781802550631244
 40
0.2352351259863634
 40
0.2926829614441805
 40
0.3511862482150802
 40
0.4104566095096941
 40
0.4717198544629959
 40
0.5337612027725886
 40
0.5957390238870942
 40
0.6578875151248846
 40
0.7212951802914609
 40
0.7868225145418899
 40
0.8546861538286843
 40
0.9254779862699962
 40
1.0
 40
1.0
 40
1.0
 40
1.0
 10
948.6811485350563
 20
840.9616926631977
 30
0.0
 10
948.6789157441459
 20
840.8835969554906
 30
0.0
 10
948.6745226654765
 20
840.7299414626762
 30
0.0
 10
948.6421113013697
 20
840.5042154408465
 30
0.0
 10
948.5872333425334
 20
840.28850127716
 30
0.0
 10
948.5116421508426
 20
840.0814037166931
 30
0.0
 10
948.4129854317607
 20
839.8833234093316
 30
0.0
 10
948.2929215132889
 20
839.694035948791
 30
0.0
 10
948.1497636535795
 20
839.5154431931039
 30
0.0
 10
947.989619953118
 20
839.3455606260114
 30
0.0
 10
947.8084493348581
 20
839.1928113978062
 30
0.0
 10
947.612984752178
 20
839.0567754968204
 30
0.0
 10
947.4007645924212
 20
838.9448987834136
 30
0.0
 10
947.1752743203836
 20
838.8509193056927
 30
0.0
 10
946.9339844549795
 20
838.7791314234869
 30
0.0
 10
946.6779784953
 20
838.7289083974313
 30
0.0
 10
946.4074772339629
 20
838.6950683128631
 30
0.0
 10
946.221854945708
 20
838.6922861302462
 30
0.0
 10
946.1266613555692
 20
838.6908593298645
 30
0.0
  0
SPLINE
  5
9C
330
1F
100
AcDbEntity
  8
0
  6
Continuous
 62
     7
370
    25
100
AcDbSpline
210
0.0
220
0.0
230
1.0
 70
     8
 71
     3
 72
    19
 73
    15
 74
     0
 42
0.00000001
 43
0.00000001
 40
0.0
 40
0.0
 40
0.0
 40
0.0
 40
0.1060574933033971
 40
0.2029142570846101
 40
0.2903001653958373
 40
0.3702225656250412
 40
0.4463837207709701
 40
0.5213968999648276
 40
0.5982910828464574
 40
0.6761424688569287
 40
0.7555286995560231
 40
0.8348871724576568
 40
0.9166460487466405
 40
1.0
 40
1.0
 40
1.0
 40
1.0
 10
947.1410844324922
 20
843.0065644580695
 30
0.0
 10
947.2319654098518
 20
842.9716730319195
 30
0.0
 10
947.4058432324332
 20
842.9049170904455
 30
0.0
 10
947.6451255465633
 20
842.7868931727379
 30
0.0
 10
947.8512851922688
 20
842.6585226347005
 30
0.0
 10
948.0259072402349
 20
842.5183355486578
 30
0.0
 10
948.175250451473
 20
842.3672296954232
 30
0.0
 10
948.3056571750682
 20
842.2029894342842
 30
0.0
 10
948.4169288874359
 20
842.0234722734215
 30
0.0
 10
948.5122727127288
 20
841.8305499068789
 30
0.0
 10
948.5866698693601
 20
841.6261922649203
 30
0.0
 10
948.6423862222052
 20
841.4123162052691
 30
0.0
 10
948.6743118202298
 20
841.1896886505392
 30
0.0
 10
948.6788550002943
 20
841.0381792120513
 30
0.0
 10
948.6811485350563
 20
840.9616926631977
 30
0.0
  0
SPLINE
  5
9D
330
1F
100
AcDbEntity
  8
0
  6
Continuous
 62
     7
370
    25
100
AcDbSpline
210
0.0
220
0.0
230
1.0
 70
     8
 71
     3
 72
    15
 73
    11
 74
     0
 42
0.00000001
 43
0.00000001
 40
0.0
 40
0.0
 40
0.0
 40
0.0
 40
0.1305691070873079
 40
0.2565806086940823
 40
0.3805516168036832
 40
0.5036229172007081
 40
0.6257393231697876
 40
0.7475485819596254
 40
0.8717661185648725
 40
1.0
 40
1.0
 40
1.0
 40
1.0
 10
948.0657639196718
 20
844.7084875349926
 30
0.0
 10
948.0632651346602
 20
844.6201388363002
 30
0.0
 10
948.0583547864657
 20
844.4465253116807
 30
0.0
 10
948.0113999079906
 20
844.1925959190324
 30
0.0
 10
947.9378898087003
 20
843.950878847427
 30
0.0
 10
947.8357063820398
 20
843.7222562521883
 30
0.0
 10
947.7029018193014
 20
843.5118937078554
 30
0.0
 10
947.5455113766383
 20
843.3180942426096
 30
0.0
 10
947.3556215423732
 20
843.1490632551926
 30
0.0
 10
947.2133512795436
 20
843.0545651922196
 30
0.0
 10
947.1410844324922
 20
843.0065644580695
 30
0.0
  0
SPLINE
  5
9E
330
1F
100
AcDbEntity
  8
0
  6
Continuous
 62
     7
370
    25
100
AcDbSpline
210
0.0
220
0.0
230
1.0
 70
     8
 71
     3
 72
    23
 73
    19
 74
     0
 42
0.00000001
 43
0.00000001
 40
0.0
 40
0.0
 40
0.0
 40
0.0
 40
0.0625940971873315
 40
0.1213229386347494
 40
0.1766801421977661
 40
0.2283650957096757
 40
0.276868445836807
 40
0.3218791276660453
 40
0.3640986251098918
 40
0.4033556962427022
 40
0.4779679481633705
 40
0.5505354613647755
 40
0.6235844567403235
 40
0.6981748822642031
 40
0.7733536703408758
 40
0.8472811254977322
 40
0.9228183395566693
 40
1.0
 40
1.0
 40
1.0
 40
1.0
 10
945.5240972530052
 20
846.6908593298645
 30
0.0
 10
945.6005052031486
 20
846.6904576146604
 30
0.0
 10
945.7486028267748
 20
846.6896789906169
 30
0.0
 10
945.9639615509548
 20
846.6776032622811
 30
0.0
 10
946.1656731181331
 20
846.6611377311299
 30
0.0
 10
946.3537960263629
 20
846.6350118050859
 30
0.0
 10
946.528243346114
 20
846.6034877430394
 30
0.0
 10
946.6895408026576
 20
846.5653121634043
 30
0.0
 10
946.837175482128
 20
846.5195370464695
 30
0.0
 10
947.013433165342
 20
846.4467455465095
 30
0.0
 10
947.2143946759222
 20
846.3385783045674
 30
0.0
 10
947.4319910021005
 20
846.1787415842268
 30
0.0
 10
947.6180578349218
 20
845.9832388113801
 30
0.0
 10
947.7784837029011
 20
845.7627070275532
 30
0.0
 10
947.9060291191554
 20
845.5201109778366
 30
0.0
 10
947.9983017987341
 20
845.2612328320595
 30
0.0
 10
948.0567197995539
 20
844.9894117076719
 30
0.0
 10
948.0627276491902
 20
844.8027987296629
 30
0.0
 10
948.0657639196718
 20
844.7084875349926
 30
0.0
  0
LINE
  5
9F
330
1F
100
AcDbEntity
  8
0
  6
Continuous
 62
     7
370
    25
100
AcDbLine
 10
943.9631998171
 20
846.6908593299
 30
0.0
 11
945.524097253
 21
846.6908593299
 31
0.0
  0
LINE
  5
A0
330
1F
100
AcDbEntity
  8
0
  6
Continuous
 62
     7
370
    25
100
AcDbLine
 10
943.9631998171
 20
838.6908593299
 30
0.0
 11
943.9631998171
 21
846.6908593299
 31
0.0
  0
LINE
  5
A1
330
1F
100
AcDbEntity
  8
0
  6
Continuous
 62
     7
370
    25
100
AcDbLine
 10
946.1266613556
 20
838.6908593299
 30
0.0
 11
943.9631998171
 21
838.6908593299
 31
0.0
  0
SPLINE
  5
A2
330
1F
100
AcDbEntity
  8
0
  6
Continuous
 62
     7
370
    25
100
AcDbSpline
210
0.0
220
0.0
230
1.0
 70
     8
 71
     3
 72
    31
 73
    27
 74
     0
 42
0.00000001
 43
0.00000001
 40
0.0
 40
0.0
 40
0.0
 40
0.0
 40
0.0337881161627113
 40
0.0671939323738809
 40
0.0998624108568255
 40
0.1325666121262585
 40
0.1651511732547863
 40
0.1979131873557929
 40
0.2313190035669623
 40
0.2650832782673732
 40
0.2992553087581152
 40
0.3343985665049788
 40
0.3699428235093076
 40
0.4062835607000614
 40
0.4440638196985081
 40
0.4829977068727758
 40
0.5233544466133043
 40
0.5655365896041485
 40
0.6096129240658194
 40
0.6563908113764167
 40
0.705885494936457
 40
0.7583245002617315
 40
0.81383178294115
 40
0.8727945590393902
 40
0.9347222295400733
 40
1.0
 40
1.0
 40
1.0
 40
1.0
 10
968.2789049453128
 20
846.8959875349926
 30
0.0
 10
968.3425288961341
 20
846.8948725288768
 30
0.0
 10
968.4690569164671
 20
846.8926551325242
 30
0.0
 10
968.656120631315
 20
846.8713432638737
 30
0.0
 10
968.8388627609484
 20
846.835980696795
 30
0.0
 10
969.016504220842
 20
846.7858756120346
 30
0.0
 10
969.1905041899112
 20
846.7237140653845
 30
0.0
 10
969.3595016931013
 20
846.6458006548492
 30
0.0
 10
969.5245464511402
 20
846.555106100919
 30
0.0
 10
969.6830156797571
 20
846.4485372385038
 30
0.0
 10
969.8366490862625
 20
846.329720607197
 30
0.0
 10
969.9816730016273
 20
846.1954059356465
 30
0.0
 10
970.1181006265357
 20
846.046949434461
 30
0.0
 10
970.2476441817042
 20
845.885939459863
 30
0.0
 10
970.366628403874
 20
845.7092878373863
 30
0.0
 10
970.4799391061264
 20
845.520067014954
 30
0.0
 10
970.5813609024731
 20
845.3149678954253
 30
0.0
 10
970.6790401600241
 20
845.09741254036
 30
0.0
 10
970.763353272571
 20
844.8613813202305
 30
0.0
 10
970.839390404622
 20
844.6082047247606
 30
0.0
 10
970.900828047079
 20
844.3348922976672
 30
0.0
 10
970.952003526709
 20
844.042878022707
 30
0.0
 10
970.991649003156
 20
843.7310894895867
 30
0.0
 10
971.0205236136213
 20
843.4001950541311
 30
0.0
 10
971.0357763794302
 20
843.0499770183808
 30
0.0
 10
971.0386488393311
 20
842.8105305059759
 30
0.0
 10
971.0401228940308
 20
842.6876542016593
 30
0.0
  0
SPLINE
  5
A3
330
1F
100
AcDbEntity
  8
0
  6
Continuous
 62
     7
370
    25
100
AcDbSpline
210
0.0
220
0.0
230
1.0
 70
     8
 71
     3
 72
    31
 73
    27
 74
     0
 42
0.00000001
 43
0.00000001
 40
0.0
 40
0.0
 40
0.0
 40
0.0
 40
0.0685946222587427
 40
0.1332460424433014
 40
0.194312586468256
 40
0.2512792231169663
 40
0.3045134392563468
 40
0.3542349066533251
 40
0.4004805887739893
 40
0.4434107549384921
 40
0.4840148686163452
 40
0.5232523007732034
 40
0.5610423727283604
 40
0.5979002393643995
 40
0.6335184888561959
 40
0.6683143511696517
 40
0.7024956712863825
 40
0.7366853535134587
 40
0.7702931693607896
 40
0.8034372550192487
 40
0.8359129516660286
 40
0.8684602457892912
 40
0.9008465382431832
 40
0.9334665246307086
 40
0.9662575752981237
 40
1.0
 40
1.0
 40
1.0
 40
1.0
 10
965.6042254581333
 20
842.6876542016593
 30
0.0
 10
965.6049752139219
 20
842.8158768021947
 30
0.0
 10
965.6064316253478
 20
843.0649510519032
 30
0.0
 10
965.6226337303586
 20
843.4278873766274
 30
0.0
 10
965.6495487985029
 20
843.7683680371877
 30
0.0
 10
965.6864342221608
 20
844.0864093309899
 30
0.0
 10
965.7313210341005
 20
844.3820933641731
 30
0.0
 10
965.7912421463319
 20
844.6546299519133
 30
0.0
 10
965.8593856951661
 20
844.9052804813145
 30
0.0
 10
965.9383627141616
 20
845.1348623064026
 30
0.0
 10
966.0274776604892
 20
845.346468484739
 30
0.0
 10
966.1244702564253
 20
845.5440118019819
 30
0.0
 10
966.2331897865364
 20
845.7271933616157
 30
0.0
 10
966.3474227303698
 20
845.8989368825755
 30
0.0
 10
966.4717931798048
 20
846.0564310421008
 30
0.0
 10
966.6027618437299
 20
846.2018999850004
 30
0.0
 10
966.7454404180547
 20
846.3319817003462
 30
0.0
 10
966.8949787226799
 20
846.4504875343692
 30
0.0
 10
967.0527306412895
 20
846.554372041048
 30
0.0
 10
967.2141995924738
 20
846.6458754435982
 30
0.0
 10
967.3804969772874
 20
846.7240465687586
 30
0.0
 10
967.5520768239113
 20
846.7855104221518
 30
0.0
 10
967.7273969562307
 20
846.8362780719177
 30
0.0
 10
967.907070251525
 20
846.8709956665384
 30
0.0
 10
968.0913933690938
 20
846.8928400287999
 30
0.0
 10
968.2158080772037
 20
846.894928412206
 30
0.0
 10
968.2789049453128
 20
846.8959875349926
 30
0.0
  0
SPLINE
  5
A4
330
1F
100
AcDbEntity
  8
0
  6
Continuous
 62
     7
370
    25
100
AcDbSpline
210
0.0
220
0.0
230
1.0
 70
     8
 71
     3
 72
    31
 73
    27
 74
     0
 42
0.00000001
 43
0.00000001
 40
0.0
 40
0.0
 40
0.0
 40
0.0
 40
0.0337871463469904
 40
0.0666216577242931
 40
0.0992848780959717
 40
0.1313611650426498
 40
0.1635851875953427
 40
0.1961039269870672
 40
0.2289022543238161
 40
0.2621580559050076
 40
0.295991222258316
 40
0.3302178457248002
 40
0.3650598258919541
 40
0.4009507373401072
 40
0.4376203820767379
 40
0.475707529437092
 40
0.5153806916250481
 40
0.5564135414931645
 40
0.5997648298727305
 40
0.6464241555840871
 40
0.6964314445175672
 40
0.7497815178015571
 40
0.8065733069755329
 40
0.8674355315654002
 40
0.9318867532508747
 40
1.0
 40
1.0
 40
1.0
 40
1.0
 10
968.2789049453128
 20
838.4857311247363
 30
0.0
 10
968.2158098276323
 20
838.4867970800707
 30
0.0
 10
968.0913985710254
 20
838.4888989359276
 30
0.0
 10
967.9070501700209
 20
838.5106446079006
 30
0.0
 10
967.7281188707296
 20
838.5456057581002
 30
0.0
 10
967.5537217186436
 20
838.5945579960228
 30
0.0
 10
967.3829639698808
 20
838.6544776218866
 30
0.0
 10
967.2181724575248
 20
838.7325431844077
 30
0.0
 10
967.0575148948033
 20
838.8224496277356
 30
0.0
 10
966.9014199096191
 20
838.9248391624518
 30
0.0
 10
966.7528206843851
 20
839.0421458667452
 30
0.0
 10
966.6108810150964
 20
839.1718928123144
 30
0.0
 10
966.4791666857319
 20
839.3173177524227
 30
0.0
 10
966.356574467178
 20
839.4761244338118
 30
0.0
 10
966.2400622655878
 20
839.646851844858
 30
0.0
 10
966.1328865551437
 20
839.8318309832475
 30
0.0
 10
966.0337531744168
 20
840.0303283786524
 30
0.0
 10
965.9431394814602
 20
840.2436264601955
 30
0.0
 10
965.8627996791404
 20
840.474837723875
 30
0.0
 10
965.7918334891667
 20
840.7266072747378
 30
0.0
 10
965.7358011292351
 20
841.0011573001414
 30
0.0
 10
965.6878400884743
 20
841.2962827106679
 30
0.0
 10
965.6491557843749
 20
841.6132516944069
 30
0.0
 10
965.622745897933
 20
841.9522363302627
 30
0.0
 10
965.606422892137
 20
842.3130253792368
 30
0.0
 10
965.6049713026052
 20
842.5604991491034
 30
0.0
 10
965.6042254581333
 20
842.6876542016593
 30
0.0
  0
SPLINE
  5
A5
330
1F
100
AcDbEntity
  8
0
  6
Continuous
 62
     7
370
    25
100
AcDbSpline
210
0.0
220
0.0
230
1.0
 70
     8
 71
     3
 72
    31
 73
    27
 74
     0
 42
0.00000001
 43
0.00000001
 40
0.0
 40
0.0
 40
0.0
 40
0.0
 40
0.0650632896172782
 40
0.1267731664665231
 40
0.1855157632260794
 40
0.2407646791677144
 40
0.2929797960235975
 40
0.3422503727797677
 40
0.3889192861856605
 40
0.4327756640583105
 40
0.4746284326311174
 40
0.5147746906379534
 40
0.5536058934984427
 40
0.5914264064311727
 40
0.6280281199460671
 40
0.6638036341103202
 40
0.6989843361316643
 40
0.7335914893067053
 40
0.7676284691511394
 40
0.8012083477865916
 40
0.8342638397266231
 40
0.866980694728776
 40
0.8997197415181599
 40
0.9327019124985375
 40
0.9661758834327488
 40
1.0
 40
1.0
 40
1.0
 40
1.0
 10
971.0401228940308
 20
842.6876542016593
 30
0.0
 10
971.0386335579303
 20
842.5653138406515
 30
0.0
 10
971.0357316472755
 20
842.3269386364027
 30
0.0
 10
971.020694603235
 20
841.9782964071004
 30
0.0
 10
970.9910748748265
 20
841.649158022418
 30
0.0
 10
970.9540234729778
 20
841.3387341082266
 30
0.0
 10
970.9027069861814
 20
841.0483166937512
 30
0.0
 10
970.8396094633214
 20
840.7769008115389
 30
0.0
 10
970.7695515825859
 20
840.523314362018
 30
0.0
 10
970.6830720531921
 20
840.2896347926237
 30
0.0
 10
970.5884190009698
 20
840.0726022832185
 30
0.0
 10
970.4854356954261
 20
839.8699345156077
 30
0.0
 10
970.3751046643731
 20
839.6798401323401
 30
0.0
 10
970.2549018186519
 20
839.5038407107832
 30
0.0
 10
970.1267797313458
 20
839.3406894946165
 30
0.0
 10
969.9879962141047
 20
839.1932663571273
 30
0.0
 10
969.8424634481573
 20
839.0580191069259
 30
0.0
 10
969.6883779262512
 20
838.9376725298695
 30
0.0
 10
969.5274372377205
 20
838.8323358335577
 30
0.0
 10
969.3629593476064
 20
838.738132746957
 30
0.0
 10
969.1920258999555
 20
838.6621723011289
 30
0.0
 10
969.0185105794309
 20
838.5969493503226
 30
0.0
 10
968.8399314568824
 20
838.5471197460114
 30
0.0
 10
968.6565111353066
 20
838.5126652191071
 30
0.0
 10
968.4691825960409
 20
838.4885009940676
 30
0.0
 10
968.3425504472839
 20
838.4866576114955
 30
0.0
 10
968.2789049453128
 20
838.4857311247363
 30
0.0
  0
CIRCLE
  5
A6
330
1F
100
AcDbEntity
  8
0
  6
Continuous
 62
     7
370
    25
100
AcDbCircle
 10
951.4872798434
 20
785.6360078278
 30
0.0
 40
105.0
  0
CIRCLE
  5
A7
330
1F
100
AcDbEntity
  8
0
  6
Continuous
 62
     7
370
    25
100
AcDbCircle
 10
983.690090677
 20
863.3804704886
 30
0.0
 40
11.25
  0
CIRCLE
  5
A8
330
1F
100
AcDbEntity
  8
0
  6
Continuous
 62
     7
370
    25
100
AcDbCircle
 10
1029.2317425043
 20
817.8388186613
 30
0.0
 40
11.24999999999997
  0
CIRCLE
  5
A9
330
1F
100
AcDbEntity
  8
0
  6
Continuous
 62
     7
370
    25
100
AcDbCircle
 10
1029.2317425043
 20
753.4331969943
 30
0.0
 40
11.25
  0
CIRCLE
  5
AA
330
1F
100
AcDbEntity
  8
0
  6
Continuous
 62
     7
370
    25
100
AcDbCircle
 10
983.690090677
 20
707.891545167
 30
0.0
 40
11.24999999999997
  0
CIRCLE
  5
AB
330
1F
100
AcDbEntity
  8
0
  6
Continuous
 62
     7
370
    25
100
AcDbCircle
 10
919.2844690099
 20
707.891545167
 30
0.0
 40
11.24999999999989
  0
CIRCLE
  5
AC
330
1F
100
AcDbEntity
  8
0
  6
Continuous
 62
     7
370
    25
100
AcDbCircle
 10
873.7428171826
 20
753.4331969943
 30
0.0
 40
11.24999999999997
  0
CIRCLE
  5
AD
330
1F
100
AcDbEntity
  8
0
  6
Continuous
 62
     7
370
    25
100
AcDbCircle
 10
873.7428171826
 20
817.8388186613
 30
0.0
 40
11.25000000000011
  0
CIRCLE
  5
AE
330
1F
100
AcDbEntity
  8
0
  6
Continuous
 62
     7
370
    25
100
AcDbCircle
 10
919.2844690099
 20
863.3804704886
 30
0.0
 40
11.25000000000005
  0
SPLINE
  5
AF
330
1F
100
AcDbEntity
  8
0
  6
Continuous
 62
     7
370
    25
100
AcDbSpline
210
0.0
220
0.0
230
1.0
 70
     8
 71
     3
 72
    15
 73
    11
 74
     0
 42
0.00000001
 43
0.00000001
 40
0.0
 40
0.0
 40
0.0
 40
0.0
 40
0.129475949494666
 40
0.253879761658862
 40
0.3748625495355499
 40
0.4942828559514246
 40
0.6142927138995236
 40
0.7369702805339383
 40
0.8650762150057404
 40
1.0
 40
1.0
 40
1.0
 40
1.0
 10
980.4792254581332
 20
838.5882952273003
 30
0.0
 10
980.3604480586894
 20
838.5915880461391
 30
0.0
 10
980.1275462882911
 20
838.5980446897491
 30
0.0
 10
979.7868544824235
 20
838.6515737851437
 30
0.0
 10
979.4643823692209
 20
838.7426860369299
 30
0.0
 10
979.1564565442815
 20
838.8651129071363
 30
0.0
 10
978.8674788920239
 20
839.030892687944
 30
0.0
 10
978.5956147034819
 20
839.2365081172632
 30
0.0
 10
978.3425784230187
 20
839.4853472861963
 30
0.0
 10
978.1935114166166
 20
839.675202120112
 30
0.0
 10
978.1170459709539
 20
839.7725900990952
 30
0.0
  0
SPLINE
  5
B0
330
1F
100
AcDbEntity
  8
0
  6
Continuous
 62
     7
370
    25
100
AcDbSpline
210
0.0
220
0.0
230
1.0
 70
     8
 71
     3
 72
    23
 73
    19
 74
     0
 42
0.00000001
 43
0.00000001
 40
0.0
 40
0.0
 40
0.0
 40
0.0
 40
0.0640152523933092
 40
0.1262279962525578
 40
0.1872887630524854
 40
0.2478694726159613
 40
0.308511205787822
 40
0.3697268830978139
 40
0.4325358014028974
 40
0.4971982300414935
 40
0.56192302901399
 40
0.6251330703809977
 40
0.6868547425652851
 40
0.7481170910764601
 40
0.8095301916518811
 40
0.871487485101256
 40
0.9349814827971775
 40
1.0
 40
1.0
 40
1.0
 40
1.0
 10
983.5529434068513
 20
841.6027183042233
 30
0.0
 10
983.55011725711
 20
841.5005468351976
 30
0.0
 10
983.5445445348973
 20
841.2990807887925
 30
0.0
 10
983.5019815448104
 20
841.0026086600099
 30
0.0
 10
983.4317043685286
 20
840.7172630621878
 30
0.0
 10
983.3312216637507
 20
840.4437813311774
 30
0.0
 10
983.2049018038383
 20
840.1808786721818
 30
0.0
 10
983.0469331737992
 20
839.9315520342177
 30
0.0
 10
982.8645080321509
 20
839.6914629469895
 30
0.0
 10
982.6534654069736
 20
839.4683232178465
 30
0.0
 10
982.4250915717477
 20
839.2620754463421
 30
0.0
 10
982.1807161594819
 20
839.08286204033
 30
0.0
 10
981.9264946243618
 20
838.9280800516887
 30
0.0
 10
981.6584646535356
 20
838.8054390285131
 30
0.0
 10
981.380594844732
 20
838.7062369225764
 30
0.0
 10
981.089908245984
 20
838.6373964864418
 30
0.0
 10
980.7880494391296
 20
838.5972295035657
 30
0.0
 10
980.5829776941598
 20
838.5912967789831
 30
0.0
 10
980.4792254581332
 20
838.5882952273003
 30
0.0
  0
SPLINE
  5
B1
330
1F
100
AcDbEntity
  8
0
  6
Continuous
 62
     7
370
    25
100
AcDbSpline
210
0.0
220
0.0
230
1.0
 70
     8
 71
     3
 72
    23
 73
    19
 74
     0
 42
0.00000001
 43
0.00000001
 40
0.0
 40
0.0
 40
0.0
 40
0.0
 40
0.0646486173546827
 40
0.1278213343090072
 40
0.1894192519051231
 40
0.2503721856209438
 40
0.3111374751755923
 40
0.3728252975636845
 40
0.4354631820975398
 40
0.5001282495925028
 40
0.5647725372671512
 40
0.627344252799145
 40
0.6889194464052625
 40
0.749829199627686
 40
0.8105779045174698
 40
0.8721758221135875
 40
0.9350171406703057
 40
1.0
 40
1.0
 40
1.0
 40
1.0
 10
980.5016613555692
 20
844.6395772785825
 30
0.0
 10
980.6048982419558
 20
844.6367424713045
 30
0.0
 10
980.8090151605811
 20
844.6311375741916
 30
0.0
 10
981.1090886398541
 20
844.5885444418882
 30
0.0
 10
981.3978046974158
 20
844.5194751803594
 30
0.0
 10
981.6750061780139
 20
844.4237216276512
 30
0.0
 10
981.9393996239087
 20
844.296674822319
 30
0.0
 10
982.1932488970859
 20
844.1445804047032
 30
0.0
 10
982.4352534331581
 20
843.9634642236704
 30
0.0
 10
982.6616645998384
 20
843.7563823704483
 30
0.0
 10
982.8703363399457
 20
843.5315672328657
 30
0.0
 10
983.0529935059108
 20
843.2911550837632
 30
0.0
 10
983.2072785256762
 20
843.0386405913013
 30
0.0
 10
983.3348929089237
 20
842.7748690199658
 30
0.0
 10
983.433569601113
 20
842.4987630747831
 30
0.0
 10
983.5015519262704
 20
842.2105934778301
 30
0.0
 10
983.5447369873134
 20
841.9106437209809
 30
0.0
 10
983.550177550303
 20
841.7065001699173
 30
0.0
 10
983.5529434068513
 20
841.6027183042233
 30
0.0
  0
SPLINE
  5
B2
330
1F
100
AcDbEntity
  8
0
  6
Continuous
 62
     7
370
    25
100
AcDbSpline
210
0.0
220
0.0
230
1.0
 70
     8
 71
     3
 72
    15
 73
    11
 74
     0
 42
0.00000001
 43
0.00000001
 40
0.0
 40
0.0
 40
0.0
 40
0.0
 40
0.1346362256586963
 40
0.2626808261854767
 40
0.387189654045833
 40
0.5083896927558587
 40
0.6289661928681562
 40
0.7497231883803491
 40
0.8732482727673925
 40
1.0
 40
1.0
 40
1.0
 40
1.0
 10
978.1170459709539
 20
843.4761157401208
 30
0.0
 10
978.197945214376
 20
843.5692767273065
 30
0.0
 10
978.3557829730916
 20
843.751037653554
 30
0.0
 10
978.6204148616263
 20
843.9884037104064
 30
0.0
 10
978.8979133064831
 20
844.1896665156653
 30
0.0
 10
979.1903893197828
 20
844.3555776438128
 30
0.0
 10
979.4982588810934
 20
844.4819173167181
 30
0.0
 10
979.8199322725056
 20
844.5743113507867
 30
0.0
 10
980.1562317941333
 20
844.6300528434072
 30
0.0
 10
980.3855327630694
 20
844.636375296544
 30
0.0
 10
980.5016613555692
 20
844.6395772785825
 30
0.0
  0
LINE
  5
B3
330
1F
100
AcDbEntity
  8
0
  6
Continuous
 62
     7
370
    25
100
AcDbLine
 10
978.117045971
 20
846.895987535
 30
0.0
 11
978.117045971
 21
843.4761157401
 31
0.0
  0
LINE
  5
B4
330
1F
100
AcDbEntity
  8
0
  6
Continuous
 62
     7
370
    25
100
AcDbLine
 10
977.399097253
 20
846.895987535
 30
0.0
 11
978.117045971
 21
846.895987535
 31
0.0
  0
LINE
  5
B5
330
1F
100
AcDbEntity
  8
0
  6
Continuous
 62
     7
370
    25
100
AcDbLine
 10
977.399097253
 20
838.6908593299
 30
0.0
 11
977.399097253
 21
846.895987535
 31
0.0
  0
LINE
  5
B6
330
1F
100
AcDbEntity
  8
0
  6
Continuous
 62
     7
370
    25
100
AcDbLine
 10
978.117045971
 20
838.6908593299
 30
0.0
 11
977.399097253
 21
838.6908593299
 31
0.0
  0
LINE
  5
B7
330
1F
100
AcDbEntity
  8
0
  6
Continuous
 62
     7
370
    25
100
AcDbLine
 10
978.117045971
 20
839.7725900991
 30
0.0
 11
978.117045971
 21
838.6908593299
 31
0.0
  0
LINE
  5
B8
330
1F
100
AcDbEntity
  8
0
  6
Continuous
 62
     7
370
    25
100
AcDbLine
 10
976.2708921248
 20
839.5113721504
 30
0.0
 11
976.2708921248
 21
838.6908593299
 31
0.0
  0
LINE
  5
B9
330
1F
100
AcDbEntity
  8
0
  6
Continuous
 62
     7
370
    25
100
AcDbLine
 10
973.1939690479
 20
839.5113721504
 30
0.0
 11
976.2708921248
 21
839.5113721504
 31
0.0
  0
LINE
  5
BA
330
1F
100
AcDbEntity
  8
0
  6
Continuous
 62
     7
370
    25
100
AcDbLine
 10
973.1939690479
 20
846.6908593299
 30
0.0
 11
973.1939690479
 21
839.5113721504
 31
0.0
  0
LINE
  5
BB
330
1F
100
AcDbEntity
  8
0
  6
Continuous
 62
     7
370
    25
100
AcDbLine
 10
972.4760203299
 20
846.6908593299
 30
0.0
 11
973.1939690479
 21
846.6908593299
 31
0.0
  0
LINE
  5
BC
330
1F
100
AcDbEntity
  8
0
  6
Continuous
 62
     7
370
    25
100
AcDbLine
 10
972.4760203299
 20
838.6908593299
 30
0.0
 11
972.4760203299
 21
846.6908593299
 31
0.0
  0
LINE
  5
BD
330
1F
100
AcDbEntity
  8
0
  6
Continuous
 62
     7
370
    25
100
AcDbLine
 10
976.2708921248
 20
838.6908593299
 30
0.0
 11
972.4760203299
 21
838.6908593299
 31
0.0
  0
SPLINE
  5
BE
330
1F
100
AcDbEntity
  8
0
  6
Continuous
 62
     7
370
    25
100
AcDbSpline
210
0.0
220
0.0
230
1.0
 70
     8
 71
     3
 72
    31
 73
    27
 74
     0
 42
0.00000001
 43
0.00000001
 40
0.0
 40
0.0
 40
0.0
 40
0.0
 40
0.0337881161627113
 40
0.0671939323738809
 40
0.0998624108568255
 40
0.1325666121262585
 40
0.1651511732547863
 40
0.1979131873557929
 40
0.2313190035669622
 40
0.2650832782673731
 40
0.2992553087581151
 40
0.3343985665049788
 40
0.3699428235093076
 40
0.4062835607000613
 40
0.4440638196985081
 40
0.4829977068727757
 40
0.5233544466133042
 40
0.5655365896041489
 40
0.6096129240658198
 40
0.6563908113764171
 40
0.7058854949364574
 40
0.7583245002617315
 40
0.81383178294115
 40
0.8727945590393902
 40
0.9347222295400733
 40
1.0
 40
1.0
 40
1.0
 40
1.0
 10
962.1250587914666
 20
846.8959875349926
 30
0.0
 10
962.1886827422879
 20
846.8948725288768
 30
0.0
 10
962.315210762621
 20
846.8926551325242
 30
0.0
 10
962.5022744774689
 20
846.8713432638735
 30
0.0
 10
962.6850166071022
 20
846.835980696795
 30
0.0
 10
962.8626580669959
 20
846.7858756120346
 30
0.0
 10
963.0366580360651
 20
846.7237140653845
 30
0.0
 10
963.2056555392551
 20
846.6458006548492
 30
0.0
 10
963.3707002972941
 20
846.555106100919
 30
0.0
 10
963.5291695259109
 20
846.4485372385038
 30
0.0
 10
963.6828029324163
 20
846.329720607197
 30
0.0
 10
963.8278268477811
 20
846.1954059356465
 30
0.0
 10
963.9642544726896
 20
846.046949434461
 30
0.0
 10
964.0937980278582
 20
845.885939459863
 30
0.0
 10
964.2127822500278
 20
845.7092878373863
 30
0.0
 10
964.3260929522802
 20
845.520067014954
 30
0.0
 10
964.4275147486269
 20
845.3149678954253
 30
0.0
 10
964.525194006178
 20
845.09741254036
 30
0.0
 10
964.6095071187249
 20
844.8613813202305
 30
0.0
 10
964.6855442507758
 20
844.6082047247605
 30
0.0
 10
964.7469818932328
 20
844.3348922976672
 30
0.0
 10
964.7981573728628
 20
844.042878022707
 30
0.0
 10
964.8378028493099
 20
843.7310894895867
 30
0.0
 10
964.8666774597751
 20
843.4001950541311
 30
0.0
 10
964.881930225584
 20
843.0499770183808
 30
0.0
 10
964.8848026854849
 20
842.8105305059759
 30
0.0
 10
964.8862767401846
 20
842.6876542016593
 30
0.0
  0
SPLINE
  5
BF
330
1F
100
AcDbEntity
  8
0
  6
Continuous
 62
     7
370
    25
100
AcDbSpline
210
0.0
220
0.0
230
1.0
 70
     8
 71
     3
 72
    31
 73
    27
 74
     0
 42
0.00000001
 43
0.00000001
 40
0.0
 40
0.0
 40
0.0
 40
0.0
 40
0.0685946222587427
 40
0.1332460424433014
 40
0.194312586468256
 40
0.2512792231169663
 40
0.3045134392563468
 40
0.3542349066533251
 40
0.4004805887739893
 40
0.4434107549384921
 40
0.4840148686163452
 40
0.5232523007732034
 40
0.5610423727283604
 40
0.5979002393644002
 40
0.6335184888561958
 40
0.6683143511696515
 40
0.7024956712863825
 40
0.7366853535134587
 40
0.7702931693607896
 40
0.8034372550192498
 40
0.8359129516660296
 40
0.8684602457892912
 40
0.9008465382431832
 40
0.9334665246307086
 40
0.9662575752981237
 40
1.0
 40
1.0
 40
1.0
 40
1.0
 10
959.4503793042871
 20
842.6876542016593
 30
0.0
 10
959.4511290600757
 20
842.8158768021947
 30
0.0
 10
959.4525854715016
 20
843.0649510519032
 30
0.0
 10
959.4687875765125
 20
843.4278873766274
 30
0.0
 10
959.4957026446568
 20
843.7683680371877
 30
0.0
 10
959.5325880683146
 20
844.0864093309899
 30
0.0
 10
959.5774748802543
 20
844.3820933641731
 30
0.0
 10
959.6373959924857
 20
844.6546299519133
 30
0.0
 10
959.70553954132
 20
844.9052804813145
 30
0.0
 10
959.7845165603155
 20
845.1348623064026
 30
0.0
 10
959.873631506643
 20
845.346468484739
 30
0.0
 10
959.9706241025792
 20
845.5440118019819
 30
0.0
 10
960.0793436326903
 20
845.7271933616157
 30
0.0
 10
960.1935765765237
 20
845.8989368825755
 30
0.0
 10
960.3179470259586
 20
846.0564310421009
 30
0.0
 10
960.4489156898837
 20
846.2018999850004
 30
0.0
 10
960.5915942642087
 20
846.3319817003462
 30
0.0
 10
960.7411325688337
 20
846.4504875343692
 30
0.0
 10
960.8988844874433
 20
846.554372041048
 30
0.0
 10
961.0603534386279
 20
846.6458754435982
 30
0.0
 10
961.2266508234413
 20
846.7240465687586
 30
0.0
 10
961.3982306700652
 20
846.7855104221518
 30
0.0
 10
961.5735508023845
 20
846.8362780719177
 30
0.0
 10
961.7532240976789
 20
846.8709956665384
 30
0.0
 10
961.9375472152476
 20
846.8928400287999
 30
0.0
 10
962.0619619233577
 20
846.894928412206
 30
0.0
 10
962.1250587914666
 20
846.8959875349926
 30
0.0
  0
SPLINE
  5
C0
330
1F
100
AcDbEntity
  8
0
  6
Continuous
 62
     7
370
    25
100
AcDbSpline
210
0.0
220
0.0
230
1.0
 70
     8
 71
     3
 72
    31
 73
    27
 74
     0
 42
0.00000001
 43
0.00000001
 40
0.0
 40
0.0
 40
0.0
 40
0.0
 40
0.0337871463469904
 40
0.0666216577242931
 40
0.0992848780959718
 40
0.1313611650426498
 40
0.1635851875953428
 40
0.1961039269870673
 40
0.2289022543238161
 40
0.2621580559050066
 40
0.295991222258316
 40
0.3302178457247993
 40
0.3650598258919541
 40
0.4009507373401072
 40
0.4376203820767372
 40
0.475707529437092
 40
0.5153806916250481
 40
0.5564135414931645
 40
0.5997648298727306
 40
0.6464241555840872
 40
0.6964314445175672
 40
0.749781517801557
 40
0.8065733069755329
 40
0.8674355315654002
 40
0.9318867532508747
 40
1.0
 40
1.0
 40
1.0
 40
1.0
 10
962.1250587914666
 20
838.4857311247363
 30
0.0
 10
962.0619636737861
 20
838.4867970800707
 30
0.0
 10
961.9375524171792
 20
838.4888989359276
 30
0.0
 10
961.7532040161747
 20
838.5106446079006
 30
0.0
 10
961.5742727168835
 20
838.5456057581002
 30
0.0
 10
961.3998755647974
 20
838.5945579960228
 30
0.0
 10
961.2291178160347
 20
838.6544776218866
 30
0.0
 10
961.0643263036786
 20
838.7325431844077
 30
0.0
 10
960.9036687409571
 20
838.8224496277356
 30
0.0
 10
960.7475737557729
 20
838.9248391624518
 30
0.0
 10
960.598974530539
 20
839.0421458667452
 30
0.0
 10
960.4570348612502
 20
839.1718928123144
 30
0.0
 10
960.3253205318858
 20
839.3173177524227
 30
0.0
 10
960.2027283133318
 20
839.4761244338118
 30
0.0
 10
960.0862161117416
 20
839.646851844858
 30
0.0
 10
959.9790404012975
 20
839.8318309832475
 30
0.0
 10
959.8799070205706
 20
840.0303283786525
 30
0.0
 10
959.789293327614
 20
840.2436264601955
 30
0.0
 10
959.7089535252942
 20
840.474837723875
 30
0.0
 10
959.6379873353205
 20
840.7266072747378
 30
0.0
 10
959.581954975389
 20
841.0011573001414
 30
0.0
 10
959.5339939346281
 20
841.2962827106679
 30
0.0
 10
959.4953096305287
 20
841.613251694407
 30
0.0
 10
959.4688997440868
 20
841.9522363302627
 30
0.0
 10
959.4525767382908
 20
842.3130253792368
 30
0.0
 10
959.451125148759
 20
842.5604991491034
 30
0.0
 10
959.4503793042871
 20
842.6876542016593
 30
0.0
  0
SPLINE
  5
C1
330
1F
100
AcDbEntity
  8
0
  6
Continuous
 62
     7
370
    25
100
AcDbSpline
210
0.0
220
0.0
230
1.0
 70
     8
 71
     3
 72
    31
 73
    27
 74
     0
 42
0.00000001
 43
0.00000001
 40
0.0
 40
0.0
 40
0.0
 40
0.0
 40
0.0650632896172782
 40
0.1267731664665231
 40
0.1855157632260793
 40
0.2407646791677143
 40
0.2929797960235975
 40
0.3422503727797677
 40
0.3889192861856604
 40
0.4327756640583105
 40
0.4746284326311169
 40
0.5147746906379529
 40
0.5536058934984427
 40
0.5914264064311727
 40
0.6280281199460671
 40
0.6638036341103203
 40
0.6989843361316634
 40
0.7335914893067054
 40
0.7676284691511395
 40
0.8012083477865917
 40
0.8342638397266231
 40
0.866980694728776
 40
0.8997197415181599
 40
0.9327019124985375
 40
0.9661758834327488
 40
1.0
 40
1.0
 40
1.0
 40
1.0
 10
964.8862767401846
 20
842.6876542016593
 30
0.0
 10
964.8847874040842
 20
842.5653138406515
 30
0.0
 10
964.8818854934293
 20
842.3269386364027
 30
0.0
 10
964.8668484493888
 20
841.9782964071004
 30
0.0
 10
964.8372287209803
 20
841.649158022418
 30
0.0
 10
964.8001773191316
 20
841.3387341082266
 30
0.0
 10
964.7488608323353
 20
841.0483166937512
 30
0.0
 10
964.6857633094752
 20
840.7769008115389
 30
0.0
 10
964.6157054287397
 20
840.5233143620179
 30
0.0
 10
964.529225899346
 20
840.2896347926237
 30
0.0
 10
964.4345728471236
 20
840.0726022832185
 30
0.0
 10
964.3315895415799
 20
839.8699345156077
 30
0.0
 10
964.2212585105269
 20
839.67984013234
 30
0.0
 10
964.1010556648057
 20
839.5038407107832
 30
0.0
 10
963.9729335774997
 20
839.3406894946166
 30
0.0
 10
963.8341500602585
 20
839.1932663571273
 30
0.0
 10
963.6886172943111
 20
839.0580191069258
 30
0.0
 10
963.534531772405
 20
838.9376725298695
 30
0.0
 10
963.3735910838743
 20
838.8323358335577
 30
0.0
 10
963.2091131937603
 20
838.738132746957
 30
0.0
 10
963.0381797461093
 20
838.6621723011289
 30
0.0
 10
962.8646644255848
 20
838.5969493503226
 30
0.0
 10
962.6860853030363
 20
838.5471197460114
 30
0.0
 10
962.5026649814604
 20
838.5126652191071
 30
0.0
 10
962.315336442195
 20
838.4885009940676
 30
0.0
 10
962.1887042934377
 20
838.4866576114955
 30
0.0
 10
962.1250587914666
 20
838.4857311247363
 30
0.0
  0
SPLINE
  5
C2
330
1F
100
AcDbEntity
  8
0
  6
Continuous
 62
     7
370
    25
100
AcDbSpline
210
0.0
220
0.0
230
1.0
 70
     8
 71
     3
 72
    19
 73
    15
 74
     0
 42
0.00000001
 43
0.00000001
 40
0.0
 40
0.0
 40
0.0
 40
0.0
 40
0.1101655532114449
 40
0.2157872561749736
 40
0.3180274349094169
 40
0.4175739541655085
 40
0.5116504876474471
 40
0.5961620971027629
 40
0.672934533484997
 40
0.7436695573498577
 40
0.8106770010653622
 40
0.8740589623137366
 40
0.9366963019193723
 40
1.0
 40
1.0
 40
1.0
 40
1.0
 10
955.5529434068512
 20
843.5113721503773
 30
0.0
 10
955.6519174999262
 20
843.5130517017401
 30
0.0
 10
955.8457834349163
 20
843.516341530272
 30
0.0
 10
956.1289704172244
 20
843.5561312683177
 30
0.0
 10
956.3997665592478
 20
843.6111727038738
 30
0.0
 10
956.6521705409643
 20
843.6954817147774
 30
0.0
 10
956.8822247429088
 20
843.7934023933129
 30
0.0
 10
957.0818124048103
 20
843.9073503007775
 30
0.0
 10
957.248137312865
 20
844.0340125847699
 30
0.0
 10
957.3803911905593
 20
844.1753442632668
 30
0.0
 10
957.4798865703251
 20
844.3269215146572
 30
0.0
 10
957.5526335358704
 20
844.4849024465144
 30
0.0
 10
957.5956057101449
 20
844.6506717286546
 30
0.0
 10
957.6013420916714
 20
844.7638023982113
 30
0.0
 10
957.6042254581333
 20
844.8206670221721
 30
0.0
  0
LINE
  5
C3
330
1F
100
AcDbEntity
  8
0
  6
Continuous
 62
     7
370
    25
100
AcDbLine
 10
955.5529434069
 20
842.6908593299
 30
0.0
 11
955.5529434069
 21
843.5113721504
 31
0.0
  0
SPLINE
  5
C4
330
1F
100
AcDbEntity
  8
0
  6
Continuous
 62
     7
370
    25
100
AcDbSpline
210
0.0
220
0.0
230
1.0
 70
     8
 71
     3
 72
    23
 73
    19
 74
     0
 42
0.00000001
 43
0.00000001
 40
0.0
 40
0.0
 40
0.0
 40
0.0
 40
0.0669091856056562
 40
0.1334854404229642
 40
0.2010351165700812
 40
0.2712343400187636
 40
0.3428799841615832
 40
0.4138361296100208
 40
0.4859766219744192
 40
0.5602295572555469
 40
0.5998841807523903
 40
0.6440548396425955
 40
0.6918919315842533
 40
0.7446875244737723
 40
0.8014917751698765
 40
0.8628576982200914
 40
0.9293283793947414
 40
1.0
 40
1.0
 40
1.0
 40
1.0
 10
958.0144818683898
 20
840.9985516375567
 30
0.0
 10
958.0109840363308
 20
841.0730918406882
 30
0.0
 10
958.0040057769379
 20
841.2218013452825
 30
0.0
 10
957.9507290239291
 20
841.4405843721912
 30
0.0
 10
957.8630973343119
 20
841.6513807434806
 30
0.0
 10
957.7404173084648
 20
841.8505939778987
 30
0.0
 10
957.5910785001325
 20
842.0352246099775
 30
0.0
 10
957.4165301415978
 20
842.1999594270701
 30
0.0
 10
957.2153227624588
 20
842.3358910638042
 30
0.0
 10
957.0301344903829
 20
842.4298079927154
 30
0.0
 10
956.8660998469268
 20
842.4938927359925
 30
0.0
 10
956.725721825355
 20
842.5365783690194
 30
0.0
 10
956.5685638747871
 20
842.5727238677076
 30
0.0
 10
956.3965265059252
 20
842.606351916907
 30
0.0
 10
956.2083134397699
 20
842.634972141254
 30
0.0
 10
956.004129581534
 20
842.6588391486675
 30
0.0
 10
955.7839335550086
 20
842.6779363851123
 30
0.0
 10
955.6314966044752
 20
842.6864646028984
 30
0.0
 10
955.5529434068512
 20
842.6908593298645
 30
0.0
  0
SPLINE
  5
C5
330
1F
100
AcDbEntity
  8
0
  6
Continuous
 62
     7
370
    25
100
AcDbSpline
210
0.0
220
0.0
230
1.0
 70
     8
 71
     3
 72
    23
 73
    19
 74
     0
 42
0.00000001
 43
0.00000001
 40
0.0
 40
0.0
 40
0.0
 40
0.0
 40
0.0760717369555651
 40
0.1487517145745115
 40
0.2184027938458455
 40
0.2857595810623856
 40
0.3505980236748781
 40
0.4149640445981288
 40
0.4780693385717818
 40
0.5417606760069076
 40
0.6043498585387171
 40
0.6640750210708953
 40
0.7214636230801988
 40
0.7775871282364437
 40
0.8326444469271315
 40
0.8878435110684585
 40
0.9434603426519464
 40
1.0
 40
1.0
 40
1.0
 40
1.0
 10
955.9776228940308
 20
839.306243945249
 30
0.0
 10
956.0524880429411
 20
839.3076517286711
 30
0.0
 10
956.1988803787547
 20
839.3104045276232
 30
0.0
 10
956.4124914857963
 20
839.3357204289857
 30
0.0
 10
956.615708508804
 20
839.3725899454301
 30
0.0
 10
956.8062751962755
 20
839.4295339061572
 30
0.0
 10
956.9866877845064
 20
839.4998901380587
 30
0.0
 10
957.1544172693591
 20
839.5882293504852
 30
0.0
 10
957.311665512087
 20
839.6918744285132
 30
0.0
 10
957.4564184387758
 20
839.809678219693
 30
0.0
 10
957.5865795988052
 20
839.9386416370209
 30
0.0
 10
957.7011842004999
 20
840.0735286567018
 30
0.0
 10
957.7986119981671
 20
840.2137705527241
 30
0.0
 10
957.8772030340276
 20
840.3601434005335
 30
0.0
 10
957.9392614347147
 20
840.5120410665452
 30
0.0
 10
957.9815087503007
 20
840.6698898193554
 30
0.0
 10
958.0108836420148
 20
840.8323978563932
 30
0.0
 10
958.0132758984208
 20
840.942864071117
 30
0.0
 10
958.0144818683898
 20
840.9985516375567
 30
0.0
  0
SPLINE
  5
C6
330
1F
100
AcDbEntity
  8
0
  6
Continuous
 62
     7
370
    25
100
AcDbSpline
210
0.0
220
0.0
230
1.0
 70
     8
 71
     3
 72
    15
 73
    11
 74
     0
 42
0.00000001
 43
0.00000001
 40
0.0
 40
0.0
 40
0.0
 40
0.0
 40
0.1182713048357229
 40
0.2361775330837641
 40
0.3556629329485077
 40
0.4759041646706818
 40
0.6001273417110852
 40
0.7286081161551198
 40
0.8613134756739442
 40
0.9999999999999999
 40
0.9999999999999999
 40
0.9999999999999999
 40
0.9999999999999999
 10
954.6410844324923
 20
839.7389362529414
 30
0.0
 10
954.6858766074068
 20
839.7044029183459
 30
0.0
 10
954.7753226939914
 20
839.6354428456957
 30
0.0
 10
954.9210786507878
 20
839.5474391233237
 30
0.0
 10
955.0743698189838
 20
839.4711853511299
 30
0.0
 10
955.2385176457744
 20
839.4129369037784
 30
0.0
 10
955.4099799782407
 20
839.3636165362602
 30
0.0
 10
955.5915282416279
 20
839.3313410639574
 30
0.0
 10
955.7815607378832
 20
839.3091966723158
 30
0.0
 10
955.9113156258445
 20
839.3072425431903
 30
0.0
 10
955.9776228940308
 20
839.306243945249
 30
0.0
  0
SPLINE
  5
C7
330
1F
100
AcDbEntity
  8
0
  6
Continuous
 62
     7
370
    25
100
AcDbSpline
210
0.0
220
0.0
230
1.0
 70
     8
 71
     3
 72
    15
 73
    11
 74
     0
 42
0.00000001
 43
0.00000001
 40
0.0
 40
0.0
 40
0.0
 40
0.0
 40
0.1497703860319643
 40
0.2913164099952429
 40
0.4259663731047386
 40
0.5521595739695279
 40
0.6715274135235944
 40
0.7861216286916578
 40
0.895325073070442
 40
1.0
 40
1.0
 40
1.0
 40
1.0
 10
954.0144818683898
 20
840.8447054837106
 30
0.0
 10
954.0331865345389
 20
840.7831077390966
 30
0.0
 10
954.0695687348999
 20
840.6632947753981
 30
0.0
 10
954.1314985589801
 20
840.4908597909982
 30
0.0
 10
954.2020546094269
 20
840.3327842407701
 30
0.0
 10
954.2777450291665
 20
840.187908533392
 30
0.0
 10
954.3572386200755
 20
840.0548058991882
 30
0.0
 10
954.4461870203874
 20
839.9369959128246
 30
0.0
 10
954.5380022092954
 20
839.8293040220592
 30
0.0
 10
954.6072121598128
 20
839.7686306233388
 30
0.0
 10
954.6410844324923
 20
839.7389362529414
 30
0.0
  0
LINE
  5
C8
330
1F
100
AcDbEntity
  8
0
  6
Continuous
 62
     7
370
    25
100
AcDbLine
 10
953.2965331504
 20
840.8447054837
 30
0.0
 11
954.0144818684
 21
840.8447054837
 31
0.0
  0
SPLINE
  5
C9
330
1F
100
AcDbEntity
  8
0
  6
Continuous
 62
     7
370
    25
100
AcDbSpline
210
0.0
220
0.0
230
1.0
 70
     8
 71
     3
 72
    23
 73
    19
 74
     0
 42
0.00000001
 43
0.00000001
 40
0.0
 40
0.0
 40
0.0
 40
0.0
 40
0.0655411703374025
 40
0.1289631677825932
 40
0.1903771361885604
 40
0.2500923616690525
 40
0.308548432459201
 40
0.3663979630552963
 40
0.4245421892666799
 40
0.4831699964229056
 40
0.5422433998311205
 40
0.6017393520173302
 40
0.6625060022496071
 40
0.7248555134488479
 40
0.7891278292811819
 40
0.85634639987851
 40
0.9262952349869051
 40
1.0
 40
1.0
 40
1.0
 40
1.0
 10
955.9648023812101
 20
838.4857311247363
 30
0.0
 10
955.8792725519917
 20
838.4877156121842
 30
0.0
 10
955.7109783689743
 20
838.4916204217323
 30
0.0
 10
955.463564658377
 20
838.5183143673244
 30
0.0
 10
955.2274007741153
 20
838.5670686650108
 30
0.0
 10
955.0021674075857
 20
838.6326762201332
 30
0.0
 10
954.7876644672576
 20
838.7158573448887
 30
0.0
 10
954.5845465125657
 20
838.8194429403659
 30
0.0
 10
954.3915638988054
 20
838.9412978021987
 30
0.0
 10
954.2105377247607
 20
839.0828602886137
 30
0.0
 10
954.0414895700036
 20
839.2412176366291
 30
0.0
 10
953.8889119146204
 20
839.4191810879838
 30
0.0
 10
953.7502609593242
 20
839.6134608683749
 30
0.0
 10
953.6292492136979
 20
839.8263135682577
 30
0.0
 10
953.520364750576
 20
840.0549884420354
 30
0.0
 10
953.4308082782393
 20
840.3024135811934
 30
0.0
 10
953.3519841213564
 20
840.5663770600255
 30
0.0
 10
953.3153362030796
 20
840.7503261804274
 30
0.0
 10
953.2965331504411
 20
840.8447054837106
 30
0.0
  0
SPLINE
  5
CA
330
1F
100
AcDbEntity
  8
0
  6
Continuous
 62
     7
370
    25
100
AcDbSpline
210
0.0
220
0.0
230
1.0
 70
     8
 71
     3
 72
    19
 73
    15
 74
     0
 42
0.00000001
 43
0.00000001
 40
0.0
 40
0.0
 40
0.0
 40
0.0
 40
0.079648251180228
 40
0.1589216764181117
 40
0.2396194947370305
 40
0.3226094298185606
 40
0.4060346366179245
 40
0.4876020954923881
 40
0.5696846265959302
 40
0.653036145008834
 40
0.7374357177222874
 40
0.8224778158555094
 40
0.9097476551184072
 40
1.0
 40
1.0
 40
1.0
 40
1.0
 10
958.7324305863384
 20
841.067461893967
 30
0.0
 10
958.7283288411535
 20
840.9554396741105
 30
0.0
 10
958.7201446536617
 20
840.7319224127533
 30
0.0
 10
958.6469924838158
 20
840.4016944775914
 30
0.0
 10
958.5335907908008
 20
840.0788933295315
 30
0.0
 10
958.372546365732
 20
839.7701508398271
 30
0.0
 10
958.1762777741241
 20
839.4812813975407
 30
0.0
 10
957.9427753188595
 20
839.222821262597
 30
0.0
 10
957.6746920996362
 20
839.0006530241145
 30
0.0
 10
957.3757077594058
 20
838.8150296457035
 30
0.0
 10
957.051782894299
 20
838.6666458235472
 30
0.0
 10
956.7053243983058
 20
838.5636573827551
 30
0.0
 10
956.3413242749571
 20
838.496580812078
 30
0.0
 10
956.0917075948372
 20
838.4893879689006
 30
0.0
 10
955.9648023812101
 20
838.4857311247363
 30
0.0
  0
SPLINE
  5
CB
330
1F
100
AcDbEntity
  8
0
  6
Continuous
 62
     7
370
    25
100
AcDbSpline
210
0.0
220
0.0
230
1.0
 70
     8
 71
     3
 72
    15
 73
    11
 74
     0
 42
0.00000001
 43
0.00000001
 40
0.0
 40
0.0
 40
0.0
 40
0.0
 40
0.1281355097972544
 40
0.2541727119019792
 40
0.3781116451390028
 40
0.5017122630072816
 40
0.6239863093684831
 40
0.7470956136177408
 40
0.8728746366500604
 40
1.0
 40
1.0
 40
1.0
 40
1.0
 10
958.2548664837743
 20
842.4889362529414
 30
0.0
 10
958.2933609805806
 20
842.436232820693
 30
0.0
 10
958.3697196001546
 20
842.3316890113906
 30
0.0
 10
958.4639722487301
 20
842.163605752227
 30
0.0
 10
958.5494787957159
 20
841.9936594910109
 30
0.0
 10
958.6161078684628
 20
841.81729513438
 30
0.0
 10
958.6677052783755
 20
841.6365568173557
 30
0.0
 10
958.7045876377808
 20
841.4511341977937
 30
0.0
 10
958.7274999597942
 20
841.2608758608237
 30
0.0
 10
958.7307812215415
 20
841.13216162032
 30
0.0
 10
958.7324305863384
 20
841.067461893967
 30
0.0
  0
SPLINE
  5
CC
330
1F
100
AcDbEntity
  8
0
  6
Continuous
 62
     7
370
    25
100
AcDbSpline
210
0.0
220
0.0
230
1.0
 70
     8
 71
     3
 72
    11
 73
     7
 74
     0
 42
0.00000001
 43
0.00000001
 40
0.0
 40
0.0
 40
0.0
 40
0.0
 40
0.2538796003266584
 40
0.5030089172783632
 40
0.750291080689974
 40
1.0
 40
1.0
 40
1.0
 40
1.0
 10
957.3878793042871
 20
843.1716285606336
 30
0.0
 10
957.4729804575976
 20
843.1305355971102
 30
0.0
 10
957.6415904559227
 20
843.049118551144
 30
0.0
 10
957.8714202377122
 20
842.8894482482475
 30
0.0
 10
958.0800553813851
 20
842.7050908828672
 30
0.0
 10
958.1964067391082
 20
842.561221961922
 30
0.0
 10
958.2548664837743
 20
842.4889362529414
 30
0.0
  0
SPLINE
  5
CD
330
1F
100
AcDbEntity
  8
0
  6
Continuous
 62
     7
370
    25
100
AcDbSpline
210
0.0
220
0.0
230
1.0
 70
     8
 71
     3
 72
    15
 73
    11
 74
     0
 42
0.00000001
 43
0.00000001
 40
0.0
 40
0.0
 40
0.0
 40
0.0
 40
0.1280675485958897
 40
0.2506083188676693
 40
0.3706301659145032
 40
0.4900722467299481
 40
0.6103747641546196
 40
0.7343130699115241
 40
0.8632165042449899
 40
1.0
 40
1.0
 40
1.0
 40
1.0
 10
958.3221741760821
 20
844.817461893967
 30
0.0
 10
958.319514539403
 20
844.7328749346399
 30
0.0
 10
958.314310043149
 20
844.5673513815815
 30
0.0
 10
958.2701187161495
 20
844.3257022452656
 30
0.0
 10
958.1957501152895
 20
844.0979500160491
 30
0.0
 10
958.0927335151115
 20
843.8831359311955
 30
0.0
 10
957.9593814002766
 20
843.6826220115998
 30
0.0
 10
957.7978438073844
 20
843.4959571182044
 30
0.0
 10
957.606980580469
 20
843.3223133281969
 30
0.0
 10
957.4623430078443
 20
843.2228402471101
 30
0.0
 10
957.3878793042871
 20
843.1716285606336
 30
0.0
  0
SPLINE
  5
CE
330
1F
100
AcDbEntity
  8
0
  6
Continuous
 62
     7
370
    25
100
AcDbSpline
210
0.0
220
0.0
230
1.0
 70
     8
 71
     3
 72
    19
 73
    15
 74
     0
 42
0.00000001
 43
0.00000001
 40
0.0
 40
0.0
 40
0.0
 40
0.0
 40
0.0902542493426765
 40
0.1785397915286855
 40
0.2660930338538209
 40
0.3546309779571741
 40
0.4418861533505635
 40
0.5257469151636487
 40
0.6081136336036377
 40
0.6901972728278822
 40
0.7708214843303357
 40
0.8483261812554106
 40
0.9240117400247435
 40
1.0
 40
1.0
 40
1.0
 40
1.0
 10
955.9856357145435
 20
846.8959875349926
 30
0.0
 10
956.0900534107152
 20
846.8928350087185
 30
0.0
 10
956.2966111500145
 20
846.8865987219189
 30
0.0
 10
956.6000695430442
 20
846.829651438538
 30
0.0
 10
956.8927022724205
 20
846.7395368502999
 30
0.0
 10
957.1713062674293
 20
846.6150254739869
 30
0.0
 10
957.4300912562207
 20
846.4614544724734
 30
0.0
 10
957.660345397357
 20
846.2786779309996
 30
0.0
 10
957.858947707766
 20
846.0702223847429
 30
0.0
 10
958.025563428132
 20
845.8399765234433
 30
0.0
 10
958.1560205688262
 20
845.5939067877017
 30
0.0
 10
958.2522179939227
 20
845.3406492856508
 30
0.0
 10
958.3107818362054
 20
845.080804779619
 30
0.0
 10
958.3183716803429
 20
844.9053595700757
 30
0.0
 10
958.3221741760821
 20
844.817461893967
 30
0.0
  0
SPLINE
  5
CF
330
1F
100
AcDbEntity
  8
0
  6
Continuous
 62
     7
370
    25
100
AcDbSpline
210
0.0
220
0.0
230
1.0
 70
     8
 71
     3
 72
    23
 73
    19
 74
     0
 42
0.00000001
 43
0.00000001
 40
0.0
 40
0.0
 40
0.0
 40
0.0
 40
0.0726253460834356
 40
0.1419766113262352
 40
0.2089849284189382
 40
0.2739568703644447
 40
0.3368893473968411
 40
0.3987449534945899
 40
0.4601158852788621
 40
0.5208249225900294
 40
0.5809944586324853
 40
0.6401519276014656
 40
0.6986224507562556
 40
0.7572710809271646
 40
0.8164266940046614
 40
0.8762540482034715
 40
0.9371652930625392
 40
1.0
 40
1.0
 40
1.0
 40
1.0
 10
953.6042254581333
 20
844.8447054837106
 30
0.0
 10
953.6236758596899
 20
844.9252368756544
 30
0.0
 10
953.6616998038204
 20
845.0826691599758
 30
0.0
 10
953.7410085431779
 20
845.3076000419126
 30
0.0
 10
953.8274068407655
 20
845.5204538050913
 30
0.0
 10
953.9311533654851
 20
845.7172448306808
 30
0.0
 10
954.0443162322875
 20
845.901928036927
 30
0.0
 10
954.1739681672267
 20
846.0703146071397
 30
0.0
 10
954.3141275330917
 20
846.2266870996361
 30
0.0
 10
954.4691559886386
 20
846.3654602140525
 30
0.0
 10
954.6317357866747
 20
846.4911235950965
 30
0.0
 10
954.8041577746764
 20
846.5982665833076
 30
0.0
 10
954.9829529602092
 20
846.6904360755692
 30
0.0
 10
955.1693601212345
 20
846.7663680341415
 30
0.0
 10
955.363934227959
 20
846.8235692310926
 30
0.0
 10
955.564916224121
 20
846.8650705010144
 30
0.0
 10
955.7728327958116
 20
846.8920216192189
 30
0.0
 10
955.9139701457506
 20
846.8946519348448
 30
0.0
 10
955.9856357145435
 20
846.8959875349926
 30
0.0
  0
LINE
  5
D0
330
1F
100
AcDbEntity
  8
0
  6
Continuous
 62
     7
370
    25
100
AcDbLine
 10
954.3221741761
 20
844.8447054837
 30
0.0
 11
953.6042254581
 21
844.8447054837
 31
0.0
  0
SPLINE
  5
D1
330
1F
100
AcDbEntity
  8
0
  6
Continuous
 62
     7
370
    25
100
AcDbSpline
210
0.0
220
0.0
230
1.0
 70
     8
 71
     3
 72
    19
 73
    15
 74
     0
 42
0.00000001
 43
0.00000001
 40
0.0
 40
0.0
 40
0.0
 40
0.0
 40
0.1227119423657791
 40
0.239684964016774
 40
0.3518158552560943
 40
0.4637661328620823
 40
0.5208177931608304
 40
0.5794482914480024
 40
0.6406041451203199
 40
0.7052975118059824
 40
0.7736338807131333
 40
0.8446693818863796
 40
0.9200565080211439
 40
1.0
 40
1.0
 40
1.0
 40
1.0
 10
955.995251099159
 20
846.0754747144798
 30
0.0
 10
955.9041615722949
 20
846.0722944584727
 30
0.0
 10
955.7262425405546
 20
846.0660826788209
 30
0.0
 10
955.4697513019139
 20
846.011675790935
 30
0.0
 10
955.2313071099127
 20
845.9248687429501
 30
0.0
 10
955.0490473005656
 20
845.8212504128202
 30
0.0
 10
954.9144585596318
 20
845.718963706875
 30
0.0
 10
954.8182827008816
 20
845.6296325380266
 30
0.0
 10
954.7238358199561
 20
845.5303575125146
 30
0.0
 10
954.6373314157295
 20
845.4150240833088
 30
0.0
 10
954.5498480404732
 20
845.291442848587
 30
0.0
 10
954.4702033284078
 20
845.1533315764918
 30
0.0
 10
954.3928097461188
 20
845.0042929609446
 30
0.0
 10
954.3461753469905
 20
844.8989315105401
 30
0.0
 10
954.3221741760821
 20
844.8447054837106
 30
0.0
  0
SPLINE
  5
D2
330
1F
100
AcDbEntity
  8
0
  6
Continuous
 62
     7
370
    25
100
AcDbSpline
210
0.0
220
0.0
230
1.0
 70
     8
 71
     3
 72
    23
 73
    19
 74
     0
 42
0.00000001
 43
0.00000001
 40
0.0
 40
0.0
 40
0.0
 40
0.0
 40
0.0552745490875265
 40
0.1099660938819843
 40
0.1632474428518069
 40
0.2180761854823623
 40
0.2733008743735916
 40
0.330909300011435
 40
0.390994523365211
 40
0.4541759534308255
 40
0.5188615408488269
 40
0.5833105320111682
 40
0.6485166818638262
 40
0.7150308870971823
 40
0.7825020728543318
 40
0.8523226850768537
 40
0.924928489784429
 40
1.0
 40
1.0
 40
1.0
 40
1.0
 10
957.6042254581333
 20
844.8206670221721
 30
0.0
 10
957.603278233078
 20
844.8624447253551
 30
0.0
 10
957.6013937737547
 20
844.9455594844302
 30
0.0
 10
957.5776285673925
 20
845.0669882128608
 30
0.0
 10
957.5419164737178
 20
845.1847046606921
 30
0.0
 10
957.4928199495876
 20
845.2982082269871
 30
0.0
 10
957.4271052096866
 20
845.4067117101827
 30
0.0
 10
957.3484629547738
 20
845.5111401649032
 30
0.0
 10
957.2548215827063
 20
845.6108973740602
 30
0.0
 10
957.1475177038296
 20
845.7038809616137
 30
0.0
 10
957.0322907210433
 20
845.7924963608491
 30
0.0
 10
956.9060055209337
 20
845.8677275310877
 30
0.0
 10
956.7724698073065
 20
845.932059101548
 30
0.0
 10
956.6315357390781
 20
845.9851093920713
 30
0.0
 10
956.4827459554932
 20
846.0250163365665
 30
0.0
 10
956.3267995379875
 20
846.0536696883422
 30
0.0
 10
956.1633991185305
 20
846.0715843277287
 30
0.0
 10
956.0519208739429
 20
846.0741635640908
 30
0.0
 10
955.995251099159
 20
846.0754747144798
 30
0.0
  0
LINE
  5
D3
330
1F
100
AcDbEntity
  8
0
  6
Continuous
 62
     7
370
    25
100
AcDbLine
 10
952.6811485351
 20
842.178038817
 30
0.0
 11
952.6811485351
 21
841.3575259965
 31
0.0
  0
LINE
  5
D4
330
1F
100
AcDbEntity
  8
0
  6
Continuous
 62
     7
370
    25
100
AcDbLine
 10
949.6042254581
 20
842.178038817
 30
0.0
 11
952.6811485351
 21
842.178038817
 31
0.0
  0
LINE
  5
D5
330
1F
100
AcDbEntity
  8
0
  6
Continuous
 62
     7
370
    25
100
AcDbLine
 10
949.6042254581
 20
841.3575259965
 30
0.0
 11
949.6042254581
 21
842.178038817
 31
0.0
  0
LINE
  5
D6
330
1F
100
AcDbEntity
  8
0
  6
Continuous
 62
     7
370
    25
100
AcDbLine
 10
952.6811485351
 20
841.3575259965
 30
0.0
 11
949.6042254581
 21
841.3575259965
 31
0.0
  0
SPLINE
  5
D7
330
1F
100
AcDbEntity
  8
0
  6
Continuous
 62
     7
370
    25
100
AcDbSpline
210
0.0
220
0.0
230
1.0
 70
     8
 71
     3
 72
    31
 73
    27
 74
     0
 42
0.00000001
 43
0.00000001
 40
0.0
 40
0.0
 40
0.0
 40
0.0
 40
0.0337881161627107
 40
0.0671939323738803
 40
0.0998624108568249
 40
0.1325666121262579
 40
0.1651511732547864
 40
0.1979131873557924
 40
0.2313190035669618
 40
0.2650832782673727
 40
0.2992553087581147
 40
0.3343985665049784
 40
0.3699428235093072
 40
0.406283560700061
 40
0.4440638196985077
 40
0.4829977068727754
 40
0.5233544466133039
 40
0.5655365896041484
 40
0.6096129240658194
 40
0.6563908113764165
 40
0.7058854949364568
 40
0.7583245002617311
 40
0.8138317829411498
 40
0.87279455903939
 40
0.9347222295400733
 40
1.0
 40
1.0
 40
1.0
 40
1.0
 10
931.5609562273642
 20
846.8959875349926
 30
0.0
 10
931.6245801781854
 20
846.8948725288768
 30
0.0
 10
931.7511081985185
 20
846.8926551325242
 30
0.0
 10
931.9381719133662
 20
846.8713432638737
 30
0.0
 10
932.1209140429995
 20
846.835980696795
 30
0.0
 10
932.2985555028934
 20
846.7858756120346
 30
0.0
 10
932.4725554719626
 20
846.7237140653845
 30
0.0
 10
932.6415529751525
 20
846.6458006548493
 30
0.0
 10
932.8065977331916
 20
846.555106100919
 30
0.0
 10
932.9650669618084
 20
846.4485372385038
 30
0.0
 10
933.1187003683136
 20
846.329720607197
 30
0.0
 10
933.2637242836786
 20
846.1954059356465
 30
0.0
 10
933.4001519085871
 20
846.046949434461
 30
0.0
 10
933.5296954637555
 20
845.885939459863
 30
0.0
 10
933.6486796859252
 20
845.7092878373863
 30
0.0
 10
933.7619903881777
 20
845.520067014954
 30
0.0
 10
933.8634121845242
 20
845.3149678954253
 30
0.0
 10
933.9610914420754
 20
845.09741254036
 30
0.0
 10
934.0454045546222
 20
844.8613813202305
 30
0.0
 10
934.1214416866732
 20
844.6082047247605
 30
0.0
 10
934.1828793291303
 20
844.3348922976672
 30
0.0
 10
934.2340548087602
 20
844.042878022707
 30
0.0
 10
934.2737002852074
 20
843.7310894895867
 30
0.0
 10
934.3025748956726
 20
843.4001950541311
 30
0.0
 10
934.3178276614814
 20
843.0499770183808
 30
0.0
 10
934.3207001213824
 20
842.8105305059759
 30
0.0
 10
934.322174176082
 20
842.6876542016593
 30
0.0
  0
SPLINE
  5
D8
330
1F
100
AcDbEntity
  8
0
  6
Continuous
 62
     7
370
    25
100
AcDbSpline
210
0.0
220
0.0
230
1.0
 70
     8
 71
     3
 72
    31
 73
    27
 74
     0
 42
0.00000001
 43
0.00000001
 40
0.0
 40
0.0
 40
0.0
 40
0.0
 40
0.0685946222587427
 40
0.1332460424433013
 40
0.1943125864682559
 40
0.2512792231169661
 40
0.3045134392563467
 40
0.3542349066533249
 40
0.4004805887739889
 40
0.4434107549384919
 40
0.4840148686163452
 40
0.5232523007732034
 40
0.5610423727283604
 40
0.5979002393643995
 40
0.6335184888561954
 40
0.6683143511696517
 40
0.702495671286382
 40
0.7366853535134581
 40
0.7702931693607892
 40
0.8034372550192488
 40
0.8359129516660286
 40
0.8684602457892906
 40
0.9008465382431826
 40
0.933466524630708
 40
0.9662575752981231
 40
1.0
 40
1.0
 40
1.0
 40
1.0
 10
928.8862767401846
 20
842.6876542016593
 30
0.0
 10
928.8870264959731
 20
842.8158768021947
 30
0.0
 10
928.888482907399
 20
843.0649510519032
 30
0.0
 10
928.9046850124099
 20
843.4278873766274
 30
0.0
 10
928.9316000805542
 20
843.7683680371878
 30
0.0
 10
928.968485504212
 20
844.0864093309899
 30
0.0
 10
929.0133723161516
 20
844.3820933641732
 30
0.0
 10
929.0732934283832
 20
844.6546299519133
 30
0.0
 10
929.1414369772174
 20
844.9052804813147
 30
0.0
 10
929.2204139962129
 20
845.1348623064026
 30
0.0
 10
929.3095289425405
 20
845.346468484739
 30
0.0
 10
929.4065215384767
 20
845.5440118019819
 30
0.0
 10
929.5152410685878
 20
845.7271933616156
 30
0.0
 10
929.6294740124212
 20
845.8989368825755
 30
0.0
 10
929.753844461856
 20
846.0564310421008
 30
0.0
 10
929.8848131257812
 20
846.2018999850004
 30
0.0
 10
930.0274917001061
 20
846.3319817003462
 30
0.0
 10
930.177030004731
 20
846.4504875343692
 30
0.0
 10
930.3347819233408
 20
846.554372041048
 30
0.0
 10
930.4962508745252
 20
846.6458754435982
 30
0.0
 10
930.6625482593388
 20
846.7240465687586
 30
0.0
 10
930.8341281059627
 20
846.7855104221518
 30
0.0
 10
931.009448238282
 20
846.8362780719177
 30
0.0
 10
931.1891215335762
 20
846.8709956665384
 30
0.0
 10
931.3734446511451
 20
846.8928400287999
 30
0.0
 10
931.4978593592551
 20
846.894928412206
 30
0.0
 10
931.5609562273642
 20
846.8959875349926
 30
0.0
  0
SPLINE
  5
D9
330
1F
100
AcDbEntity
  8
0
  6
Continuous
 62
     7
370
    25
100
AcDbSpline
210
0.0
220
0.0
230
1.0
 70
     8
 71
     3
 72
    31
 73
    27
 74
     0
 42
0.00000001
 43
0.00000001
 40
0.0
 40
0.0
 40
0.0
 40
0.0
 40
0.033787146346991
 40
0.0666216577242937
 40
0.0992848780959723
 40
0.1313611650426503
 40
0.1635851875953433
 40
0.1961039269870677
 40
0.2289022543238165
 40
0.2621580559050075
 40
0.2959912222583164
 40
0.3302178457248002
 40
0.3650598258919545
 40
0.4009507373401076
 40
0.437620382076738
 40
0.4757075294370926
 40
0.5153806916250484
 40
0.5564135414931648
 40
0.5997648298727308
 40
0.6464241555840874
 40
0.6964314445175674
 40
0.7497815178015572
 40
0.806573306975533
 40
0.8674355315654003
 40
0.9318867532508747
 40
1.0
 40
1.0
 40
1.0
 40
1.0
 10
931.5609562273642
 20
838.4857311247363
 30
0.0
 10
931.4978611096834
 20
838.4867970800707
 30
0.0
 10
931.3734498530765
 20
838.4888989359276
 30
0.0
 10
931.1891014520721
 20
838.5106446079006
 30
0.0
 10
931.0101701527809
 20
838.5456057581002
 30
0.0
 10
930.8357730006949
 20
838.5945579960228
 30
0.0
 10
930.6650152519322
 20
838.6544776218866
 30
0.0
 10
930.5002237395761
 20
838.7325431844077
 30
0.0
 10
930.3395661768545
 20
838.8224496277356
 30
0.0
 10
930.1834711916704
 20
838.9248391624518
 30
0.0
 10
930.0348719664364
 20
839.0421458667452
 30
0.0
 10
929.8929322971477
 20
839.1718928123144
 30
0.0
 10
929.7612179677832
 20
839.3173177524227
 30
0.0
 10
929.6386257492293
 20
839.4761244338117
 30
0.0
 10
929.522113547639
 20
839.646851844858
 30
0.0
 10
929.414937837195
 20
839.8318309832475
 30
0.0
 10
929.315804456468
 20
840.0303283786524
 30
0.0
 10
929.2251907635114
 20
840.2436264601955
 30
0.0
 10
929.1448509611915
 20
840.474837723875
 30
0.0
 10
929.0738847712181
 20
840.7266072747378
 30
0.0
 10
929.0178524112864
 20
841.0011573001414
 30
0.0
 10
928.9698913705256
 20
841.2962827106679
 30
0.0
 10
928.9312070664262
 20
841.613251694407
 30
0.0
 10
928.9047971799841
 20
841.9522363302627
 30
0.0
 10
928.8884741741882
 20
842.3130253792368
 30
0.0
 10
928.8870225846565
 20
842.5604991491034
 30
0.0
 10
928.8862767401846
 20
842.6876542016593
 30
0.0
  0
SPLINE
  5
DA
330
1F
100
AcDbEntity
  8
0
  6
Continuous
 62
     7
370
    25
100
AcDbSpline
210
0.0
220
0.0
230
1.0
 70
     8
 71
     3
 72
    31
 73
    27
 74
     0
 42
0.00000001
 43
0.00000001
 40
0.0
 40
0.0
 40
0.0
 40
0.0
 40
0.0650632896172782
 40
0.1267731664665232
 40
0.1855157632260794
 40
0.2407646791677144
 40
0.2929797960235976
 40
0.3422503727797679
 40
0.3889192861856606
 40
0.4327756640583105
 40
0.4746284326311174
 40
0.5147746906379533
 40
0.5536058934984429
 40
0.591426406431173
 40
0.6280281199460673
 40
0.6638036341103205
 40
0.6989843361316641
 40
0.7335914893067057
 40
0.7676284691511398
 40
0.801208347786592
 40
0.8342638397266234
 40
0.8669806947287765
 40
0.8997197415181604
 40
0.932701912498538
 40
0.9661758834327493
 40
0.9999999999999999
 40
0.9999999999999999
 40
0.9999999999999999
 40
0.9999999999999999
 10
934.322174176082
 20
842.6876542016593
 30
0.0
 10
934.3206848399816
 20
842.5653138406515
 30
0.0
 10
934.3177829293268
 20
842.3269386364027
 30
0.0
 10
934.3027458852863
 20
841.9782964071004
 30
0.0
 10
934.2731261568778
 20
841.649158022418
 30
0.0
 10
934.2360747550291
 20
841.3387341082266
 30
0.0
 10
934.1847582682328
 20
841.0483166937512
 30
0.0
 10
934.1216607453727
 20
840.7769008115389
 30
0.0
 10
934.0516028646372
 20
840.523314362018
 30
0.0
 10
933.9651233352434
 20
840.2896347926237
 30
0.0
 10
933.8704702830211
 20
840.0726022832185
 30
0.0
 10
933.7674869774773
 20
839.8699345156077
 30
0.0
 10
933.6571559464244
 20
839.6798401323401
 30
0.0
 10
933.5369531007032
 20
839.5038407107832
 30
0.0
 10
933.4088310133972
 20
839.3406894946166
 30
0.0
 10
933.2700474961559
 20
839.1932663571273
 30
0.0
 10
933.1245147302085
 20
839.0580191069259
 30
0.0
 10
932.9704292083024
 20
838.9376725298695
 30
0.0
 10
932.8094885197718
 20
838.8323358335577
 30
0.0
 10
932.6450106296578
 20
838.738132746957
 30
0.0
 10
932.4740771820068
 20
838.6621723011289
 30
0.0
 10
932.3005618614823
 20
838.5969493503226
 30
0.0
 10
932.1219827389338
 20
838.5471197460114
 30
0.0
 10
931.9385624173578
 20
838.5126652191071
 30
0.0
 10
931.7512338780923
 20
838.4885009940676
 30
0.0
 10
931.6246017293352
 20
838.4866576114955
 30
0.0
 10
931.5609562273642
 20
838.4857311247363
 30
0.0
  0
CIRCLE
  5
DB
330
1F
100
AcDbEntity
  8
0
  6
Continuous
 62
     7
370
    25
100
AcDbCircle
 10
983.9872798434
 20
785.6360078278
 30
0.0
 40
7.5
  0
CIRCLE
  5
DC
330
1F
100
AcDbEntity
  8
0
  6
Continuous
 62
     7
370
    25
100
AcDbCircle
 10
918.9872798434
 20
785.6360078278
 30
0.0
 40
7.5
  0
SPLINE
  5
DD
330
1F
100
AcDbEntity
  8
0
  6
Continuous
 62
     7
370
    25
100
AcDbSpline
210
0.0
220
0.0
230
1.0
 70
     8
 71
     3
 72
    19
 73
    15
 74
     0
 42
0.00000001
 43
0.00000001
 40
0.0
 40
0.0
 40
0.0
 40
0.0
 40
0.0748982079275957
 40
0.1485962943439415
 40
0.2244712347857283
 40
0.3023227423595716
 40
0.3819186179896831
 40
0.4611486955215904
 40
0.5424171227241528
 40
0.6267160830665721
 40
0.7145968311855379
 40
0.804902920355321
 40
0.9001272540718603
 40
1.0
 40
1.0
 40
1.0
 40
1.0
 10
923.4503793042871
 20
840.931243945249
 30
0.0
 10
923.4534953243581
 20
840.8594018740615
 30
0.0
 10
923.4596774353649
 20
840.7168688835955
 30
0.0
 10
923.5087211811693
 20
840.5062104349463
 30
0.0
 10
923.5874309766126
 20
840.3022765953348
 30
0.0
 10
923.697202898812
 20
840.1067292747791
 30
0.0
 10
923.8331287789042
 20
839.9239861746221
 30
0.0
 10
924.0002749914269
 20
839.7646975446835
 30
0.0
 10
924.1882540491414
 20
839.6231627365389
 30
0.0
 10
924.4034262869192
 20
839.5086929458556
 30
0.0
 10
924.6384627807641
 20
839.4172761342395
 30
0.0
 10
924.8933010182892
 20
839.3542910766784
 30
0.0
 10
925.1642836895991
 20
839.312596334062
 30
0.0
 10
925.3513913290496
 20
839.3083947771612
 30
0.0
 10
925.4471741760821
 20
839.306243945249
 30
0.0
  0
SPLINE
  5
DE
330
1F
100
AcDbEntity
  8
0
  6
Continuous
 62
     7
370
    25
100
AcDbSpline
210
0.0
220
0.0
230
1.0
 70
     8
 71
     3
 72
    23
 73
    19
 74
     0
 42
0.00000001
 43
0.00000001
 40
0.0
 40
0.0
 40
0.0
 40
0.0
 40
0.0712686925865607
 40
0.1398117850281264
 40
0.2064974320993707
 40
0.2715352442755387
 40
0.3360818306156433
 40
0.4005283877476353
 40
0.4649838426509145
 40
0.5300503053616139
 40
0.5944234089533965
 40
0.6555827099825238
 40
0.7148491056365311
 40
0.7721150638706
 40
0.8289992113006468
 40
0.8851221627752373
 40
0.9420793532637981
 40
0.9999999999999999
 40
0.9999999999999999
 40
0.9999999999999999
 40
0.9999999999999999
 10
925.4936485350563
 20
842.6908593298645
 30
0.0
 10
925.4225038823507
 20
842.6895938638821
 30
0.0
 10
925.2829354333028
 20
842.6871113284031
 30
0.0
 10
925.0784624546832
 20
842.6594781845424
 30
0.0
 10
924.8822266478554
 20
842.6210110004206
 30
0.0
 10
924.6948896501628
 20
842.5626547981922
 30
0.0
 10
924.5165305718638
 20
842.4867771061417
 30
0.0
 10
924.3461838688189
 20
842.3954981576884
 30
0.0
 10
924.1851527155258
 20
842.2876000018151
 30
0.0
 10
924.0356607695643
 20
842.1644534521124
 30
0.0
 10
923.899150302141
 20
842.0317461287726
 30
0.0
 10
923.7793827594087
 20
841.8912612484636
 30
0.0
 10
923.6776741411563
 20
841.7456097448708
 30
0.0
 10
923.5957695677022
 20
841.5929417922329
 30
0.0
 10
923.5285427515679
 20
841.436490110286
 30
0.0
 10
923.4843967464149
 20
841.2723584640152
 30
0.0
 10
923.4560956913878
 20
841.1037022052875
 30
0.0
 10
923.4522953907613
 20
840.9890505516929
 30
0.0
 10
923.4503793042871
 20
840.9312439452491
 30
0.0
  0
SPLINE
  5
DF
330
1F
100
AcDbEntity
  8
0
  6
Continuous
 62
     7
370
    25
100
AcDbSpline
210
0.0
220
0.0
230
1.0
 70
     8
 71
     3
 72
    23
 73
    19
 74
     0
 42
0.00000001
 43
0.00000001
 40
0.0
 40
0.0
 40
0.0
 40
0.0
 40
0.0573394259201579
 40
0.1130633316232404
 40
0.1691814487493794
 40
0.2257745596549401
 40
0.283826303892084
 40
0.3434542790864923
 40
0.4059069615102781
 40
0.4713922597696832
 40
0.538002833712693
 40
0.603063556196348
 40
0.6676018307634213
 40
0.732225442816905
 40
0.7970048098289856
 40
0.8630479900344338
 40
0.9303569870570442
 40
1.0
 40
1.0
 40
1.0
 40
1.0
 10
927.4503793042873
 20
841.0065644580695
 30
0.0
 10
927.4483087933531
 20
841.061141236557
 30
0.0
 10
927.4442261074767
 20
841.1687571100337
 30
0.0
 10
927.4183136700498
 20
841.3282234568053
 30
0.0
 10
927.3727916651833
 20
841.4822870321005
 30
0.0
 10
927.3103290437863
 20
841.6328013313519
 30
0.0
 10
927.227172557666
 20
841.776716647311
 30
0.0
 10
927.1292414262394
 20
841.9177821817409
 30
0.0
 10
927.0110834407698
 20
842.0520826265331
 30
0.0
 10
926.8775689352826
 20
842.1806611317014
 30
0.0
 10
926.7320627393724
 20
842.2995542441887
 30
0.0
 10
926.5773949797056
 20
842.4047301038653
 30
0.0
 10
926.4147562092803
 20
842.4933063696063
 30
0.0
 10
926.2444905844017
 20
842.5653440732685
 30
0.0
 10
926.0669761708352
 20
842.62200114677
 30
0.0
 10
925.8823435340886
 20
842.6615805643414
 30
0.0
 10
925.690376506092
 20
842.6864939422662
 30
0.0
 10
925.5599653728979
 20
842.689387761282
 30
0.0
 10
925.4936485350563
 20
842.6908593298645
 30
0.0
  0
SPLINE
  5
E0
330
1F
100
AcDbEntity
  8
0
  6
Continuous
 62
     7
370
    25
100
AcDbSpline
210
0.0
220
0.0
230
1.0
 70
     8
 71
     3
 72
    23
 73
    19
 74
     0
 42
0.00000001
 43
0.00000001
 40
0.0
 40
0.0
 40
0.0
 40
0.0
 40
0.0765589329940486
 40
0.149161351979115
 40
0.218826846126995
 40
0.2855671390889788
 40
0.350313105719212
 40
0.4141251538580798
 40
0.4771791613162273
 40
0.5403680185081843
 40
0.6022023899907502
 40
0.6620336537315632
 40
0.71993440704958
 40
0.775907432682327
 40
0.8311148643832971
 40
0.886667447011963
 40
0.9425523618334888
 40
0.9999999999999999
 40
0.9999999999999999
 40
0.9999999999999999
 40
0.9999999999999999
 10
925.4471741760821
 20
839.306243945249
 30
0.0
 10
925.5220321599036
 20
839.307681221633
 30
0.0
 10
925.6678795174435
 20
839.3104814969267
 30
0.0
 10
925.8806474007486
 20
839.3351998839156
 30
0.0
 10
926.0814349404374
 20
839.3743990260143
 30
0.0
 10
926.2698527653721
 20
839.4314128450602
 30
0.0
 10
926.4480101134449
 20
839.5010127914746
 30
0.0
 10
926.6128863512538
 20
839.5905489777864
 30
0.0
 10
926.7687229846393
 20
839.6923828590418
 30
0.0
 10
926.9078409794809
 20
839.8132015025775
 30
0.0
 10
927.0345454566067
 20
839.9422974904995
 30
0.0
 10
927.1450215537478
 20
840.0789604462564
 30
0.0
 10
927.2409245278774
 20
840.2194761771694
 30
0.0
 10
927.3161952838888
 20
840.3670201421706
 30
0.0
 10
927.3763695782237
 20
840.5187616612517
 30
0.0
 10
927.4196234175153
 20
840.6760999727259
 30
0.0
 10
927.4463119095306
 20
840.8395176480483
 30
0.0
 10
927.4490110998094
 20
840.9503726677096
 30
0.0
 10
927.4503793042873
 20
841.0065644580695
 30
0.0
  0
LINE
  5
E1
330
1F
100
AcDbEntity
  8
0
  6
Continuous
 62
     7
370
    25
100
AcDbLine
 10
944.6811485351
 20
845.8703465094
 30
0.0
 11
944.6811485351
 21
843.3062439452
 31
0.0
  0
LINE
  5
E2
330
1F
100
AcDbEntity
  8
0
  6
Continuous
 62
     7
370
    25
100
AcDbLine
 10
944.6811485351
 20
843.3062439452
 30
0.0
 11
945.1635203299
 21
843.3062439452
 31
0.0
  0
SPLINE
  5
E3
330
1F
100
AcDbEntity
  8
0
  6
Continuous
 62
     7
370
    25
100
AcDbSpline
210
0.0
220
0.0
230
1.0
 70
     8
 71
     3
 72
    23
 73
    19
 74
     0
 42
0.00000001
 43
0.00000001
 40
0.0
 40
0.0
 40
0.0
 40
0.0
 40
0.0723010339955049
 40
0.1397003317393861
 40
0.2022885114847729
 40
0.2605995332222008
 40
0.3131903291553315
 40
0.3617389329854278
 40
0.4057064756322226
 40
0.4455399848948707
 40
0.5188319558616069
 40
0.5897782395835756
 40
0.6588674786561446
 40
0.7284304780610623
 40
0.7972827036080989
 40
0.8648153774014443
 40
0.9313637528792664
 40
1.0
 40
1.0
 40
1.0
 40
1.0
 10
945.1635203299282
 20
843.306243945249
 30
0.0
 10
945.2340318621943
 20
843.3071580549781
 30
0.0
 10
945.3702745119142
 20
843.3089243012591
 30
0.0
 10
945.56757713262
 20
843.3139837688294
 30
0.0
 10
945.750720031354
 20
843.328150725211
 30
0.0
 10
945.9193870783803
 20
843.3423136099073
 30
0.0
 10
946.0733126645897
 20
843.3653412388533
 30
0.0
 10
946.2121557765947
 20
843.39275180551
 30
0.0
 10
946.3380954267398
 20
843.4217413028733
 30
0.0
 10
946.4833286736803
 20
843.471042987217
 30
0.0
 10
946.6480668415844
 20
843.5439062447803
 30
0.0
 10
946.823685365366
 20
843.6569847273402
 30
0.0
 10
946.9785070101406
 20
843.7916689632239
 30
0.0
 10
947.1092434392131
 20
843.9470768758067
 30
0.0
 10
947.2162410861357
 20
844.1181995863396
 30
0.0
 10
947.2905581493454
 20
844.302306741619
 30
0.0
 10
947.3409519417627
 20
844.4948099005575
 30
0.0
 10
947.3455040134363
 20
844.6269659069341
 30
0.0
 10
947.347815201723
 20
844.6940644580696
 30
0.0
  0
SPLINE
  5
E4
330
1F
100
AcDbEntity
  8
0
  6
Continuous
 62
     7
370
    25
100
AcDbSpline
210
0.0
220
0.0
230
1.0
 70
     8
 71
     3
 72
    23
 73
    19
 74
     0
 42
0.00000001
 43
0.00000001
 40
0.0
 40
0.0
 40
0.0
 40
0.0
 40
0.0570031325129236
 40
0.1118178691207219
 40
0.1644023722182105
 40
0.2158698048987953
 40
0.2668411100818657
 40
0.3174789632053572
 40
0.3699021362727598
 40
0.4234004494436345
 40
0.4797183982994506
 40
0.5392414966442948
 40
0.6024306889434224
 40
0.6710295461473353
 40
0.7444847975608467
 40
0.8234539713786831
 40
0.908740312730665
 40
1.0
 40
1.0
 40
1.0
 40
1.0
 10
947.347815201723
 20
844.6940644580696
 30
0.0
 10
947.3466125041601
 20
844.738466221529
 30
0.0
 10
947.3442532815567
 20
844.8255651291921
 30
0.0
 10
947.3249314470311
 20
844.9525350815496
 30
0.0
 10
947.2920912768926
 20
845.0719493730061
 30
0.0
 10
947.249910035201
 20
845.1854444823186
 30
0.0
 10
947.1909644609922
 20
845.2894715685366
 30
0.0
 10
947.121562259159
 20
845.3876274444103
 30
0.0
 10
947.0377092527825
 20
845.4765694295461
 30
0.0
 10
946.9422639667116
 20
845.5596997114097
 30
0.0
 10
946.8325299716068
 20
845.6334014892338
 30
0.0
 10
946.7085727331627
 20
845.6979518050591
 30
0.0
 10
946.5687151855815
 20
845.7499307231847
 30
0.0
 10
946.4153143741953
 20
845.7954533574191
 30
0.0
 10
946.2460090313414
 20
845.8274266004322
 30
0.0
 10
946.0627529092645
 20
845.854062915077
 30
0.0
 10
945.86404498006
 20
845.8676234682302
 30
0.0
 10
945.7265704600013
 20
845.8694185833724
 30
0.0
 10
945.6555075094154
 20
845.8703465093515
 30
0.0
  0
LINE
  5
E5
330
1F
100
AcDbEntity
  8
0
  6
Continuous
 62
     7
370
    25
100
AcDbLine
 10
945.6555075094
 20
845.8703465094
 30
0.0
 11
944.6811485351
 21
845.8703465094
 31
0.0
  0
SPLINE
  5
E6
330
1F
100
AcDbEntity
  8
0
  6
Continuous
 62
     7
370
    25
100
AcDbSpline
210
0.0
220
0.0
230
1.0
 70
     8
 71
     3
 72
    27
 73
    23
 74
     0
 42
0.00000001
 43
0.00000001
 40
0.0
 40
0.0
 40
0.0
 40
0.0
 40
0.0729510658758678
 40
0.1415836941865455
 40
0.2059264601708678
 40
0.2653013571846063
 40
0.3205972327139289
 40
0.3718165030988104
 40
0.418789769709452
 40
0.4616987286157648
 40
0.5021335821035656
 40
0.5408043152926488
 40
0.5781805253279665
 40
0.6142968652075153
 40
0.6496782432647878
 40
0.684299460089637
 40
0.7183589527723607
 40
0.7520808646475973
 40
0.8176524386023863
 40
0.8797220764054369
 40
0.9399655597309878
 40
1.0
 40
1.0
 40
1.0
 40
1.0
 10
960.1683280222359
 20
842.6908593298645
 30
0.0
 10
960.1686010441045
 20
842.5840051611699
 30
0.0
 10
960.1691309259409
 20
842.3766222016291
 30
0.0
 10
960.1829736701172
 20
842.075266176541
 30
0.0
 10
960.201831343259
 20
841.7941911392448
 30
0.0
 10
960.2261543082536
 20
841.5330401987529
 30
0.0
 10
960.2622753334559
 20
841.2926973130162
 30
0.0
 10
960.302747991325
 20
841.0715094660103
 30
0.0
 10
960.3520007675974
 20
840.8706472097501
 30
0.0
 10
960.4102750941505
 20
840.6887322138541
 30
0.0
 10
960.4766501727642
 20
840.5226772001504
 30
0.0
 10
960.5491207182957
 20
840.3681601370022
 30
0.0
 10
960.6269737992213
 20
840.2233557108634
 30
0.0
 10
960.7141032861996
 20
840.0895646060081
 30
0.0
 10
960.8089948592943
 20
839.9663505166988
 30
0.0
 10
960.9095051658944
 20
839.8515326142478
 30
0.0
 10
961.0193853584477
 20
839.7491395140522
 30
0.0
 10
961.1713939128324
 20
839.6263352739848
 30
0.0
 10
961.3720715686655
 20
839.4994343968885
 30
0.0
 10
961.6249183234795
 20
839.388929048702
 30
0.0
 10
961.884731925723
 20
839.3194834339995
 30
0.0
 10
962.0610776402074
 20
839.3106519918164
 30
0.0
 10
962.1490972530052
 20
839.306243945249
 30
0.0
  0
SPLINE
  5
E7
330
1F
100
AcDbEntity
  8
0
  6
Continuous
 62
     7
370
    25
100
AcDbSpline
210
0.0
220
0.0
230
1.0
 70
     8
 71
     3
 72
    19
 73
    15
 74
     0
 42
0.00000001
 43
0.00000001
 40
0.0
 40
0.0
 40
0.0
 40
0.0
 40
0.1128134007444591
 40
0.2253938839207291
 40
0.3395948145627012
 40
0.4596754102248651
 40
0.5217351900879341
 40
0.5839258387389159
 40
0.648174144765371
 40
0.7138810381130669
 40
0.7810044549073895
 40
0.8514509275565554
 40
0.9240506926641802
 40
1.0
 40
1.0
 40
1.0
 40
1.0
 10
962.1490972530052
 20
839.306243945249
 30
0.0
 10
962.2376862167896
 20
839.3098960156753
 30
0.0
 10
962.4146812412118
 20
839.3171926163658
 30
0.0
 10
962.6732727729703
 20
839.3875897303641
 30
0.0
 10
962.9243133903012
 20
839.4938058205668
 30
0.0
 10
963.1210492537958
 20
839.619400118668
 30
0.0
 10
963.270723638942
 20
839.7390077288422
 30
0.0
 10
963.3779624734698
 20
839.8409840678432
 30
0.0
 10
963.4763900127458
 20
839.9551689074008
 30
0.0
 10
963.5697433266992
 20
840.0783672980634
 30
0.0
 10
963.6553640710989
 20
840.2129329761749
 30
0.0
 10
963.7332226715451
 20
840.3582188624972
 30
0.0
 10
963.8042703230769
 20
840.5146284120109
 30
0.0
 10
963.8447481423917
 20
840.6238163871327
 30
0.0
 10
963.8654434068512
 20
840.6796413811464
 30
0.0
  0
SPLINE
  5
E8
330
1F
100
AcDbEntity
  8
0
  6
Continuous
 62
     7
370
    25
100
AcDbSpline
210
0.0
220
0.0
230
1.0
 70
     8
 71
     3
 72
    15
 73
    11
 74
     0
 42
0.00000001
 43
0.00000001
 40
0.0
 40
0.0
 40
0.0
 40
0.0
 40
0.110588338595337
 40
0.2245417540535972
 40
0.3425034940501041
 40
0.4643240984173573
 40
0.590756032701767
 40
0.7222274753555146
 40
0.8588428362087224
 40
1.0
 40
1.0
 40
1.0
 40
1.0
 10
963.8654434068512
 20
840.6796413811464
 30
0.0
 10
963.8895617332371
 20
840.7510236427837
 30
0.0
 10
963.9385322791397
 20
840.8959602467688
 30
0.0
 10
964.0016449060444
 20
841.1207914515243
 30
0.0
 10
964.0513486756528
 20
841.3566834833824
 30
0.0
 10
964.096064940223
 20
841.6022266073103
 30
0.0
 10
964.1265862108455
 20
841.8592316381926
 30
0.0
 10
964.1511526412071
 20
842.1269033728571
 30
0.0
 10
964.1656227827826
 20
842.4054436293953
 30
0.0
 10
964.1674164995171
 20
842.5946893235558
 30
0.0
 10
964.1683280222359
 20
842.6908593298645
 30
0.0
  0
SPLINE
  5
E9
330
1F
100
AcDbEntity
  8
0
  6
Continuous
 62
     7
370
    25
100
AcDbSpline
210
0.0
220
0.0
230
1.0
 70
     8
 71
     3
 72
    27
 73
    23
 74
     0
 42
0.00000001
 43
0.00000001
 40
0.0
 40
0.0
 40
0.0
 40
0.0
 40
0.0656811979906383
 40
0.128486464174064
 40
0.1881751303280079
 40
0.2451061306699858
 40
0.2994484245294748
 40
0.3508229360093826
 40
0.3999416805337774
 40
0.4466717436323715
 40
0.4912545333734974
 40
0.5333763442704357
 40
0.573852754968223
 40
0.6125263117194524
 40
0.6495971364453287
 40
0.6855320415538496
 40
0.7201057860682003
 40
0.7538376629736493
 40
0.8189254160467137
 40
0.880493461650164
 40
0.9403113338460563
 40
1.0
 40
1.0
 40
1.0
 40
1.0
 10
964.1683280222359
 20
842.6908593298645
 30
0.0
 10
964.1670704468463
 20
842.7870137813343
 30
0.0
 10
964.164610360548
 20
842.9751124436898
 30
0.0
 10
964.1552069600882
 20
843.2505825709176
 30
0.0
 10
964.1309245041066
 20
843.5122231672814
 30
0.0
 10
964.103955089559
 20
843.7611613905141
 30
0.0
 10
964.0641900127771
 20
843.9960192252671
 30
0.0
 10
964.0213150256221
 20
844.2187627801387
 30
0.0
 10
963.963712254673
 20
844.4266325511545
 30
0.0
 10
963.9021813404468
 20
844.6228830236381
 30
0.0
 10
963.8317575792321
 20
844.8052845196398
 30
0.0
 10
963.7542359009291
 20
844.9746874598958
 30
0.0
 10
963.6714433094571
 20
845.1319096879114
 30
0.0
 10
963.5815181884074
 20
845.2765198400863
 30
0.0
 10
963.4855280556867
 20
845.4091656524545
 30
0.0
 10
963.3809393718066
 20
845.5271875828707
 30
0.0
 10
963.2719008053817
 20
845.6342435099759
 30
0.0
 10
963.1191758092134
 20
845.7564436679683
 30
0.0
 10
962.9192345753839
 20
845.8810418290725
 30
0.0
 10
962.6704445243155
 20
845.995706423039
 30
0.0
 10
962.4115401945986
 20
846.0615539490298
 30
0.0
 10
962.2365151566739
 20
846.0708378051169
 30
0.0
 10
962.1490972530052
 20
846.0754747144798
 30
0.0
  0
SPLINE
  5
EA
330
1F
100
AcDbEntity
  8
0
  6
Continuous
 62
     7
370
    25
100
AcDbSpline
210
0.0
220
0.0
230
1.0
 70
     8
 71
     3
 72
    27
 73
    23
 74
     0
 42
0.00000001
 43
0.00000001
 40
0.0
 40
0.0
 40
0.0
 40
0.0
 40
0.0603866193110627
 40
0.1208832485859966
 40
0.1827546186251396
 40
0.2478110297583515
 40
0.2812991000432487
 40
0.3150876241506568
 40
0.3497023955502754
 40
0.3848565811185561
 40
0.4209661972261022
 40
0.4585111882611392
 40
0.4971747221273132
 40
0.5376020478662703
 40
0.5805030184200114
 40
0.6274675400267044
 40
0.6783882095592437
 40
0.733983220592561
 40
0.7937467045508348
 40
0.8577136721607319
 40
0.9266978643613872
 40
1.0
 40
1.0
 40
1.0
 40
1.0
 10
962.1490972530052
 20
846.0754747144798
 30
0.0
 10
962.0606158996638
 20
846.0708314078576
 30
0.0
 10
961.8834920011378
 20
846.0615363356198
 30
0.0
 10
961.6218966760481
 20
845.995951755982
 30
0.0
 10
961.3711438722943
 20
845.8816364052674
 30
0.0
 10
961.1717313587427
 20
845.7560309824904
 30
0.0
 10
961.0188998467253
 20
845.636400556338
 30
0.0
 10
960.9112822618641
 20
845.5326600899187
 30
0.0
 10
960.8103767253665
 20
845.4191829370842
 30
0.0
 10
960.7174219821948
 20
845.2948357031405
 30
0.0
 10
960.6303607634696
 20
845.1612005778396
 30
0.0
 10
960.5504041632965
 20
845.0172262584675
 30
0.0
 10
960.4783645526085
 20
844.8621831402381
 30
0.0
 10
960.4118856127681
 20
844.696202716423
 30
0.0
 10
960.353433525851
 20
844.5143034148562
 30
0.0
 10
960.3052187527538
 20
844.3136885723568
 30
0.0
 10
960.2606769170513
 20
844.0932042482673
 30
0.0
 10
960.22914487385
 20
843.8515596586782
 30
0.0
 10
960.2011134321089
 20
843.5903433081199
 30
0.0
 10
960.1830989225037
 20
843.3085665807386
 30
0.0
 10
960.169084619717
 20
843.006705139819
 30
0.0
 10
960.1685852726021
 20
842.7982499203844
 30
0.0
 10
960.1683280222359
 20
842.6908593298645
 30
0.0
  0
SPLINE
  5
EB
330
1F
100
AcDbEntity
  8
0
  6
Continuous
 62
     7
370
    25
100
AcDbSpline
210
0.0
220
0.0
230
1.0
 70
     8
 71
     3
 72
    23
 73
    19
 74
     0
 42
0.00000001
 43
0.00000001
 40
0.0
 40
0.0
 40
0.0
 40
0.0
 40
0.0545639495070587
 40
0.1078262027811417
 40
0.1619237085214027
 40
0.2175097010530404
 40
0.2744983327961402
 40
0.334814764624017
 40
0.3975549470643517
 40
0.4647545773562005
 40
0.5329012097695254
 40
0.6000972138233291
 40
0.6653541614565461
 40
0.7310836277242081
 40
0.7968834939590075
 40
0.8632915901470207
 40
0.9308312175092466
 40
1.0
 40
1.0
 40
1.0
 40
1.0
 10
923.8606357145436
 20
844.8318849708901
 30
0.0
 10
923.8622068389149
 20
844.7901009491188
 30
0.0
 10
923.8653116063773
 20
844.707529719484
 30
0.0
 10
923.8893233275742
 20
844.5855963115217
 30
0.0
 10
923.9251104242428
 20
844.4657754275582
 30
0.0
 10
923.9814547932167
 20
844.3509162022866
 30
0.0
 10
924.0490350408298
 20
844.2370342384278
 30
0.0
 10
924.1324441289659
 20
844.1269757561096
 30
0.0
 10
924.2318476213062
 20
844.0203577335658
 30
0.0
 10
924.343910341944
 20
843.9180870108019
 30
0.0
 10
924.4659938569813
 20
843.8223184094537
 30
0.0
 10
924.5953288129399
 20
843.7391797088853
 30
0.0
 10
924.7302919932152
 20
843.6696160277854
 30
0.0
 10
924.869496722829
 20
843.6117202454438
 30
0.0
 10
925.0143617454564
 20
843.5667146743741
 30
0.0
 10
925.1639993990608
 20
843.5347863396577
 30
0.0
 10
925.318434832967
 20
843.5149417754851
 30
0.0
 10
925.4230761604506
 20
843.5125714411771
 30
0.0
 10
925.4760203299281
 20
843.5113721503773
 30
0.0
  0
SPLINE
  5
EC
330
1F
100
AcDbEntity
  8
0
  6
Continuous
 62
     7
370
    25
100
AcDbSpline
210
0.0
220
0.0
230
1.0
 70
     8
 71
     3
 72
    23
 73
    19
 74
     0
 42
0.00000001
 43
0.00000001
 40
0.0
 40
0.0
 40
0.0
 40
0.0
 40
0.0752433085911282
 40
0.1472088117202531
 40
0.216447089854769
 40
0.2840250416193522
 40
0.3506554491966464
 40
0.4150313178410254
 40
0.4796298309645127
 40
0.5446516341371354
 40
0.6080442396977415
 40
0.6678275650288169
 40
0.7251142466493384
 40
0.7809917079106399
 40
0.8355270040618592
 40
0.8894381545415829
 40
0.9440720891799445
 40
1.0
 40
1.0
 40
1.0
 40
1.0
 10
925.4471741760821
 20
846.0754747144798
 30
0.0
 10
925.3910580483531
 20
846.0739857074963
 30
0.0
 10
925.2812703657539
 20
846.0710725587685
 30
0.0
 10
925.1202905460549
 20
846.0558528170586
 30
0.0
 10
924.96721084935
 20
846.026245464417
 30
0.0
 10
924.820431876423
 20
845.9868426951389
 30
0.0
 10
924.681966019919
 20
845.9336130079746
 30
0.0
 10
924.5499327523263
 20
845.8709958439499
 30
0.0
 10
924.4265791756268
 20
845.7948676942486
 30
0.0
 10
924.3104161974081
 20
845.7094706704625
 30
0.0
 10
924.2058429985118
 20
845.6155440279921
 30
0.0
 10
924.1130325947345
 20
845.5176840993506
 30
0.0
 10
924.0359397622791
 20
845.4139689175038
 30
0.0
 10
923.9704743691861
 20
845.3069783809937
 30
0.0
 10
923.9229737578113
 20
845.1935370638286
 30
0.0
 10
923.8873982060729
 20
845.0771229463367
 30
0.0
 10
923.8633493112314
 20
844.9562649256128
 30
0.0
 10
923.861547276894
 20
844.873667187232
 30
0.0
 10
923.8606357145436
 20
844.83188497089
 30
0.0
  0
SPLINE
  5
ED
330
1F
100
AcDbEntity
  8
0
  6
Continuous
 62
     7
370
    25
100
AcDbSpline
210
0.0
220
0.0
230
1.0
 70
     8
 71
     3
 72
    19
 73
    15
 74
     0
 42
0.00000001
 43
0.00000001
 40
0.0
 40
0.0
 40
0.0
 40
0.0
 40
0.0896899362473938
 40
0.1784940104960777
 40
0.2668377532994883
 40
0.3565581760610179
 40
0.4453342496549794
 40
0.5308058350374903
 40
0.6140762174402841
 40
0.6977070858228034
 40
0.7791419498114628
 40
0.8553535905869766
 40
0.9285568200856545
 40
1.0
 40
1.0
 40
1.0
 40
1.0
 10
925.4760203299281
 20
843.5113721503773
 30
0.0
 10
925.5440205671742
 20
843.5133672752902
 30
0.0
 10
925.6793494074943
 20
843.5173378193899
 30
0.0
 10
925.8788450225422
 20
843.5542547879842
 30
0.0
 10
926.0728167812033
 20
843.612325456912
 30
0.0
 10
926.2591914199251
 20
843.6917768085001
 30
0.0
 10
926.4331447575707
 20
843.7914976310116
 30
0.0
 10
926.588207770658
 20
843.9108873866445
 30
0.0
 10
926.7230578114421
 20
844.0471893231095
 30
0.0
 10
926.8362934919534
 20
844.1982815191539
 30
0.0
 10
926.92408742665
 20
844.3590851494578
 30
0.0
 10
926.992434415887
 20
844.5204572473325
 30
0.0
 10
927.0323457652859
 20
844.6841194895909
 30
0.0
 10
927.0375516326856
 20
844.7937582640074
 30
0.0
 10
927.0401228940307
 20
844.8479106119156
 30
0.0
  0
SPLINE
  5
EE
330
1F
100
AcDbEntity
  8
0
  6
Continuous
 62
     7
370
    25
100
AcDbSpline
210
0.0
220
0.0
230
1.0
 70
     8
 71
     3
 72
    23
 73
    19
 74
     0
 42
0.00000001
 43
0.00000001
 40
0.0
 40
0.0
 40
0.0
 40
0.0
 40
0.0509024376836568
 40
0.101034042782616
 40
0.151083817008661
 40
0.2030619875551403
 40
0.2562484343627547
 40
0.3108467145046027
 40
0.3687690999693281
 40
0.4300150403860039
 40
0.4925196472738485
 40
0.5560487215256781
 40
0.6219956829149513
 40
0.6901923690829547
 40
0.7613848549884992
 40
0.8363562199507208
 40
0.9154870053271096
 40
1.0
 40
1.0
 40
1.0
 40
1.0
 10
927.0401228940307
 20
844.8479106119156
 30
0.0
 10
927.0389071281332
 20
844.8859175511581
 30
0.0
 10
927.0364940070863
 20
844.9613558778902
 30
0.0
 10
927.0166081648965
 20
845.0727578558035
 30
0.0
 10
926.9837491180263
 20
845.1816254752841
 30
0.0
 10
926.9392620778643
 20
845.2888580940446
 30
0.0
 10
926.8807254041012
 20
845.3929511959557
 30
0.0
 10
926.8113215470283
 20
845.4955411114059
 30
0.0
 10
926.7270141152445
 20
845.5943200000883
 30
0.0
 10
926.6323936960667
 20
845.691589825263
 30
0.0
 10
926.5250899048941
 20
845.781610450798
 30
0.0
 10
926.4053095339465
 20
845.8607755027491
 30
0.0
 10
926.2736666759342
 20
845.9280037462986
 30
0.0
 10
926.1301582188446
 20
845.9826066143623
 30
0.0
 10
925.9753126780442
 20
846.0236176992523
 30
0.0
 10
925.8098432507376
 20
846.0543293513211
 30
0.0
 10
925.6323702291113
 20
846.0716393203471
 30
0.0
 10
925.5102450838202
 20
846.0741685214723
 30
0.0
 10
925.4471741760821
 20
846.0754747144798
 30
0.0
  0
SPLINE
  5
EF
330
1F
100
AcDbEntity
  8
0
  6
Continuous
 62
     7
370
    25
100
AcDbSpline
210
0.0
220
0.0
230
1.0
 70
     8
 71
     3
 72
    27
 73
    23
 74
     0
 42
0.00000001
 43
0.00000001
 40
0.0
 40
0.0
 40
0.0
 40
0.0
 40
0.0729510658758678
 40
0.1415836941865456
 40
0.2059264601708678
 40
0.2653013571846063
 40
0.320597232713929
 40
0.3718165030988104
 40
0.418789769709452
 40
0.4616987286157647
 40
0.5021335821035655
 40
0.5408043152926487
 40
0.578180525327966
 40
0.6142968652075153
 40
0.6496782432647878
 40
0.684299460089637
 40
0.7183589527723607
 40
0.7520808646475973
 40
0.8176524386023857
 40
0.8797220764054376
 40
0.9399655597309878
 40
1.0
 40
1.0
 40
1.0
 40
1.0
 10
929.6042254581332
 20
842.6908593298645
 30
0.0
 10
929.6044984800019
 20
842.5840051611699
 30
0.0
 10
929.6050283618382
 20
842.3766222016291
 30
0.0
 10
929.6188711060148
 20
842.075266176541
 30
0.0
 10
929.6377287791564
 20
841.7941911392448
 30
0.0
 10
929.6620517441511
 20
841.5330401987529
 30
0.0
 10
929.6981727693534
 20
841.2926973130163
 30
0.0
 10
929.7386454272224
 20
841.0715094660103
 30
0.0
 10
929.7878982034948
 20
840.8706472097501
 30
0.0
 10
929.8461725300481
 20
840.6887322138541
 30
0.0
 10
929.9125476086617
 20
840.5226772001504
 30
0.0
 10
929.9850181541932
 20
840.3681601370022
 30
0.0
 10
930.0628712351188
 20
840.2233557108633
 30
0.0
 10
930.1500007220969
 20
840.0895646060081
 30
0.0
 10
930.2448922951918
 20
839.9663505166988
 30
0.0
 10
930.3454026017919
 20
839.8515326142478
 30
0.0
 10
930.4552827943453
 20
839.7491395140522
 30
0.0
 10
930.6072913487297
 20
839.6263352739848
 30
0.0
 10
930.807969004563
 20
839.4994343968885
 30
0.0
 10
931.060815759377
 20
839.388929048702
 30
0.0
 10
931.3206293616204
 20
839.3194834339995
 30
0.0
 10
931.4969750761047
 20
839.3106519918164
 30
0.0
 10
931.5849946889025
 20
839.306243945249
 30
0.0
  0
SPLINE
  5
F0
330
1F
100
AcDbEntity
  8
0
  6
Continuous
 62
     7
370
    25
100
AcDbSpline
210
0.0
220
0.0
230
1.0
 70
     8
 71
     3
 72
    19
 73
    15
 74
     0
 42
0.00000001
 43
0.00000001
 40
0.0
 40
0.0
 40
0.0
 40
0.0
 40
0.1128134007444591
 40
0.2253938839207292
 40
0.3395948145627014
 40
0.459675410224864
 40
0.5217351900879341
 40
0.583925838738916
 40
0.648174144765371
 40
0.713881038113067
 40
0.7810044549073896
 40
0.8514509275565548
 40
0.9240506926641802
 40
1.0
 40
1.0
 40
1.0
 40
1.0
 10
931.5849946889025
 20
839.306243945249
 30
0.0
 10
931.6735836526872
 20
839.3098960156753
 30
0.0
 10
931.8505786771093
 20
839.3171926163658
 30
0.0
 10
932.1091702088678
 20
839.3875897303641
 30
0.0
 10
932.3602108261987
 20
839.4938058205668
 30
0.0
 10
932.5569466896933
 20
839.6194001186678
 30
0.0
 10
932.7066210748394
 20
839.7390077288422
 30
0.0
 10
932.8138599093671
 20
839.8409840678432
 30
0.0
 10
932.9122874486432
 20
839.9551689074008
 30
0.0
 10
933.0056407625966
 20
840.0783672980634
 30
0.0
 10
933.0912615069963
 20
840.2129329761749
 30
0.0
 10
933.1691201074426
 20
840.3582188624972
 30
0.0
 10
933.2401677589744
 20
840.5146284120108
 30
0.0
 10
933.2806455782892
 20
840.6238163871327
 30
0.0
 10
933.3013408427487
 20
840.6796413811464
 30
0.0
  0
SPLINE
  5
F1
330
1F
100
AcDbEntity
  8
0
  6
Continuous
 62
     7
370
    25
100
AcDbSpline
210
0.0
220
0.0
230
1.0
 70
     8
 71
     3
 72
    15
 73
    11
 74
     0
 42
0.00000001
 43
0.00000001
 40
0.0
 40
0.0
 40
0.0
 40
0.0
 40
0.1105883385953365
 40
0.2245417540535967
 40
0.3425034940501039
 40
0.4643240984173573
 40
0.590756032701767
 40
0.7222274753555147
 40
0.8588428362087224
 40
1.0
 40
1.0
 40
1.0
 40
1.0
 10
933.3013408427487
 20
840.6796413811464
 30
0.0
 10
933.3254591691344
 20
840.7510236427837
 30
0.0
 10
933.3744297150373
 20
840.8959602467688
 30
0.0
 10
933.4375423419417
 20
841.1207914515243
 30
0.0
 10
933.4872461115502
 20
841.3566834833824
 30
0.0
 10
933.5319623761203
 20
841.6022266073103
 30
0.0
 10
933.5624836467429
 20
841.8592316381926
 30
0.0
 10
933.5870500771045
 20
842.1269033728571
 30
0.0
 10
933.60152021868
 20
842.4054436293953
 30
0.0
 10
933.6033139354145
 20
842.5946893235558
 30
0.0
 10
933.6042254581332
 20
842.6908593298645
 30
0.0
  0
SPLINE
  5
F2
330
1F
100
AcDbEntity
  8
0
  6
Continuous
 62
     7
370
    25
100
AcDbSpline
210
0.0
220
0.0
230
1.0
 70
     8
 71
     3
 72
    27
 73
    23
 74
     0
 42
0.00000001
 43
0.00000001
 40
0.0
 40
0.0
 40
0.0
 40
0.0
 40
0.0656811979906383
 40
0.128486464174064
 40
0.1881751303280078
 40
0.2451061306699859
 40
0.2994484245294747
 40
0.3508229360093825
 40
0.3999416805337773
 40
0.4466717436323714
 40
0.4912545333734974
 40
0.5333763442704357
 40
0.5738527549682234
 40
0.6125263117194524
 40
0.6495971364453287
 40
0.6855320415538502
 40
0.7201057860682003
 40
0.7538376629736493
 40
0.8189254160467137
 40
0.8804934616501633
 40
0.940311333846057
 40
1.0
 40
1.0
 40
1.0
 40
1.0
 10
933.6042254581332
 20
842.6908593298645
 30
0.0
 10
933.6029678827438
 20
842.7870137813343
 30
0.0
 10
933.6005077964453
 20
842.9751124436898
 30
0.0
 10
933.5911043959856
 20
843.2505825709176
 30
0.0
 10
933.5668219400039
 20
843.5122231672814
 30
0.0
 10
933.5398525254565
 20
843.7611613905141
 30
0.0
 10
933.5000874486745
 20
843.9960192252671
 30
0.0
 10
933.4572124615196
 20
844.2187627801387
 30
0.0
 10
933.3996096905705
 20
844.4266325511545
 30
0.0
 10
933.3380787763442
 20
844.6228830236381
 30
0.0
 10
933.2676550151295
 20
844.8052845196398
 30
0.0
 10
933.1901333368265
 20
844.9746874598958
 30
0.0
 10
933.1073407453545
 20
845.1319096879113
 30
0.0
 10
933.0174156243047
 20
845.2765198400863
 30
0.0
 10
932.921425491584
 20
845.4091656524545
 30
0.0
 10
932.816836807704
 20
845.5271875828707
 30
0.0
 10
932.7077982412792
 20
845.6342435099759
 30
0.0
 10
932.5550732451107
 20
845.7564436679683
 30
0.0
 10
932.3551320112814
 20
845.8810418290725
 30
0.0
 10
932.106341960213
 20
845.995706423039
 30
0.0
 10
931.8474376304961
 20
846.0615539490298
 30
0.0
 10
931.6724125925714
 20
846.0708378051169
 30
0.0
 10
931.5849946889025
 20
846.0754747144798
 30
0.0
  0
SPLINE
  5
F3
330
1F
100
AcDbEntity
  8
0
  6
Continuous
 62
     7
370
    25
100
AcDbSpline
210
0.0
220
0.0
230
1.0
 70
     8
 71
     3
 72
    27
 73
    23
 74
     0
 42
0.00000001
 43
0.00000001
 40
0.0
 40
0.0
 40
0.0
 40
0.0
 40
0.0603866193110627
 40
0.1208832485859966
 40
0.1827546186251396
 40
0.2478110297583515
 40
0.2812991000432487
 40
0.3150876241506568
 40
0.3497023955502759
 40
0.3848565811185556
 40
0.4209661972261022
 40
0.4585111882611392
 40
0.4971747221273132
 40
0.5376020478662706
 40
0.5805030184200117
 40
0.6274675400267045
 40
0.6783882095592437
 40
0.7339832205925612
 40
0.793746704550835
 40
0.8577136721607319
 40
0.9266978643613872
 40
1.0
 40
1.0
 40
1.0
 40
1.0
 10
931.5849946889025
 20
846.0754747144798
 30
0.0
 10
931.4965133355613
 20
846.0708314078576
 30
0.0
 10
931.3193894370353
 20
846.0615363356198
 30
0.0
 10
931.0577941119456
 20
845.995951755982
 30
0.0
 10
930.8070413081917
 20
845.8816364052674
 30
0.0
 10
930.60762879464
 20
845.7560309824904
 30
0.0
 10
930.4547972826227
 20
845.6364005563381
 30
0.0
 10
930.3471796977616
 20
845.5326600899187
 30
0.0
 10
930.246274161264
 20
845.4191829370842
 30
0.0
 10
930.1533194180922
 20
845.2948357031405
 30
0.0
 10
930.0662581993671
 20
845.1612005778396
 30
0.0
 10
929.986301599194
 20
845.0172262584676
 30
0.0
 10
929.9142619885059
 20
844.8621831402381
 30
0.0
 10
929.8477830486655
 20
844.696202716423
 30
0.0
 10
929.7893309617484
 20
844.5143034148562
 30
0.0
 10
929.7411161886513
 20
844.3136885723568
 30
0.0
 10
929.6965743529487
 20
844.0932042482673
 30
0.0
 10
929.6650423097475
 20
843.8515596586782
 30
0.0
 10
929.6370108680063
 20
843.5903433081199
 30
0.0
 10
929.6189963584012
 20
843.3085665807387
 30
0.0
 10
929.6049820556144
 20
843.006705139819
 30
0.0
 10
929.6044827084995
 20
842.7982499203844
 30
0.0
 10
929.6042254581332
 20
842.6908593298645
 30
0.0
  0
SPLINE
  5
F4
330
1F
100
AcDbEntity
  8
0
  6
Continuous
 62
     7
370
    25
100
AcDbSpline
210
0.0
220
0.0
230
1.0
 70
     8
 71
     3
 72
    19
 73
    15
 74
     0
 42
0.00000001
 43
0.00000001
 40
0.0
 40
0.0
 40
0.0
 40
0.0
 40
0.0859925287105372
 40
0.1697355739746255
 40
0.2526871184561428
 40
0.3365262885920257
 40
0.4198561141919597
 40
0.5024566706100799
 40
0.585264756246222
 40
0.6697998313920895
 40
0.7544074688475803
 40
0.8369499629815895
 40
0.9179410084068635
 40
1.0
 40
1.0
 40
1.0
 40
1.0
 10
980.472815201723
 20
839.306243945249
 30
0.0
 10
980.5777622931752
 20
839.3099779541374
 30
0.0
 10
980.7849111591489
 20
839.3173482937636
 30
0.0
 10
981.0890112514164
 20
839.3748880036007
 30
0.0
 10
981.3800151590253
 20
839.4706231210129
 30
0.0
 10
981.6564564897294
 20
839.6015573117814
 30
0.0
 10
981.9140092030406
 20
839.7661791053654
 30
0.0
 10
982.1440723664247
 20
839.9653703523444
 30
0.0
 10
982.3485974166863
 20
840.192802385622
 30
0.0
 10
982.5192300474502
 20
840.4493365415785
 30
0.0
 10
982.6616900348247
 20
840.7223673284448
 30
0.0
 10
982.7595489521694
 20
841.0095771602097
 30
0.0
 10
982.825194029166
 20
841.3032795352955
 30
0.0
 10
982.8317135684172
 20
841.5024704938456
 30
0.0
 10
982.8349946889026
 20
841.6027183042233
 30
0.0
  0
SPLINE
  5
F5
330
1F
100
AcDbEntity
  8
0
  6
Continuous
 62
     7
370
    25
100
AcDbSpline
210
0.0
220
0.0
230
1.0
 70
     8
 71
     3
 72
    19
 73
    15
 74
     0
 42
0.00000001
 43
0.00000001
 40
0.0
 40
0.0
 40
0.0
 40
0.0
 40
0.0820662722709549
 40
0.1638049146802446
 40
0.2466175023921736
 40
0.3319829739590871
 40
0.4174662413505373
 40
0.5009071450388554
 40
0.5841030515758435
 40
0.6682541715553387
 40
0.7520560821096488
 40
0.8345695599471744
 40
0.916652179383492
 40
1.0
 40
1.0
 40
1.0
 40
1.0
 10
982.8349946889026
 20
841.6027183042233
 30
0.0
 10
982.8306798457587
 20
841.702868114331
 30
0.0
 10
982.8220673854447
 20
841.9027679105072
 30
0.0
 10
982.761782168104
 20
842.1991100070463
 30
0.0
 10
982.656507219635
 20
842.486167434853
 30
0.0
 10
982.5168088808477
 20
842.7631456943102
 30
0.0
 10
982.3433963430882
 20
843.0214492381978
 30
0.0
 10
982.1399541405602
 20
843.2534266714216
 30
0.0
 10
981.9070814412967
 20
843.4535637784008
 30
0.0
 10
981.6491993395005
 20
843.6203982269266
 30
0.0
 10
981.3745017607915
 20
843.7565343478894
 30
0.0
 10
981.0853803124947
 20
843.8498944061025
 30
0.0
 10
980.787876031951
 20
843.9110102629412
 30
0.0
 10
980.585829191283
 20
843.9180711277255
 30
0.0
 10
980.484033150441
 20
843.9216285606337
 30
0.0
  0
SPLINE
  5
F6
330
1F
100
AcDbEntity
  8
0
  6
Continuous
 62
     7
370
    25
100
AcDbSpline
210
0.0
220
0.0
230
1.0
 70
     8
 71
     3
 72
    19
 73
    15
 74
     0
 42
0.00000001
 43
0.00000001
 40
0.0
 40
0.0
 40
0.0
 40
0.0
 40
0.0847350012796458
 40
0.1681817837855206
 40
0.2524185281181419
 40
0.338617796687802
 40
0.4240141020386692
 40
0.5064019712145089
 40
0.5875451741389954
 40
0.6688007216827555
 40
0.7500995272674232
 40
0.83102227018931
 40
0.9139596201585735
 40
0.9999999999999999
 40
0.9999999999999999
 40
0.9999999999999999
 40
0.9999999999999999
 10
980.484033150441
 20
843.9216285606337
 30
0.0
 10
980.380107419091
 20
843.918073137916
 30
0.0
 10
980.1738359301465
 20
843.9110163452596
 30
0.0
 10
979.8694514219212
 20
843.8497870331859
 30
0.0
 10
979.5721639161889
 20
843.7559639211163
 30
0.0
 10
979.2880781290983
 20
843.6212636943832
 30
0.0
 10
979.0232688596113
 20
843.4564374986338
 30
0.0
 10
978.786440031462
 20
843.2627456144056
 30
0.0
 10
978.5822536141195
 20
843.0415343957012
 30
0.0
 10
978.4141535666769
 20
842.7935211344793
 30
0.0
 10
978.2806568834346
 20
842.5256696247147
 30
0.0
 10
978.1851511736811
 20
842.2399274459061
 30
0.0
 10
978.1280091241057
 20
841.9377987316246
 30
0.0
 10
978.1207448214501
 20
841.7306371187364
 30
0.0
 10
978.1170459709539
 20
841.6251542016593
 30
0.0
  0
SPLINE
  5
F7
330
1F
100
AcDbEntity
  8
0
  6
Continuous
 62
     7
370
    25
100
AcDbSpline
210
0.0
220
0.0
230
1.0
 70
     8
 71
     3
 72
    23
 73
    19
 74
     0
 42
0.00000001
 43
0.00000001
 40
0.0
 40
0.0
 40
0.0
 40
0.0
 40
0.0656456998935177
 40
0.1292115114517263
 40
0.1912533534191524
 40
0.2519584927837455
 40
0.3125641358481269
 40
0.373562152925116
 40
0.4352304980090157
 40
0.4985361736141475
 40
0.5619014030194719
 40
0.6240980803890661
 40
0.6850233969672194
 40
0.7460507790253087
 40
0.8075767540633231
 40
0.869943003993597
 40
0.9339390434195656
 40
1.0
 40
1.0
 40
1.0
 40
1.0
 10
978.1170459709539
 20
841.6251542016593
 30
0.0
 10
978.1192395033605
 20
841.544382045332
 30
0.0
 10
978.1235570692965
 20
841.385396880741
 30
0.0
 10
978.1565407690973
 20
841.1519621591611
 30
0.0
 10
978.2090108530504
 20
840.9285722339446
 30
0.0
 10
978.2829388392308
 20
840.7149836729386
 30
0.0
 10
978.3800845184985
 20
840.5124089536223
 30
0.0
 10
978.4971365545167
 20
840.3192750566296
 30
0.0
 10
978.6364546034259
 20
840.1373247058019
 30
0.0
 10
978.7939553794213
 20
839.9670039735779
 30
0.0
 10
978.9675836781875
 20
839.8120110265756
 30
0.0
 10
979.153922234869
 20
839.6776607978483
 30
0.0
 10
979.3491632197514
 20
839.5619712203918
 30
0.0
 10
979.5555402962111
 20
839.4697544375093
 30
0.0
 10
979.770651817172
 20
839.3944938187312
 30
0.0
 10
979.996705168557
 20
839.3448166857859
 30
0.0
 10
980.2313827094484
 20
839.3105880256053
 30
0.0
 10
980.3914903603259
 20
839.3077072182438
 30
0.0
 10
980.472815201723
 20
839.306243945249
 30
0.0
  0
LINE
  5
F8
330
1F
100
AcDbEntity
  8
0
  6
Continuous
 62
     7
370
    25
100
AcDbLine
 10
944.6811485351
 20
842.4857311247
 30
0.0
 11
944.6811485351
 21
839.5113721504
 31
0.0
  0
LINE
  5
F9
330
1F
100
AcDbEntity
  8
0
  6
Continuous
 62
     7
370
    25
100
AcDbLine
 10
944.6811485351
 20
839.5113721504
 30
0.0
 11
945.7035844325
 21
839.5113721504
 31
0.0
  0
SPLINE
  5
FA
330
1F
100
AcDbEntity
  8
0
  6
Continuous
 62
     7
370
    25
100
AcDbSpline
210
0.0
220
0.0
230
1.0
 70
     8
 71
     3
 72
    19
 73
    15
 74
     0
 42
0.00000001
 43
0.00000001
 40
0.0
 40
0.0
 40
0.0
 40
0.0
 40
0.0602873979279726
 40
0.119602354707522
 40
0.1775033710185401
 40
0.2351426637323318
 40
0.2921325932269338
 40
0.3508712086415664
 40
0.410097862566594
 40
0.4707315215304504
 40
0.594828704080415
 40
0.7225788240942911
 40
0.8566913895440171
 40
1.0
 40
1.0
 40
1.0
 40
1.0
 10
947.9631998171077
 20
840.9616926631977
 30
0.0
 10
947.9625687214793
 20
841.0039631558036
 30
0.0
 10
947.9613167098518
 20
841.0878223141696
 30
0.0
 10
947.942435304312
 20
841.2110584723133
 30
0.0
 10
947.9149750304977
 20
841.3304318970202
 30
0.0
 10
947.8794746101947
 20
841.446266732414
 30
0.0
 10
947.8277729711294
 20
841.5564687354947
 30
0.0
 10
947.7674151539475
 20
841.6632174430072
 30
0.0
 10
947.6966462359026
 20
841.7666539674044
 30
0.0
 10
947.5863738567766
 20
841.8974248324316
 30
0.0
 10
947.4259807493023
 20
842.0480922904966
 30
0.0
 10
947.1980795482899
 20
842.1956065813916
 30
0.0
 10
946.9389428672174
 20
842.3145729975918
 30
0.0
 10
946.7509943120264
 20
842.3650860863653
 30
0.0
 10
946.6539049453128
 20
842.391179842685
 30
0.0
  0
SPLINE
  5
FB
330
1F
100
AcDbEntity
  8
0
  6
Continuous
 62
     7
370
    25
100
AcDbSpline
210
0.0
220
0.0
230
1.0
 70
     8
 71
     3
 72
    15
 73
    11
 74
     0
 42
0.00000001
 43
0.00000001
 40
0.0
 40
0.0
 40
0.0
 40
0.0
 40
0.0793064855230003
 40
0.171952818927932
 40
0.2770565073915913
 40
0.3947305758644772
 40
0.5261773212767583
 40
0.6713447665976138
 40
0.8292852571892514
 40
1.0
 40
1.0
 40
1.0
 40
1.0
 10
946.6539049453128
 20
842.391179842685
 30
0.0
 10
946.6149812976504
 20
842.3990771774402
 30
0.0
 10
946.5305868008528
 20
842.4162002281495
 30
0.0
 10
946.3929694741585
 20
842.4342749787538
 30
0.0
 10
946.2358589166676
 20
842.4503779727929
 30
0.0
 10
946.0588923401507
 20
842.46228919031
 30
0.0
 10
945.8618458461766
 20
842.4746012898484
 30
0.0
 10
945.6442986034666
 20
842.4793894524136
 30
0.0
 10
945.4071390271027
 20
842.4851020469127
 30
0.0
 10
945.2425850330462
 20
842.4855160680369
 30
0.0
 10
945.1571100735179
 20
842.4857311247363
 30
0.0
  0
LINE
  5
FC
330
1F
100
AcDbEntity
  8
0
  6
Continuous
 62
     7
370
    25
100
AcDbLine
 10
945.1571100735
 20
842.4857311247
 30
0.0
 11
944.6811485351
 21
842.4857311247
 31
0.0
  0
SPLINE
  5
FD
330
1F
100
AcDbEntity
  8
0
  6
Continuous
 62
     7
370
    25
100
AcDbSpline
210
0.0
220
0.0
230
1.0
 70
     8
 71
     3
 72
    23
 73
    19
 74
     0
 42
0.00000001
 43
0.00000001
 40
0.0
 40
0.0
 40
0.0
 40
0.0
 40
0.0725024889330334
 40
0.1397389892678939
 40
0.2017951348259221
 40
0.2598219344148626
 40
0.3122059893845967
 40
0.3607734341243379
 40
0.4045403426007487
 40
0.4436980985527627
 40
0.5168407942439694
 40
0.5878743359442808
 40
0.6579654175616315
 40
0.7289693886473123
 40
0.7993077199548829
 40
0.8666357778344711
 40
0.9331163290572735
 40
1.0
 40
1.0
 40
1.0
 40
1.0
 10
945.7035844324922
 20
839.5113721503773
 30
0.0
 10
945.7767705488649
 20
839.512249287284
 30
0.0
 10
945.9178271398986
 20
839.5139398530373
 30
0.0
 10
946.1214870944607
 20
839.5194588348907
 30
0.0
 10
946.3102484745774
 20
839.5320126079171
 30
0.0
 10
946.4832499276733
 20
839.5517745500056
 30
0.0
 10
946.6423595336863
 20
839.5732110052563
 30
0.0
 10
946.7856685691809
 20
839.60203679022
 30
0.0
 10
946.9143387256644
 20
839.6350629857068
 30
0.0
 10
947.0635371433543
 20
839.686112522244
 30
0.0
 10
947.2315451622821
 20
839.7654187414835
 30
0.0
 10
947.4125985483064
 20
839.8849941161537
 30
0.0
 10
947.5735727612071
 20
840.0274473910631
 30
0.0
 10
947.7102704965364
 20
840.1923180520313
 30
0.0
 10
947.8223001846416
 20
840.3715896564389
 30
0.0
 10
947.9037983676897
 20
840.5616361706165
 30
0.0
 10
947.9540631830477
 20
840.7593173761442
 30
0.0
 10
947.9601481414246
 20
840.8940984333852
 30
0.0
 10
947.9631998171077
 20
840.9616926631977
 30
0.0
  0
SPLINE
  5
FE
330
1F
100
AcDbEntity
  8
0
  6
Continuous
 62
     7
370
    25
100
AcDbSpline
210
0.0
220
0.0
230
1.0
 70
     8
 71
     3
 72
    27
 73
    23
 74
     0
 42
0.00000001
 43
0.00000001
 40
0.0
 40
0.0
 40
0.0
 40
0.0
 40
0.0729510658758678
 40
0.1415836941865455
 40
0.2059264601708677
 40
0.2653013571846063
 40
0.3205972327139289
 40
0.3718165030988104
 40
0.418789769709452
 40
0.4616987286157648
 40
0.5021335821035655
 40
0.5408043152926487
 40
0.5781805253279657
 40
0.6142968652075155
 40
0.649678243264788
 40
0.6842994600896372
 40
0.7183589527723608
 40
0.7520808646475974
 40
0.8176524386023851
 40
0.879722076405437
 40
0.9399655597309878
 40
1.0
 40
1.0
 40
1.0
 40
1.0
 10
966.3221741760821
 20
842.6908593298645
 30
0.0
 10
966.3224471979507
 20
842.5840051611699
 30
0.0
 10
966.3229770797869
 20
842.3766222016291
 30
0.0
 10
966.3368198239634
 20
842.0752661765412
 30
0.0
 10
966.3556774971051
 20
841.7941911392448
 30
0.0
 10
966.3800004620998
 20
841.5330401987529
 30
0.0
 10
966.4161214873021
 20
841.2926973130162
 30
0.0
 10
966.4565941451712
 20
841.0715094660103
 30
0.0
 10
966.5058469214435
 20
840.8706472097501
 30
0.0
 10
966.5641212479967
 20
840.6887322138541
 30
0.0
 10
966.6304963266103
 20
840.5226772001504
 30
0.0
 10
966.7029668721419
 20
840.3681601370022
 30
0.0
 10
966.7808199530674
 20
840.2233557108633
 30
0.0
 10
966.8679494400458
 20
840.0895646060081
 30
0.0
 10
966.9628410131405
 20
839.9663505166988
 30
0.0
 10
967.0633513197405
 20
839.8515326142478
 30
0.0
 10
967.1732315122939
 20
839.7491395140522
 30
0.0
 10
967.3252400666784
 20
839.6263352739848
 30
0.0
 10
967.5259177225117
 20
839.4994343968885
 30
0.0
 10
967.7787644773257
 20
839.388929048702
 30
0.0
 10
968.0385780795691
 20
839.3194834339995
 30
0.0
 10
968.2149237940534
 20
839.3106519918164
 30
0.0
 10
968.3029434068513
 20
839.306243945249
 30
0.0
  0
SPLINE
  5
FF
330
1F
100
AcDbEntity
  8
0
  6
Continuous
 62
     7
370
    25
100
AcDbSpline
210
0.0
220
0.0
230
1.0
 70
     8
 71
     3
 72
    19
 73
    15
 74
     0
 42
0.00000001
 43
0.00000001
 40
0.0
 40
0.0
 40
0.0
 40
0.0
 40
0.1128134007444591
 40
0.2253938839207292
 40
0.3395948145627014
 40
0.4596754102248628
 40
0.5217351900879341
 40
0.583925838738916
 40
0.648174144765371
 40
0.713881038113067
 40
0.7810044549073896
 40
0.851450927556554
 40
0.9240506926641802
 40
1.0
 40
1.0
 40
1.0
 40
1.0
 10
968.3029434068513
 20
839.306243945249
 30
0.0
 10
968.3915323706358
 20
839.3098960156753
 30
0.0
 10
968.568527395058
 20
839.3171926163658
 30
0.0
 10
968.8271189268165
 20
839.3875897303641
 30
0.0
 10
969.0781595441473
 20
839.4938058205668
 30
0.0
 10
969.274895407642
 20
839.619400118668
 30
0.0
 10
969.4245697927881
 20
839.7390077288422
 30
0.0
 10
969.531808627316
 20
839.8409840678432
 30
0.0
 10
969.6302361665919
 20
839.9551689074008
 30
0.0
 10
969.7235894805453
 20
840.0783672980634
 30
0.0
 10
969.809210224945
 20
840.2129329761749
 30
0.0
 10
969.8870688253912
 20
840.3582188624972
 30
0.0
 10
969.9581164769231
 20
840.5146284120108
 30
0.0
 10
969.9985942962379
 20
840.6238163871327
 30
0.0
 10
970.0192895606974
 20
840.6796413811464
 30
0.0
  0
SPLINE
  5
100
330
1F
100
AcDbEntity
  8
0
  6
Continuous
 62
     7
370
    25
100
AcDbSpline
210
0.0
220
0.0
230
1.0
 70
     8
 71
     3
 72
    15
 73
    11
 74
     0
 42
0.00000001
 43
0.00000001
 40
0.0
 40
0.0
 40
0.0
 40
0.0
 40
0.1105883385953361
 40
0.2245417540535963
 40
0.3425034940501039
 40
0.4643240984173573
 40
0.5907560327017671
 40
0.7222274753555148
 40
0.8588428362087224
 40
1.0
 40
1.0
 40
1.0
 40
1.0
 10
970.0192895606974
 20
840.6796413811464
 30
0.0
 10
970.0434078870832
 20
840.7510236427837
 30
0.0
 10
970.0923784329859
 20
840.8959602467688
 30
0.0
 10
970.1554910598906
 20
841.1207914515243
 30
0.0
 10
970.205194829499
 20
841.3566834833823
 30
0.0
 10
970.249911094069
 20
841.6022266073103
 30
0.0
 10
970.2804323646915
 20
841.8592316381926
 30
0.0
 10
970.3049987950533
 20
842.1269033728571
 30
0.0
 10
970.3194689366287
 20
842.4054436293953
 30
0.0
 10
970.3212626533632
 20
842.5946893235558
 30
0.0
 10
970.3221741760821
 20
842.6908593298645
 30
0.0
  0
SPLINE
  5
101
330
1F
100
AcDbEntity
  8
0
  6
Continuous
 62
     7
370
    25
100
AcDbSpline
210
0.0
220
0.0
230
1.0
 70
     8
 71
     3
 72
    27
 73
    23
 74
     0
 42
0.00000001
 43
0.00000001
 40
0.0
 40
0.0
 40
0.0
 40
0.0
 40
0.0656811979906383
 40
0.128486464174064
 40
0.1881751303280079
 40
0.245106130669986
 40
0.2994484245294747
 40
0.3508229360093825
 40
0.3999416805337773
 40
0.4466717436323714
 40
0.4912545333734974
 40
0.5333763442704356
 40
0.5738527549682237
 40
0.6125263117194524
 40
0.6495971364453287
 40
0.6855320415538507
 40
0.7201057860682003
 40
0.7538376629736493
 40
0.8189254160467137
 40
0.8804934616501641
 40
0.9403113338460578
 40
1.0
 40
1.0
 40
1.0
 40
1.0
 10
970.3221741760821
 20
842.6908593298645
 30
0.0
 10
970.3209166006924
 20
842.7870137813343
 30
0.0
 10
970.318456514394
 20
842.9751124436898
 30
0.0
 10
970.3090531139343
 20
843.2505825709176
 30
0.0
 10
970.2847706579525
 20
843.5122231672814
 30
0.0
 10
970.2578012434052
 20
843.7611613905141
 30
0.0
 10
970.2180361666233
 20
843.9960192252671
 30
0.0
 10
970.1751611794683
 20
844.2187627801387
 30
0.0
 10
970.1175584085192
 20
844.4266325511545
 30
0.0
 10
970.056027494293
 20
844.6228830236381
 30
0.0
 10
969.9856037330783
 20
844.8052845196398
 30
0.0
 10
969.9080820547753
 20
844.9746874598958
 30
0.0
 10
969.8252894633032
 20
845.1319096879113
 30
0.0
 10
969.7353643422535
 20
845.2765198400863
 30
0.0
 10
969.6393742095329
 20
845.4091656524546
 30
0.0
 10
969.5347855256526
 20
845.5271875828707
 30
0.0
 10
969.4257469592279
 20
845.6342435099759
 30
0.0
 10
969.2730219630595
 20
845.7564436679683
 30
0.0
 10
969.07308072923
 20
845.8810418290726
 30
0.0
 10
968.8242906781617
 20
845.995706423039
 30
0.0
 10
968.5653863484448
 20
846.0615539490298
 30
0.0
 10
968.3903613105201
 20
846.0708378051169
 30
0.0
 10
968.3029434068513
 20
846.0754747144798
 30
0.0
  0
SPLINE
  5
102
330
1F
100
AcDbEntity
  8
0
  6
Continuous
 62
     7
370
    25
100
AcDbSpline
210
0.0
220
0.0
230
1.0
 70
     8
 71
     3
 72
    27
 73
    23
 74
     0
 42
0.00000001
 43
0.00000001
 40
0.0
 40
0.0
 40
0.0
 40
0.0
 40
0.0603866193110627
 40
0.1208832485859966
 40
0.1827546186251396
 40
0.2478110297583515
 40
0.2812991000432487
 40
0.3150876241506568
 40
0.3497023955502764
 40
0.3848565811185561
 40
0.4209661972261022
 40
0.4585111882611393
 40
0.4971747221273132
 40
0.5376020478662704
 40
0.580503018420012
 40
0.6274675400267045
 40
0.6783882095592438
 40
0.7339832205925612
 40
0.793746704550835
 40
0.857713672160732
 40
0.9266978643613873
 40
1.0
 40
1.0
 40
1.0
 40
1.0
 10
968.3029434068513
 20
846.0754747144798
 30
0.0
 10
968.21446205351
 20
846.0708314078576
 30
0.0
 10
968.037338154984
 20
846.0615363356198
 30
0.0
 10
967.7757428298943
 20
845.995951755982
 30
0.0
 10
967.5249900261405
 20
845.8816364052675
 30
0.0
 10
967.3255775125889
 20
845.7560309824904
 30
0.0
 10
967.1727460005715
 20
845.6364005563381
 30
0.0
 10
967.0651284157102
 20
845.5326600899187
 30
0.0
 10
966.9642228792127
 20
845.4191829370842
 30
0.0
 10
966.871268136041
 20
845.2948357031405
 30
0.0
 10
966.7842069173158
 20
845.1612005778396
 30
0.0
 10
966.7042503171427
 20
845.0172262584676
 30
0.0
 10
966.6322107064547
 20
844.8621831402381
 30
0.0
 10
966.5657317666142
 20
844.696202716423
 30
0.0
 10
966.5072796796971
 20
844.5143034148562
 30
0.0
 10
966.4590649066
 20
844.3136885723568
 30
0.0
 10
966.4145230708974
 20
844.0932042482673
 30
0.0
 10
966.3829910276961
 20
843.8515596586783
 30
0.0
 10
966.354959585955
 20
843.5903433081199
 30
0.0
 10
966.3369450763499
 20
843.3085665807387
 30
0.0
 10
966.3229307735631
 20
843.006705139819
 30
0.0
 10
966.3224314264482
 20
842.7982499203844
 30
0.0
 10
966.3221741760821
 20
842.6908593298645
 30
0.0
  0
ENDSEC
  0
SECTION
  2
OBJECTS
  0
DICTIONARY
  5
C
330
0
100
AcDbDictionary
281
     1
  3
ACAD_DETAILVIEWSTYLE
350
10A
  3
ACAD_GROUP
350
D
  3
ACAD_LAYOUT
350
1A
  3
ACAD_MATERIAL
350
43
  3
ACAD_MLEADERSTYLE
350
5B
  3
ACAD_MLINESTYLE
350
17
  3
ACAD_PLOTSETTINGS
350
19
  3
ACAD_PLOTSTYLENAME
350
E
  3
ACAD_SCALELIST
350
47
  3
ACAD_SECTIONVIEWSTYLE
350
10B
  3
ACAD_TABLESTYLE
350
59
  3
ACAD_VISUALSTYLE
350
2A
  3
ACDB_RECOMPOSE_DATA
350
107
  3
AcDbVariableDictionary
350
103
  0
SUN
  5
5D
330
29
100
AcDbSun
 90
        1
290
     0
 63
     7
421
 16777215
 40
1.0
291
     1
 91
  2455826
 92
 54000000
292
     0
 70
     2
 71
   256
280
     1
  0
DICTIONARY
  5
10A
102
{ACAD_REACTORS
330
C
102
}
330
C
100
AcDbDictionary
281
     1
  0
DICTIONARY
  5
D
102
{ACAD_REACTORS
330
C
102
}
330
C
100
AcDbDictionary
281
     1
  0
DICTIONARY
  5
1A
102
{ACAD_REACTORS
330
C
102
}
330
C
100
AcDbDictionary
281
     1
  3
Layout1
350
1E
  3
Layout2
350
26
  3
Model
350
22
  0
DICTIONARY
  5
43
102
{ACAD_REACTORS
330
C
102
}
330
C
100
AcDbDictionary
281
     1
  3
ByBlock
350
45
  3
ByLayer
350
44
  3
Global
350
46
  0
DICTIONARY
  5
5B
102
{ACAD_REACTORS
330
C
102
}
330
C
100
AcDbDictionary
281
     1
  3
Standard
350
5C
  0
DICTIONARY
  5
17
102
{ACAD_REACTORS
330
C
102
}
330
C
100
AcDbDictionary
281
     1
  3
Standard
350
18
  0
DICTIONARY
  5
19
102
{ACAD_REACTORS
330
C
102
}
330
C
100
AcDbDictionary
281
     1
  0
ACDBDICTIONARYWDFLT
  5
E
102
{ACAD_REACTORS
330
C
102
}
330
C
100
AcDbDictionary
281
     1
  3
Normal
350
F
100
AcDbDictionaryWithDefault
340
F
  0
DICTIONARY
  5
47
102
{ACAD_REACTORS
330
C
102
}
330
C
100
AcDbDictionary
281
     1
  3
A0
350
48
  3
A1
350
49
  3
A2
350
4A
  3
A3
350
4B
  3
A4
350
4C
  3
A5
350
4D
  3
A6
350
4E
  3
A7
350
4F
  3
A8
350
50
  3
A9
350
51
  3
B0
350
52
  3
B1
350
53
  3
B2
350
54
  3
B3
350
55
  3
B4
350
56
  3
B5
350
57
  3
B6
350
58
  0
DICTIONARY
  5
10B
102
{ACAD_REACTORS
330
C
102
}
330
C
100
AcDbDictionary
281
     1
  0
DICTIONARY
  5
59
102
{ACAD_REACTORS
330
C
102
}
330
C
100
AcDbDictionary
281
     1
  3
Standard
350
5A
  0
DICTIONARY
  5
2A
102
{ACAD_REACTORS
330
C
102
}
330
C
100
AcDbDictionary
281
     1
  3
2dWireframe
350
2F
  3
Basic
350
32
  3
Brighten
350
36
  3
ColorChange
350
3A
  3
Conceptual
350
34
  3
Dim
350
35
  3
EdgeColorOff
350
3D
  3
Facepattern
350
39
  3
Flat
350
2B
  3
FlatWithEdges
350
2C
  3
Gouraud
350
2D
  3
GouraudWithEdges
350
2E
  3
Hidden
350
31
  3
JitterOff
350
3B
  3
Linepattern
350
38
  3
OverhangOff
350
3C
  3
Realistic
350
33
  3
Shaded
350
42
  3
Shaded with edges
350
41
  3
Shades of Gray
350
3E
  3
Sketchy
350
3F
  3
Thicken
350
37
  3
Wireframe
350
30
  3
X-Ray
350
40
  0
XRECORD
  5
107
102
{ACAD_REACTORS
330
C
102
}
330
C
100
AcDbXrecord
280
     1
 90
        1
330
5A
  0
DICTIONARY
  5
103
102
{ACAD_REACTORS
330
C
102
}
330
C
100
AcDbDictionary
281
     1
  3
CANNOSCALE
350
104
  3
CENTEREXE
350
10C
  3
CENTERLTYPEFILE
350
10D
  3
CMLEADERSTYLE
350
109
  3
CTABLESTYLE
350
108
  0
LAYOUT
  5
1E
102
{ACAD_REACTORS
330
1A
102
}
330
1A
100
AcDbPlotSettings
  1

  2
none_device
  4

  6

 40
0.0
 41
0.0
 42
0.0
 43
0.0
 44
0.0
 45
0.0
 46
0.0
 47
0.0
 48
0.0
 49
0.0
140
0.0
141
0.0
142
1.0
143
1.0
 70
   688
 72
     1
 73
     0
 74
     5
  7

 75
    16
 76
     0
 77
     2
 78
   300
147
1.0
148
0.0
149
0.0
100
AcDbLayout
  1
Layout1
 70
     1
 71
     1
 10
0.0
 20
0.0
 11
420.0
 21
297.0
 12
0.0
 22
0.0
 32
0.0
 14
1.0000000000E+20
 24
1.0000000000E+20
 34
1.0000000000E+20
 15
-1.0000000000E+20
 25
-1.0000000000E+20
 35
-1.0000000000E+20
146
0.0
 13
0.0
 23
0.0
 33
0.0
 16
1.0
 26
0.0
 36
0.0
 17
0.0
 27
1.0
 37
0.0
 76
     0
330
1B
  0
LAYOUT
  5
26
102
{ACAD_REACTORS
330
1A
102
}
330
1A
100
AcDbPlotSettings
  1

  2
none_device
  4

  6

 40
0.0
 41
0.0
 42
0.0
 43
0.0
 44
0.0
 45
0.0
 46
0.0
 47
0.0
 48
0.0
 49
0.0
140
0.0
141
0.0
142
1.0
143
1.0
 70
   688
 72
     1
 73
     0
 74
     5
  7

 75
    16
 76
     0
 77
     2
 78
   300
147
1.0
148
0.0
149
0.0
100
AcDbLayout
  1
Layout2
 70
     1
 71
     2
 10
0.0
 20
0.0
 11
0.0
 21
0.0
 12
0.0
 22
0.0
 32
0.0
 14
0.0
 24
0.0
 34
0.0
 15
0.0
 25
0.0
 35
0.0
146
0.0
 13
0.0
 23
0.0
 33
0.0
 16
1.0
 26
0.0
 36
0.0
 17
0.0
 27
1.0
 37
0.0
 76
     0
330
23
  0
LAYOUT
  5
22
102
{ACAD_REACTORS
330
1A
102
}
330
1A
100
AcDbPlotSettings
  1

  2
none_device
  4
Letter_(8.50_x_11.00_Inches)
  6

 40
6.35
 41
6.35
 42
6.35000508
 43
6.35000508
 44
215.9
 45
279.4
 46
0.0
 47
0.0
 48
0.0
 49
0.0
140
0.0
141
0.0
142
1.0
143
1.0
 70
  1712
 72
     1
 73
     0
 74
     0
  7

 75
     0
 76
     0
 77
     2
 78
   300
147
1.0
148
0.0
149
0.0
100
AcDbLayout
  1
Model
 70
     1
 71
     0
 10
0.0
 20
0.0
 11
420.0
 21
297.0
 12
0.0
 22
0.0
 32
0.0
 14
0.0
 24
0.0
 34
0.0
 15
420.0
 25
297.0
 35
0.0
146
0.0
 13
0.0
 23
0.0
 33
0.0
 16
1.0
 26
0.0
 36
0.0
 17
0.0
 27
1.0
 37
0.0
 76
     0
330
1F
331
29
  0
MATERIAL
  5
45
102
{ACAD_REACTORS
330
43
102
}
330
43
100
AcDbMaterial
  1
ByBlock
 72
     1
 94
      127
  0
MATERIAL
  5
44
102
{ACAD_REACTORS
330
43
102
}
330
43
100
AcDbMaterial
  1
ByLayer
 72
     1
 94
      127
  0
MATERIAL
  5
46
102
{ACAD_REACTORS
330
43
102
}
330
43
100
AcDbMaterial
  1
Global
 72
     1
 94
      127
  0
MLEADERSTYLE
  5
5C
102
{ACAD_REACTORS
330
5B
102
}
330
5B
100
AcDbMLeaderStyle
179
     2
170
     2
171
     1
172
     0
 90
        2
 40
0.0
 41
0.0
173
     1
 91
-1056964608
340
14
 92
       -2
290
     1
 42
2.0
291
     1
 43
8.0
  3
Standard
341
0
 44
4.0
300

342
11
174
     1
178
     6
175
     1
176
     0
 93
-1056964608
 45
4.0
292
     0
297
     0
 46
4.0
343
0
 94
-1056964608
 47
1.0
 49
1.0
140
1.0
293
     1
141
0.0
294
     1
177
     0
142
1.0
295
     0
296
     0
143
3.75
271
     0
272
     9
273
     9
298
     0
  0
MLINESTYLE
  5
18
102
{ACAD_REACTORS
330
17
102
}
330
17
100
AcDbMlineStyle
  2
Standard
 70
     0
  3

 62
   256
 51
90.0
 52
90.0
 71
     2
 49
0.5
 62
   256
  6
BYLAYER
 49
-0.5
 62
   256
  6
BYLAYER
  0
ACDBPLACEHOLDER
  5
F
102
{ACAD_REACTORS
330
E
102
}
330
E
  0
SCALE
  5
48
102
{ACAD_REACTORS
330
47
102
}
330
47
100
AcDbScale
 70
     0
300
1:1
140
1.0
141
1.0
290
     1
  0
SCALE
  5
49
102
{ACAD_REACTORS
330
47
102
}
330
47
100
AcDbScale
 70
     0
300
1:2
140
1.0
141
2.0
290
     0
  0
SCALE
  5
4A
102
{ACAD_REACTORS
330
47
102
}
330
47
100
AcDbScale
 70
     0
300
1:4
140
1.0
141
4.0
290
     0
  0
SCALE
  5
4B
102
{ACAD_REACTORS
330
47
102
}
330
47
100
AcDbScale
 70
     0
300
1:5
140
1.0
141
5.0
290
     0
  0
SCALE
  5
4C
102
{ACAD_REACTORS
330
47
102
}
330
47
100
AcDbScale
 70
     0
300
1:8
140
1.0
141
8.0
290
     0
  0
SCALE
  5
4D
102
{ACAD_REACTORS
330
47
102
}
330
47
100
AcDbScale
 70
     0
300
1:10
140
1.0
141
10.0
290
     0
  0
SCALE
  5
4E
102
{ACAD_REACTORS
330
47
102
}
330
47
100
AcDbScale
 70
     0
300
1:16
140
1.0
141
16.0
290
     0
  0
SCALE
  5
4F
102
{ACAD_REACTORS
330
47
102
}
330
47
100
AcDbScale
 70
     0
300
1:20
140
1.0
141
20.0
290
     0
  0
SCALE
  5
50
102
{ACAD_REACTORS
330
47
102
}
330
47
100
AcDbScale
 70
     0
300
1:30
140
1.0
141
30.0
290
     0
  0
SCALE
  5
51
102
{ACAD_REACTORS
330
47
102
}
330
47
100
AcDbScale
 70
     0
300
1:40
140
1.0
141
40.0
290
     0
  0
SCALE
  5
52
102
{ACAD_REACTORS
330
47
102
}
330
47
100
AcDbScale
 70
     0
300
1:50
140
1.0
141
50.0
290
     0
  0
SCALE
  5
53
102
{ACAD_REACTORS
330
47
102
}
330
47
100
AcDbScale
 70
     0
300
1:100
140
1.0
141
100.0
290
     0
  0
SCALE
  5
54
102
{ACAD_REACTORS
330
47
102
}
330
47
100
AcDbScale
 70
     0
300
2:1
140
2.0
141
1.0
290
     0
  0
SCALE
  5
55
102
{ACAD_REACTORS
330
47
102
}
330
47
100
AcDbScale
 70
     0
300
4:1
140
4.0
141
1.0
290
     0
  0
SCALE
  5
56
102
{ACAD_REACTORS
330
47
102
}
330
47
100
AcDbScale
 70
     0
300
8:1
140
8.0
141
1.0
290
     0
  0
SCALE
  5
57
102
{ACAD_REACTORS
330
47
102
}
330
47
100
AcDbScale
 70
     0
300
10:1
140
10.0
141
1.0
290
     0
  0
SCALE
  5
58
102
{ACAD_REACTORS
330
47
102
}
330
47
100
AcDbScale
 70
     0
300
100:1
140
100.0
141
1.0
290
     0
  0
TABLESTYLE
  5
5A
102
{ACAD_REACTORS
330
59
102
}
102
{ACAD_XDICTIONARY
360
105
102
}
330
59
100
AcDbTableStyle
  3
Standard
 70
     0
 71
     0
 40
0.06
 41
0.06
280
     0
281
     0
  7
Standard
140
4.5
170
     2
 62
     0
 63
   257
283
     0
 90
        4
 91
        0
  1

274
    -2
284
     1
 64
     0
275
    -2
285
     1
 65
     0
276
    -2
286
     1
 66
     0
277
    -2
287
     1
 67
     0
278
    -2
288
     1
 68
     0
279
    -2
289
     1
 69
     0
  7
Standard
140
6.0
170
     5
 62
     0
 63
   257
283
     0
 90
        4
 91
        0
  1

274
    -2
284
     1
 64
     0
275
    -2
285
     1
 65
     0
276
    -2
286
     1
 66
     0
277
    -2
287
     1
 67
     0
278
    -2
288
     1
 68
     0
279
    -2
289
     1
 69
     0
  7
Standard
140
4.5
170
     5
 62
     0
 63
   257
283
     0
 90
        4
 91
        0
  1

274
    -2
284
     1
 64
     0
275
    -2
285
     1
 65
     0
276
    -2
286
     1
 66
     0
277
    -2
287
     1
 67
     0
278
    -2
288
     1
 68
     0
279
    -2
289
     1
 69
     0
  0
VISUALSTYLE
  5
2F
102
{ACAD_REACTORS
330
2A
102
}
330
2A
100
AcDbVisualStyle
  2
2dWireframe
 70
     4
177
     3
291
     0
 70
    58
 90
        0
176
     1
 90
        2
176
     1
 90
        0
176
     1
 90
        0
176
     1
 40
0.6
176
     1
 40
30.0
176
     1
 62
     7
420
 16777215
176
     1
 90
        1
176
     1
 90
        4
176
     1
 62
     7
176
     1
 62
   257
176
     1
 90
        1
176
     1
 90
        1
176
     1
 40
1.0
176
     1
 90
        0
176
     1
 62
   257
176
     1
 40
1.0
176
     1
 90
        1
176
     1
 90
        6
176
     1
 90
        2
176
     1
 62
     7
176
     1
 90
        5
176
     1
 90
        0
176
     1
 90
        0
176
     1
290
     0
176
     1
 90
        1
176
     1
 40
0.0
176
     1
 90
        0
176
     1
290
     1
176
     1
290
     1
176
     1
290
     0
176
     1
290
     0
176
     1
290
     0
176
     1
290
     0
176
     1
290
     0
176
     1
290
     0
176
     1
290
     0
176
     1
 90
       50
176
     1
 40
0.0
176
     1
 40
1.0
176
     1
 90
        0
176
     1
 62
    18
420
        0
176
     1
 90
       50
176
     1
 90
        3
176
     1
 62
     5
420
      255
176
     1
290
     0
176
     1
 90
       50
176
     1
 90
       50
176
     1
 90
       50
176
     1
290
     0
176
     1
 90
       50
176
     1
 62
   256
176
     0
 40
1.0
176
     0
 90
        2
176
     1
  1
strokes_ogs.tif
176
     1
290
     0
176
     1
 40
1.0
176
     1
 40
1.0
176
     1
  0
VISUALSTYLE
  5
32
102
{ACAD_REACTORS
330
2A
102
}
330
2A
100
AcDbVisualStyle
  2
Basic
 70
     7
177
     3
291
     1
 70
    58
 90
        1
176
     1
 90
        0
176
     1
 90
        1
176
     1
 90
        0
176
     1
 40
0.6
176
     1
 40
30.0
176
     1
 62
     7
420
 16777215
176
     1
 90
        0
176
     1
 90
        4
176
     1
 62
     7
176
     1
 62
   257
176
     1
 90
        1
176
     1
 90
        1
176
     1
 40
1.0
176
     1
 90
        8
176
     1
 62
     7
176
     1
 40
1.0
176
     1
 90
        1
176
     1
 90
        6
176
     1
 90
        2
176
     1
 62
     7
176
     1
 90
        5
176
     1
 90
        0
176
     1
 90
        0
176
     1
290
     0
176
     1
 90
        1
176
     1
 40
0.0
176
     1
 90
        0
176
     1
290
     0
176
     1
290
     1
176
     1
290
     1
176
     1
290
     0
176
     1
290
     0
176
     1
290
     0
176
     1
290
     0
176
     1
290
     0
176
     1
290
     0
176
     1
 90
       50
176
     1
 40
0.0
176
     1
 40
1.0
176
     1
 90
        0
176
     1
 62
    18
420
        0
176
     1
 90
       50
176
     1
 90
        3
176
     1
 62
     5
420
      255
176
     1
290
     0
176
     1
 90
       50
176
     1
 90
       50
176
     1
 90
       50
176
     1
290
     0
176
     1
 90
       50
176
     1
 62
   256
176
     0
 40
1.0
176
     0
 90
        2
176
     1
  1
strokes_ogs.tif
176
     1
290
     0
176
     1
 40
1.0
176
     1
 40
1.0
176
     1
  0
VISUALSTYLE
  5
36
102
{ACAD_REACTORS
330
2A
102
}
330
2A
100
AcDbVisualStyle
  2
Brighten
 70
    12
177
     3
291
     1
 70
    58
 90
        2
176
     1
 90
        2
176
     1
 90
        0
176
     1
 90
        0
176
     1
 40
0.6
176
     1
 40
30.0
176
     1
 62
     7
420
 16777215
176
     1
 90
        1
176
     1
 90
        4
176
     1
 62
     7
176
     1
 62
   257
176
     1
 90
        1
176
     1
 90
        1
176
     1
 40
1.0
176
     1
 90
        8
176
     1
 62
     7
176
     1
 40
1.0
176
     1
 90
        1
176
     1
 90
        6
176
     1
 90
        2
176
     1
 62
     7
176
     1
 90
        5
176
     1
 90
        0
176
     1
 90
        0
176
     1
290
     0
176
     1
 90
        1
176
     1
 40
50.0
176
     1
 90
        0
176
     1
290
     0
176
     1
290
     1
176
     1
290
     1
176
     1
290
     0
176
     1
290
     0
176
     1
290
     0
176
     1
290
     0
176
     1
290
     0
176
     1
290
     0
176
     1
 90
       50
176
     1
 40
0.0
176
     1
 40
1.0
176
     1
 90
        0
176
     1
 62
    18
420
        0
176
     1
 90
       50
176
     1
 90
        3
176
     1
 62
     5
420
      255
176
     1
290
     0
176
     1
 90
       50
176
     1
 90
       50
176
     1
 90
       50
176
     1
290
     0
176
     1
 90
       50
176
     1
 62
   256
176
     0
 40
1.0
176
     0
 90
        2
176
     1
  1
strokes_ogs.tif
176
     1
290
     0
176
     1
 40
1.0
176
     1
 40
1.0
176
     1
  0
VISUALSTYLE
  5
3A
102
{ACAD_REACTORS
330
2A
102
}
330
2A
100
AcDbVisualStyle
  2
ColorChange
 70
    16
177
     3
291
     1
 70
    58
 90
        2
176
     1
 90
        2
176
     1
 90
        3
176
     1
 90
        0
176
     1
 40
0.6
176
     1
 40
30.0
176
     1
 62
     8
420
  8421504
176
     1
 90
        1
176
     1
 90
        4
176
     1
 62
     7
176
     1
 62
   257
176
     1
 90
        1
176
     1
 90
        1
176
     1
 40
1.0
176
     1
 90
        8
176
     1
 62
     8
420
  8421504
176
     1
 40
1.0
176
     1
 90
        1
176
     1
 90
        6
176
     1
 90
        2
176
     1
 62
     7
176
     1
 90
        5
176
     1
 90
        0
176
     1
 90
        0
176
     1
290
     0
176
     1
 90
        1
176
     1
 40
0.0
176
     1
 90
        0
176
     1
290
     0
176
     1
290
     1
176
     1
290
     1
176
     1
290
     0
176
     1
290
     0
176
     1
290
     0
176
     1
290
     0
176
     1
290
     0
176
     1
290
     0
176
     1
 90
       50
176
     1
 40
0.0
176
     1
 40
1.0
176
     1
 90
        0
176
     1
 62
    18
420
        0
176
     1
 90
       50
176
     1
 90
        3
176
     1
 62
     5
420
      255
176
     1
290
     0
176
     1
 90
       50
176
     1
 90
       50
176
     1
 90
       50
176
     1
290
     0
176
     1
 90
       50
176
     1
 62
   256
176
     0
 40
1.0
176
     0
 90
        2
176
     1
  1
strokes_ogs.tif
176
     1
290
     0
176
     1
 40
1.0
176
     1
 40
1.0
176
     1
  0
VISUALSTYLE
  5
34
102
{ACAD_REACTORS
330
2A
102
}
330
2A
100
AcDbVisualStyle
  2
Conceptual
 70
     9
177
     3
291
     0
 70
    58
 90
        3
176
     1
 90
        2
176
     1
 90
        0
176
     1
 90
        0
176
     1
 40
0.6
176
     1
 40
30.0
176
     1
 62
     7
420
 16777215
176
     1
 90
        2
176
     1
 90
        2
176
     1
 62
     7
176
     1
 62
   257
176
     1
 90
        1
176
     1
 90
        1
176
     1
 40
179.0
176
     1
 90
        8
176
     1
 62
     7
176
     1
 40
1.0
176
     1
 90
        1
176
     1
 90
        6
176
     1
 90
        2
176
     1
 62
     7
176
     1
 90
        3
176
     1
 90
        0
176
     1
 90
        0
176
     1
290
     0
176
     1
 90
        1
176
     1
 40
0.0
176
     1
 90
        0
176
     1
290
     0
176
     1
290
     1
176
     1
290
     1
176
     1
290
     0
176
     1
290
     0
176
     1
290
     0
176
     1
290
     0
176
     1
290
     0
176
     1
290
     0
176
     1
 90
       50
176
     1
 40
0.0
176
     1
 40
1.0
176
     1
 90
        0
176
     1
 62
    18
420
        0
176
     1
 90
       50
176
     1
 90
        3
176
     1
 62
     5
420
      255
176
     1
290
     0
176
     1
 90
       50
176
     1
 90
       50
176
     1
 90
       50
176
     1
290
     0
176
     1
 90
       50
176
     1
 62
   256
176
     0
 40
1.0
176
     0
 90
        2
176
     1
  1
strokes_ogs.tif
176
     1
290
     0
176
     1
 40
1.0
176
     1
 40
1.0
176
     1
  0
VISUALSTYLE
  5
35
102
{ACAD_REACTORS
330
2A
102
}
330
2A
100
AcDbVisualStyle
  2
Dim
 70
    11
177
     3
291
     1
 70
    58
 90
        2
176
     1
 90
        2
176
     1
 90
        0
176
     1
 90
        0
176
     1
 40
0.6
176
     1
 40
30.0
176
     1
 62
     7
420
 16777215
176
     1
 90
        1
176
     1
 90
        4
176
     1
 62
     7
176
     1
 62
   257
176
     1
 90
        1
176
     1
 90
        1
176
     1
 40
1.0
176
     1
 90
        8
176
     1
 62
     7
176
     1
 40
1.0
176
     1
 90
        1
176
     1
 90
        6
176
     1
 90
        2
176
     1
 62
     7
176
     1
 90
        5
176
     1
 90
        0
176
     1
 90
        0
176
     1
290
     0
176
     1
 90
        1
176
     1
 40
-50.0
176
     1
 90
        0
176
     1
290
     0
176
     1
290
     1
176
     1
290
     1
176
     1
290
     0
176
     1
290
     0
176
     1
290
     0
176
     1
290
     0
176
     1
290
     0
176
     1
290
     0
176
     1
 90
       50
176
     1
 40
0.0
176
     1
 40
1.0
176
     1
 90
        0
176
     1
 62
    18
420
        0
176
     1
 90
       50
176
     1
 90
        3
176
     1
 62
     5
420
      255
176
     1
290
     0
176
     1
 90
       50
176
     1
 90
       50
176
     1
 90
       50
176
     1
290
     0
176
     1
 90
       50
176
     1
 62
   256
176
     0
 40
1.0
176
     0
 90
        2
176
     1
  1
strokes_ogs.tif
176
     1
290
     0
176
     1
 40
1.0
176
     1
 40
1.0
176
     1
  0
VISUALSTYLE
  5
3D
102
{ACAD_REACTORS
330
2A
102
}
330
2A
100
AcDbVisualStyle
  2
EdgeColorOff
 70
    22
177
     3
291
     1
 70
    58
 90
        2
176
     0
 90
        2
176
     0
 90
        0
176
     0
 90
        0
176
     0
 40
0.6
176
     0
 40
30.0
176
     0
 62
     7
420
 16777215
176
     0
 90
        1
176
     0
 90
        4
176
     0
 62
     7
176
     0
 62
   257
176
     0
 90
        1
176
     0
 90
        1
176
     0
 40
1.0
176
     0
 90
        8
176
     2
 62
     7
176
     0
 40
1.0
176
     0
 90
        1
176
     0
 90
        6
176
     0
 90
        2
176
     0
 62
     7
176
     0
 90
        5
176
     0
 90
        0
176
     0
 90
        0
176
     0
290
     0
176
     0
 90
        1
176
     0
 40
0.0
176
     0
 90
        0
176
     0
290
     0
176
     0
290
     1
176
     0
290
     1
176
     0
290
     0
176
     0
290
     0
176
     0
290
     0
176
     0
290
     0
176
     0
290
     0
176
     0
290
     0
176
     0
 90
       50
176
     0
 40
0.0
176
     0
 40
1.0
176
     0
 90
        0
176
     0
 62
    18
420
        0
176
     0
 90
       50
176
     0
 90
        3
176
     0
 62
     5
420
      255
176
     0
290
     0
176
     0
 90
       50
176
     0
 90
       50
176
     0
 90
       50
176
     0
290
     0
176
     0
 90
       50
176
     0
 62
   256
176
     0
 40
1.0
176
     0
 90
        2
176
     0
  1
strokes_ogs.tif
176
     0
290
     0
176
     0
 40
1.0
176
     0
 40
1.0
176
     0
  0
VISUALSTYLE
  5
39
102
{ACAD_REACTORS
330
2A
102
}
330
2A
100
AcDbVisualStyle
  2
Facepattern
 70
    15
177
     3
291
     1
 70
    58
 90
        2
176
     1
 90
        2
176
     1
 90
        0
176
     1
 90
        0
176
     1
 40
0.6
176
     1
 40
30.0
176
     1
 62
     7
420
 16777215
176
     1
 90
        1
176
     1
 90
        4
176
     1
 62
     7
176
     1
 62
   257
176
     1
 90
        1
176
     1
 90
        1
176
     1
 40
1.0
176
     1
 90
        8
176
     1
 62
     7
176
     1
 40
1.0
176
     1
 90
        1
176
     1
 90
        6
176
     1
 90
        2
176
     1
 62
     7
176
     1
 90
        5
176
     1
 90
        0
176
     1
 90
        0
176
     1
290
     0
176
     1
 90
        1
176
     1
 40
0.0
176
     1
 90
        0
176
     1
290
     0
176
     1
290
     1
176
     1
290
     1
176
     1
290
     0
176
     1
290
     0
176
     1
290
     0
176
     1
290
     0
176
     1
290
     0
176
     1
290
     0
176
     1
 90
       50
176
     1
 40
0.0
176
     1
 40
1.0
176
     1
 90
        0
176
     1
 62
    18
420
        0
176
     1
 90
       50
176
     1
 90
        3
176
     1
 62
     5
420
      255
176
     1
290
     0
176
     1
 90
       50
176
     1
 90
       50
176
     1
 90
       50
176
     1
290
     0
176
     1
 90
       50
176
     1
 62
   256
176
     0
 40
1.0
176
     0
 90
        2
176
     1
  1
strokes_ogs.tif
176
     1
290
     0
176
     1
 40
1.0
176
     1
 40
1.0
176
     1
  0
VISUALSTYLE
  5
2B
102
{ACAD_REACTORS
330
2A
102
}
330
2A
100
AcDbVisualStyle
  2
Flat
 70
     0
177
     3
291
     1
 70
    58
 90
        2
176
     1
 90
        1
176
     1
 90
        1
176
     1
 90
        2
176
     1
 40
0.6
176
     1
 40
30.0
176
     1
 62
     7
420
 16777215
176
     1
 90
        0
176
     1
 90
        0
176
     1
 62
     7
176
     1
 62
   257
176
     1
 90
        1
176
     1
 90
        1
176
     1
 40
1.0
176
     1
 90
        8
176
     1
 62
     7
176
     1
 40
1.0
176
     1
 90
        1
176
     1
 90
        6
176
     1
 90
        2
176
     1
 62
     7
176
     1
 90
        5
176
     1
 90
        0
176
     1
 90
        0
176
     1
290
     0
176
     1
 90
       13
176
     1
 40
0.0
176
     1
 90
        0
176
     1
290
     0
176
     1
290
     1
176
     1
290
     1
176
     1
290
     0
176
     1
290
     0
176
     1
290
     0
176
     1
290
     0
176
     1
290
     0
176
     1
290
     0
176
     1
 90
       50
176
     1
 40
0.0
176
     1
 40
1.0
176
     1
 90
        0
176
     1
 62
    18
420
        0
176
     1
 90
       50
176
     1
 90
        3
176
     1
 62
     5
420
      255
176
     1
290
     0
176
     1
 90
       50
176
     1
 90
       50
176
     1
 90
       50
176
     1
290
     0
176
     1
 90
       50
176
     1
 62
   256
176
     0
 40
1.0
176
     0
 90
        2
176
     1
  1
strokes_ogs.tif
176
     1
290
     0
176
     1
 40
1.0
176
     1
 40
1.0
176
     1
  0
VISUALSTYLE
  5
2C
102
{ACAD_REACTORS
330
2A
102
}
330
2A
100
AcDbVisualStyle
  2
FlatWithEdges
 70
     1
177
     3
291
     1
 70
    58
 90
        2
176
     1
 90
        1
176
     1
 90
        1
176
     1
 90
        2
176
     1
 40
0.6
176
     1
 40
30.0
176
     1
 62
     7
420
 16777215
176
     1
 90
        1
176
     1
 90
        0
176
     1
 62
     7
176
     1
 62
   257
176
     1
 90
        1
176
     1
 90
        1
176
     1
 40
1.0
176
     1
 90
        0
176
     1
 62
   257
176
     1
 40
1.0
176
     1
 90
        1
176
     1
 90
        6
176
     1
 90
        2
176
     1
 62
     7
176
     1
 90
        5
176
     1
 90
        0
176
     1
 90
        0
176
     1
290
     0
176
     1
 90
       13
176
     1
 40
0.0
176
     1
 90
        0
176
     1
290
     0
176
     1
290
     1
176
     1
290
     1
176
     1
290
     0
176
     1
290
     0
176
     1
290
     0
176
     1
290
     0
176
     1
290
     0
176
     1
290
     0
176
     1
 90
       50
176
     1
 40
0.0
176
     1
 40
1.0
176
     1
 90
        0
176
     1
 62
    18
420
        0
176
     1
 90
       50
176
     1
 90
        3
176
     1
 62
     5
420
      255
176
     1
290
     0
176
     1
 90
       50
176
     1
 90
       50
176
     1
 90
       50
176
     1
290
     0
176
     1
 90
       50
176
     1
 62
   256
176
     0
 40
1.0
176
     0
 90
        2
176
     1
  1
strokes_ogs.tif
176
     1
290
     0
176
     1
 40
1.0
176
     1
 40
1.0
176
     1
  0
VISUALSTYLE
  5
2D
102
{ACAD_REACTORS
330
2A
102
}
330
2A
100
AcDbVisualStyle
  2
Gouraud
 70
     2
177
     3
291
     1
 70
    58
 90
        2
176
     1
 90
        2
176
     1
 90
        1
176
     1
 90
        2
176
     1
 40
0.6
176
     1
 40
30.0
176
     1
 62
     7
420
 16777215
176
     1
 90
        0
176
     1
 90
        0
176
     1
 62
     7
176
     1
 62
   257
176
     1
 90
        1
176
     1
 90
        1
176
     1
 40
1.0
176
     1
 90
        0
176
     1
 62
     7
176
     1
 40
1.0
176
     1
 90
        1
176
     1
 90
        6
176
     1
 90
        2
176
     1
 62
     7
176
     1
 90
        5
176
     1
 90
        0
176
     1
 90
        0
176
     1
290
     0
176
     1
 90
       13
176
     1
 40
0.0
176
     1
 90
        0
176
     1
290
     0
176
     1
290
     1
176
     1
290
     1
176
     1
290
     0
176
     1
290
     0
176
     1
290
     0
176
     1
290
     0
176
     1
290
     0
176
     1
290
     0
176
     1
 90
       50
176
     1
 40
0.0
176
     1
 40
1.0
176
     1
 90
        0
176
     1
 62
    18
420
        0
176
     1
 90
       50
176
     1
 90
        3
176
     1
 62
     5
420
      255
176
     1
290
     0
176
     1
 90
       50
176
     1
 90
       50
176
     1
 90
       50
176
     1
290
     0
176
     1
 90
       50
176
     1
 62
   256
176
     0
 40
1.0
176
     0
 90
        2
176
     1
  1
strokes_ogs.tif
176
     1
290
     0
176
     1
 40
1.0
176
     1
 40
1.0
176
     1
  0
VISUALSTYLE
  5
2E
102
{ACAD_REACTORS
330
2A
102
}
330
2A
100
AcDbVisualStyle
  2
GouraudWithEdges
 70
     3
177
     3
291
     1
 70
    58
 90
        2
176
     1
 90
        2
176
     1
 90
        1
176
     1
 90
        2
176
     1
 40
0.6
176
     1
 40
30.0
176
     1
 62
     7
420
 16777215
176
     1
 90
        1
176
     1
 90
        0
176
     1
 62
     7
176
     1
 62
   257
176
     1
 90
        1
176
     1
 90
        1
176
     1
 40
1.0
176
     1
 90
        0
176
     1
 62
   257
176
     1
 40
1.0
176
     1
 90
        1
176
     1
 90
        6
176
     1
 90
        2
176
     1
 62
     7
176
     1
 90
        5
176
     1
 90
        0
176
     1
 90
        0
176
     1
290
     0
176
     1
 90
       13
176
     1
 40
0.0
176
     1
 90
        0
176
     1
290
     0
176
     1
290
     1
176
     1
290
     1
176
     1
290
     0
176
     1
290
     0
176
     1
290
     0
176
     1
290
     0
176
     1
290
     0
176
     1
290
     0
176
     1
 90
       50
176
     1
 40
0.0
176
     1
 40
1.0
176
     1
 90
        0
176
     1
 62
    18
420
        0
176
     1
 90
       50
176
     1
 90
        3
176
     1
 62
     5
420
      255
176
     1
290
     0
176
     1
 90
       50
176
     1
 90
       50
176
     1
 90
       50
176
     1
290
     0
176
     1
 90
       50
176
     1
 62
   256
176
     0
 40
1.0
176
     0
 90
        2
176
     1
  1
strokes_ogs.tif
176
     1
290
     0
176
     1
 40
1.0
176
     1
 40
1.0
176
     1
  0
VISUALSTYLE
  5
31
102
{ACAD_REACTORS
330
2A
102
}
330
2A
100
AcDbVisualStyle
  2
Hidden
 70
     6
177
     3
291
     0
 70
    58
 90
        1
176
     1
 90
        2
176
     1
 90
        2
176
     1
 90
        0
176
     1
 40
0.6
176
     1
 40
30.0
176
     1
 62
     7
420
 16777215
176
     1
 90
        2
176
     1
 90
        2
176
     1
 62
     7
176
     1
 62
   257
176
     1
 90
        2
176
     1
 90
        1
176
     1
 40
40.0
176
     1
 90
        0
176
     1
 62
   257
176
     1
 40
1.0
176
     1
 90
        1
176
     1
 90
        6
176
     1
 90
        2
176
     1
 62
     7
176
     1
 90
        3
176
     1
 90
        0
176
     1
 90
        0
176
     1
290
     0
176
     1
 90
        1
176
     1
 40
0.0
176
     1
 90
        0
176
     1
290
     0
176
     1
290
     1
176
     1
290
     1
176
     1
290
     0
176
     1
290
     0
176
     1
290
     0
176
     1
290
     0
176
     1
290
     0
176
     1
290
     0
176
     1
 90
       50
176
     1
 40
0.0
176
     1
 40
1.0
176
     1
 90
        0
176
     1
 62
    18
420
        0
176
     1
 90
       50
176
     1
 90
        3
176
     1
 62
     5
420
      255
176
     1
290
     0
176
     1
 90
       50
176
     1
 90
       50
176
     1
 90
       50
176
     1
290
     0
176
     1
 90
       50
176
     1
 62
   256
176
     0
 40
1.0
176
     0
 90
        2
176
     1
  1
strokes_ogs.tif
176
     1
290
     0
176
     1
 40
1.0
176
     1
 40
1.0
176
     1
  0
VISUALSTYLE
  5
3B
102
{ACAD_REACTORS
330
2A
102
}
330
2A
100
AcDbVisualStyle
  2
JitterOff
 70
    20
177
     3
291
     1
 70
    58
 90
        2
176
     0
 90
        2
176
     0
 90
        0
176
     0
 90
        0
176
     0
 40
0.6
176
     0
 40
30.0
176
     0
 62
     7
420
 16777215
176
     0
 90
        1
176
     0
 90
        4
176
     0
 62
     7
176
     0
 62
   257
176
     0
 90
        1
176
     0
 90
        1
176
     0
 40
1.0
176
     0
 90
       10
176
     2
 62
     7
176
     0
 40
1.0
176
     0
 90
        1
176
     0
 90
        6
176
     0
 90
        2
176
     0
 62
     7
176
     0
 90
        5
176
     0
 90
        0
176
     0
 90
        0
176
     0
290
     0
176
     0
 90
        1
176
     0
 40
0.0
176
     0
 90
        0
176
     0
290
     0
176
     0
290
     1
176
     0
290
     1
176
     0
290
     0
176
     0
290
     0
176
     0
290
     0
176
     0
290
     0
176
     0
290
     0
176
     0
290
     0
176
     0
 90
       50
176
     0
 40
0.0
176
     0
 40
1.0
176
     0
 90
        0
176
     0
 62
    18
420
        0
176
     0
 90
       50
176
     0
 90
        3
176
     0
 62
     5
420
      255
176
     0
290
     0
176
     0
 90
       50
176
     0
 90
       50
176
     0
 90
       50
176
     0
290
     0
176
     0
 90
       50
176
     0
 62
   256
176
     0
 40
1.0
176
     0
 90
        2
176
     0
  1
strokes_ogs.tif
176
     0
290
     0
176
     0
 40
1.0
176
     0
 40
1.0
176
     0
  0
VISUALSTYLE
  5
38
102
{ACAD_REACTORS
330
2A
102
}
330
2A
100
AcDbVisualStyle
  2
Linepattern
 70
    14
177
     3
291
     1
 70
    58
 90
        2
176
     1
 90
        2
176
     1
 90
        0
176
     1
 90
        0
176
     1
 40
0.6
176
     1
 40
30.0
176
     1
 62
     7
420
 16777215
176
     1
 90
        1
176
     1
 90
        4
176
     1
 62
     7
176
     1
 62
   257
176
     1
 90
        7
176
     1
 90
        7
176
     1
 40
1.0
176
     1
 90
        8
176
     1
 62
     7
176
     1
 40
1.0
176
     1
 90
        1
176
     1
 90
        6
176
     1
 90
        2
176
     1
 62
     7
176
     1
 90
        5
176
     1
 90
        0
176
     1
 90
        0
176
     1
290
     0
176
     1
 90
        1
176
     1
 40
0.0
176
     1
 90
        0
176
     1
290
     0
176
     1
290
     1
176
     1
290
     1
176
     1
290
     0
176
     1
290
     0
176
     1
290
     0
176
     1
290
     0
176
     1
290
     0
176
     1
290
     0
176
     1
 90
       50
176
     1
 40
0.0
176
     1
 40
1.0
176
     1
 90
        0
176
     1
 62
    18
420
        0
176
     1
 90
       50
176
     1
 90
        3
176
     1
 62
     5
420
      255
176
     1
290
     0
176
     1
 90
       50
176
     1
 90
       50
176
     1
 90
       50
176
     1
290
     0
176
     1
 90
       50
176
     1
 62
   256
176
     0
 40
1.0
176
     0
 90
        2
176
     1
  1
strokes_ogs.tif
176
     1
290
     0
176
     1
 40
1.0
176
     1
 40
1.0
176
     1
  0
VISUALSTYLE
  5
3C
102
{ACAD_REACTORS
330
2A
102
}
330
2A
100
AcDbVisualStyle
  2
OverhangOff
 70
    21
177
     3
291
     1
 70
    58
 90
        2
176
     0
 90
        2
176
     0
 90
        0
176
     0
 90
        0
176
     0
 40
0.6
176
     0
 40
30.0
176
     0
 62
     7
420
 16777215
176
     0
 90
        1
176
     0
 90
        4
176
     0
 62
     7
176
     0
 62
   257
176
     0
 90
        1
176
     0
 90
        1
176
     0
 40
1.0
176
     0
 90
        9
176
     2
 62
     7
176
     0
 40
1.0
176
     0
 90
        1
176
     0
 90
        6
176
     0
 90
        2
176
     0
 62
     7
176
     0
 90
        5
176
     0
 90
        0
176
     0
 90
        0
176
     0
290
     0
176
     0
 90
        1
176
     0
 40
0.0
176
     0
 90
        0
176
     0
290
     0
176
     0
290
     1
176
     0
290
     1
176
     0
290
     0
176
     0
290
     0
176
     0
290
     0
176
     0
290
     0
176
     0
290
     0
176
     0
290
     0
176
     0
 90
       50
176
     0
 40
0.0
176
     0
 40
1.0
176
     0
 90
        0
176
     0
 62
    18
420
        0
176
     0
 90
       50
176
     0
 90
        3
176
     0
 62
     5
420
      255
176
     0
290
     0
176
     0
 90
       50
176
     0
 90
       50
176
     0
 90
       50
176
     0
290
     0
176
     0
 90
       50
176
     0
 62
   256
176
     0
 40
1.0
176
     0
 90
        2
176
     0
  1
strokes_ogs.tif
176
     0
290
     0
176
     0
 40
1.0
176
     0
 40
1.0
176
     0
  0
VISUALSTYLE
  5
33
102
{ACAD_REACTORS
330
2A
102
}
330
2A
100
AcDbVisualStyle
  2
Realistic
 70
     8
177
     3
291
     0
 70
    58
 90
        2
176
     1
 90
        3
176
     1
 90
        0
176
     1
 90
        2
176
     1
 40
0.6
176
     1
 40
30.0
176
     1
 62
     7
420
 16777215
176
     1
 90
        0
176
     1
 90
        0
176
     1
 62
     7
176
     1
 62
   257
176
     1
 90
        1
176
     1
 90
        1
176
     1
 40
1.0
176
     1
 90
        8
176
     1
 62
   257
176
     1
 40
1.0
176
     1
 90
        1
176
     1
 90
        6
176
     1
 90
        2
176
     1
 62
     7
176
     1
 90
        3
176
     1
 90
        0
176
     1
 90
        0
176
     1
290
     0
176
     1
 90
       13
176
     1
 40
0.0
176
     1
 90
        0
176
     1
290
     0
176
     1
290
     1
176
     1
290
     1
176
     1
290
     0
176
     1
290
     0
176
     1
290
     0
176
     1
290
     0
176
     1
290
     0
176
     1
290
     0
176
     1
 90
       50
176
     1
 40
0.0
176
     1
 40
1.0
176
     1
 90
        0
176
     1
 62
    18
420
        0
176
     1
 90
       50
176
     1
 90
        3
176
     1
 62
     5
420
      255
176
     1
290
     0
176
     1
 90
       50
176
     1
 90
       50
176
     1
 90
       50
176
     1
290
     0
176
     1
 90
       50
176
     1
 62
   256
176
     0
 40
1.0
176
     0
 90
        2
176
     1
  1
strokes_ogs.tif
176
     1
290
     0
176
     1
 40
1.0
176
     1
 40
1.0
176
     1
  0
VISUALSTYLE
  5
42
102
{ACAD_REACTORS
330
2A
102
}
330
2A
100
AcDbVisualStyle
  2
Shaded
 70
    27
177
     3
291
     0
 70
    58
 90
        2
176
     1
 90
        2
176
     1
 90
        1
176
     1
 90
        2
176
     1
 40
0.6
176
     1
 40
30.0
176
     1
 62
     7
420
 16777215
176
     1
 90
        0
176
     1
 90
        4
176
     1
 62
     7
176
     1
 62
   257
176
     1
 90
        1
176
     1
 90
        1
176
     1
 40
1.0
176
     1
 90
        8
176
     1
 62
   257
176
     1
 40
1.0
176
     1
 90
        1
176
     1
 90
        6
176
     1
 90
        2
176
     1
 62
     8
420
  7895160
176
     1
 90
        3
176
     1
 90
        0
176
     1
 90
        0
176
     1
290
     0
176
     1
 90
        5
176
     1
 40
0.0
176
     1
 90
        0
176
     1
290
     0
176
     1
290
     1
176
     1
290
     1
176
     1
290
     0
176
     1
290
     0
176
     1
290
     0
176
     1
290
     0
176
     1
290
     0
176
     1
290
     0
176
     1
 90
       50
176
     1
 40
0.0
176
     1
 40
1.0
176
     1
 90
        0
176
     1
 62
    18
420
        0
176
     1
 90
       50
176
     1
 90
        3
176
     1
 62
     5
420
      255
176
     1
290
     0
176
     1
 90
       50
176
     1
 90
       50
176
     1
 90
       50
176
     1
290
     0
176
     1
 90
       50
176
     1
 62
   256
176
     0
 40
1.0
176
     0
 90
        2
176
     1
  1
strokes_ogs.tif
176
     1
290
     0
176
     1
 40
1.0
176
     1
 40
1.0
176
     1
  0
VISUALSTYLE
  5
41
102
{ACAD_REACTORS
330
2A
102
}
330
2A
100
AcDbVisualStyle
  2
Shaded with edges
 70
    26
177
     3
291
     0
 70
    58
 90
        2
176
     1
 90
        2
176
     1
 90
        1
176
     1
 90
        2
176
     1
 40
0.6
176
     1
 40
30.0
176
     1
 62
     7
420
 16777215
176
     1
 90
        1
176
     1
 90
       10
176
     1
 62
     7
176
     1
 62
   257
176
     1
 90
        2
176
     1
 90
        1
176
     1
 40
1.0
176
     1
 90
        8
176
     1
 62
   257
176
     1
 40
1.0
176
     1
 90
        1
176
     1
 90
        6
176
     1
 90
        2
176
     1
 62
     7
176
     1
 90
        3
176
     1
 90
        0
176
     1
 90
        0
176
     1
290
     0
176
     1
 90
        5
176
     1
 40
0.0
176
     1
 90
        0
176
     1
290
     0
176
     1
290
     1
176
     1
290
     1
176
     1
290
     0
176
     1
290
     0
176
     1
290
     0
176
     1
290
     0
176
     1
290
     0
176
     1
290
     0
176
     1
 90
       50
176
     1
 40
0.0
176
     1
 40
1.0
176
     1
 90
        0
176
     1
 62
    18
420
        0
176
     1
 90
       50
176
     1
 90
        3
176
     1
 62
     5
420
      255
176
     1
290
     0
176
     1
 90
       50
176
     1
 90
       50
176
     1
 90
       50
176
     1
290
     0
176
     1
 90
       50
176
     1
 62
   256
176
     0
 40
1.0
176
     0
 90
        2
176
     1
  1
strokes_ogs.tif
176
     1
290
     0
176
     1
 40
1.0
176
     1
 40
1.0
176
     1
  0
VISUALSTYLE
  5
3E
102
{ACAD_REACTORS
330
2A
102
}
330
2A
100
AcDbVisualStyle
  2
Shades of Gray
 70
    23
177
     3
291
     0
 70
    58
 90
        2
176
     1
 90
        2
176
     1
 90
        3
176
     1
 90
        0
176
     1
 40
0.6
176
     1
 40
30.0
176
     1
 62
     7
420
 16777215
176
     1
 90
        2
176
     1
 90
        2
176
     1
 62
     7
176
     1
 62
     7
176
     1
 90
        1
176
     1
 90
        1
176
     1
 40
40.0
176
     1
 90
        8
176
     1
 62
     7
176
     1
 40
1.0
176
     1
 90
        1
176
     1
 90
        6
176
     1
 90
        2
176
     1
 62
     7
176
     1
 90
        3
176
     1
 90
        0
176
     1
 90
        0
176
     1
290
     0
176
     1
 90
        1
176
     1
 40
0.0
176
     1
 90
        0
176
     1
290
     0
176
     1
290
     1
176
     1
290
     1
176
     1
290
     0
176
     1
290
     0
176
     1
290
     0
176
     1
290
     0
176
     1
290
     0
176
     1
290
     0
176
     1
 90
       50
176
     1
 40
0.0
176
     1
 40
1.0
176
     1
 90
        0
176
     1
 62
    18
420
        0
176
     1
 90
       50
176
     1
 90
        3
176
     1
 62
     5
420
      255
176
     1
290
     0
176
     1
 90
       50
176
     1
 90
       50
176
     1
 90
       50
176
     1
290
     0
176
     1
 90
       50
176
     1
 62
   256
176
     0
 40
1.0
176
     0
 90
        2
176
     1
  1
strokes_ogs.tif
176
     1
290
     0
176
     1
 40
1.0
176
     1
 40
1.0
176
     1
  0
VISUALSTYLE
  5
3F
102
{ACAD_REACTORS
330
2A
102
}
330
2A
100
AcDbVisualStyle
  2
Sketchy
 70
    24
177
     3
291
     0
 70
    58
 90
        1
176
     1
 90
        2
176
     1
 90
        2
176
     1
 90
        0
176
     1
 40
0.6
176
     1
 40
30.0
176
     1
 62
     7
420
 16777215
176
     1
 90
        2
176
     1
 90
        2
176
     1
 62
     7
176
     1
 62
     7
176
     1
 90
        1
176
     1
 90
        1
176
     1
 40
40.0
176
     1
 90
       11
176
     1
 62
     7
176
     1
 40
1.0
176
     1
 90
        1
176
     1
 90
        6
176
     1
 90
        2
176
     1
 62
     7
176
     1
 90
        6
176
     1
 90
        0
176
     1
 90
        0
176
     1
290
     0
176
     1
 90
        1
176
     1
 40
0.0
176
     1
 90
        0
176
     1
290
     0
176
     1
290
     1
176
     1
290
     1
176
     1
290
     0
176
     1
290
     0
176
     1
290
     0
176
     1
290
     0
176
     1
290
     0
176
     1
290
     0
176
     1
 90
       50
176
     1
 40
0.0
176
     1
 40
1.0
176
     1
 90
        0
176
     1
 62
    18
420
        0
176
     1
 90
       50
176
     1
 90
        3
176
     1
 62
     5
420
      255
176
     1
290
     0
176
     1
 90
       50
176
     1
 90
       50
176
     1
 90
       50
176
     1
290
     0
176
     1
 90
       50
176
     1
 62
   256
176
     0
 40
1.0
176
     0
 90
        2
176
     1
  1
strokes_ogs.tif
176
     1
290
     0
176
     1
 40
1.0
176
     1
 40
1.0
176
     1
  0
VISUALSTYLE
  5
37
102
{ACAD_REACTORS
330
2A
102
}
330
2A
100
AcDbVisualStyle
  2
Thicken
 70
    13
177
     3
291
     1
 70
    58
 90
        2
176
     1
 90
        2
176
     1
 90
        0
176
     1
 90
        0
176
     1
 40
0.6
176
     1
 40
30.0
176
     1
 62
     7
420
 16777215
176
     1
 90
        1
176
     1
 90
        4
176
     1
 62
     7
176
     1
 62
   257
176
     1
 90
        1
176
     1
 90
        1
176
     1
 40
1.0
176
     1
 90
       12
176
     1
 62
     7
176
     1
 40
1.0
176
     1
 90
        1
176
     1
 90
        6
176
     1
 90
        2
176
     1
 62
     7
176
     1
 90
        5
176
     1
 90
        0
176
     1
 90
        0
176
     1
290
     0
176
     1
 90
        1
176
     1
 40
0.0
176
     1
 90
        0
176
     1
290
     0
176
     1
290
     1
176
     1
290
     1
176
     1
290
     0
176
     1
290
     0
176
     1
290
     0
176
     1
290
     0
176
     1
290
     0
176
     1
290
     0
176
     1
 90
       50
176
     1
 40
0.0
176
     1
 40
1.0
176
     1
 90
        0
176
     1
 62
    18
420
        0
176
     1
 90
       50
176
     1
 90
        3
176
     1
 62
     5
420
      255
176
     1
290
     0
176
     1
 90
       50
176
     1
 90
       50
176
     1
 90
       50
176
     1
290
     0
176
     1
 90
       50
176
     1
 62
   256
176
     0
 40
1.0
176
     0
 90
        2
176
     1
  1
strokes_ogs.tif
176
     1
290
     0
176
     1
 40
1.0
176
     1
 40
1.0
176
     1
  0
VISUALSTYLE
  5
30
102
{ACAD_REACTORS
330
2A
102
}
330
2A
100
AcDbVisualStyle
  2
Wireframe
 70
     5
177
     3
291
     0
 70
    58
 90
        0
176
     1
 90
        2
176
     1
 90
        0
176
     1
 90
        0
176
     1
 40
0.6
176
     1
 40
30.0
176
     1
 62
     7
420
 16777215
176
     1
 90
        1
176
     1
 90
        4
176
     1
 62
     7
176
     1
 62
   257
176
     1
 90
        1
176
     1
 90
        1
176
     1
 40
1.0
176
     1
 90
        0
176
     1
 62
   257
176
     1
 40
1.0
176
     1
 90
        1
176
     1
 90
        6
176
     1
 90
        2
176
     1
 62
     7
176
     1
 90
        3
176
     1
 90
        0
176
     1
 90
        0
176
     1
290
     0
176
     1
 90
        1
176
     1
 40
0.0
176
     1
 90
        0
176
     1
290
     0
176
     1
290
     1
176
     1
290
     1
176
     1
290
     0
176
     1
290
     0
176
     1
290
     0
176
     1
290
     0
176
     1
290
     0
176
     1
290
     0
176
     1
 90
       50
176
     1
 40
0.0
176
     1
 40
1.0
176
     1
 90
        0
176
     1
 62
    18
420
        0
176
     1
 90
       50
176
     1
 90
        3
176
     1
 62
     5
420
      255
176
     1
290
     0
176
     1
 90
       50
176
     1
 90
       50
176
     1
 90
       50
176
     1
290
     0
176
     1
 90
       50
176
     1
 62
   256
176
     0
 40
1.0
176
     0
 90
        2
176
     1
  1
strokes_ogs.tif
176
     1
290
     0
176
     1
 40
1.0
176
     1
 40
1.0
176
     1
  0
VISUALSTYLE
  5
40
102
{ACAD_REACTORS
330
2A
102
}
330
2A
100
AcDbVisualStyle
  2
X-Ray
 70
    25
177
     3
291
     0
 70
    58
 90
        2
176
     1
 90
        2
176
     1
 90
        1
176
     1
 90
        1
176
     1
 40
0.5
176
     1
 40
30.0
176
     1
 62
     7
420
 16777215
176
     1
 90
        1
176
     1
 90
        0
176
     1
 62
     7
176
     1
 62
   257
176
     1
 90
        1
176
     1
 90
        1
176
     1
 40
1.0
176
     1
 90
        8
176
     1
 62
     7
176
     1
 40
1.0
176
     1
 90
        1
176
     1
 90
        6
176
     1
 90
        2
176
     1
 62
     7
176
     1
 90
        3
176
     1
 90
        0
176
     1
 90
        0
176
     1
290
     0
176
     1
 90
       13
176
     1
 40
0.0
176
     1
 90
        0
176
     1
290
     0
176
     1
290
     1
176
     1
290
     1
176
     1
290
     0
176
     1
290
     0
176
     1
290
     0
176
     1
290
     0
176
     1
290
     0
176
     1
290
     0
176
     1
 90
       50
176
     1
 40
0.0
176
     1
 40
1.0
176
     1
 90
        0
176
     1
 62
    18
420
        0
176
     1
 90
       50
176
     1
 90
        3
176
     1
 62
     5
420
      255
176
     1
290
     0
176
     1
 90
       50
176
     1
 90
       50
176
     1
 90
       50
176
     1
290
     0
176
     1
 90
       50
176
     1
 62
   256
176
     0
 40
1.0
176
     0
 90
        2
176
     1
  1
strokes_ogs.tif
176
     1
290
     0
176
     1
 40
1.0
176
     1
 40
1.0
176
     1
  0
DICTIONARYVAR
  5
104
102
{ACAD_REACTORS
330
103
102
}
330
103
100
DictionaryVariables
280
     0
  1
1:1
  0
DICTIONARYVAR
  5
10C
102
{ACAD_REACTORS
330
103
102
}
330
103
100
DictionaryVariables
280
     0
  1
3.500000
  0
DICTIONARYVAR
  5
10D
102
{ACAD_REACTORS
330
103
102
}
330
103
100
DictionaryVariables
280
     0
  1
acadiso.lin
  0
DICTIONARYVAR
  5
109
102
{ACAD_REACTORS
330
103
102
}
330
103
100
DictionaryVariables
280
     0
  1
Standard
  0
DICTIONARYVAR
  5
108
102
{ACAD_REACTORS
330
103
102
}
330
103
100
DictionaryVariables
280
     0
  1
Standard
  0
DICTIONARY
  5
105
330
5A
100
AcDbDictionary
280
     1
281
     1
  3
ACAD_ROUNDTRIP_2008_TABLESTYLE_CELLSTYLEMAP
360
106
  0
CELLSTYLEMAP
  5
106
102
{ACAD_REACTORS
330
105
102
}
330
105
100
AcDbCellStyleMap
 90
        3
300
CELLSTYLE
  1
TABLEFORMAT_BEGIN
 90
        5
170
     1
 91
        0
 92
    32768
 62
   257
 93
        1
300
CONTENTFORMAT
  1
CONTENTFORMAT_BEGIN
 90
        0
 91
        0
 92
        4
 93
        0
300

 40
0.0
140
1.0
 94
        5
 62
     0
340
11
144
6.0
309
CONTENTFORMAT_END
171
     1
301
MARGIN
  1
CELLMARGIN_BEGIN
 40
1.5
 40
1.5
 40
1.5
 40
1.5
 40
1.5
 40
1.5
309
CELLMARGIN_END
 94
        6
 95
        1
302
GRIDFORMAT
  1
GRIDFORMAT_BEGIN
 90
        0
 91
        1
 62
     0
 92
       -2
340
14
 93
        0
 40
0.045
309
GRIDFORMAT_END
 95
        2
302
GRIDFORMAT
  1
GRIDFORMAT_BEGIN
 90
        0
 91
        1
 62
     0
 92
       -2
340
14
 93
        0
 40
0.045
309
GRIDFORMAT_END
 95
        4
302
GRIDFORMAT
  1
GRIDFORMAT_BEGIN
 90
        0
 91
        1
 62
     0
 92
       -2
340
14
 93
        0
 40
0.045
309
GRIDFORMAT_END
 95
        8
302
GRIDFORMAT
  1
GRIDFORMAT_BEGIN
 90
        0
 91
        1
 62
     0
 92
       -2
340
14
 93
        0
 40
0.045
309
GRIDFORMAT_END
 95
       16
302
GRIDFORMAT
  1
GRIDFORMAT_BEGIN
 90
        0
 91
        1
 62
     0
 92
       -2
340
14
 93
        0
 40
0.045
309
GRIDFORMAT_END
 95
       32
302
GRIDFORMAT
  1
GRIDFORMAT_BEGIN
 90
        0
 91
        1
 62
     0
 92
       -2
340
14
 93
        0
 40
0.045
309
GRIDFORMAT_END
309
TABLEFORMAT_END
  1
CELLSTYLE_BEGIN
 90
        1
 91
        1
300
_TITLE
309
CELLSTYLE_END
300
CELLSTYLE
  1
TABLEFORMAT_BEGIN
 90
        5
170
     1
 91
        0
 92
        0
 62
   257
 93
        1
300
CONTENTFORMAT
  1
CONTENTFORMAT_BEGIN
 90
        0
 91
        0
 92
        4
 93
        0
300

 40
0.0
140
1.0
 94
        5
 62
     0
340
11
144
4.5
309
CONTENTFORMAT_END
171
     1
301
MARGIN
  1
CELLMARGIN_BEGIN
 40
1.5
 40
1.5
 40
1.5
 40
1.5
 40
1.5
 40
1.5
309
CELLMARGIN_END
 94
        6
 95
        1
302
GRIDFORMAT
  1
GRIDFORMAT_BEGIN
 90
        0
 91
        1
 62
     0
 92
       -2
340
14
 93
        0
 40
0.045
309
GRIDFORMAT_END
 95
        2
302
GRIDFORMAT
  1
GRIDFORMAT_BEGIN
 90
        0
 91
        1
 62
     0
 92
       -2
340
14
 93
        0
 40
0.045
309
GRIDFORMAT_END
 95
        4
302
GRIDFORMAT
  1
GRIDFORMAT_BEGIN
 90
        0
 91
        1
 62
     0
 92
       -2
340
14
 93
        0
 40
0.045
309
GRIDFORMAT_END
 95
        8
302
GRIDFORMAT
  1
GRIDFORMAT_BEGIN
 90
        0
 91
        1
 62
     0
 92
       -2
340
14
 93
        0
 40
0.045
309
GRIDFORMAT_END
 95
       16
302
GRIDFORMAT
  1
GRIDFORMAT_BEGIN
 90
        0
 91
        1
 62
     0
 92
       -2
340
14
 93
        0
 40
0.045
309
GRIDFORMAT_END
 95
       32
302
GRIDFORMAT
  1
GRIDFORMAT_BEGIN
 90
        0
 91
        1
 62
     0
 92
       -2
340
14
 93
        0
 40
0.045
309
GRIDFORMAT_END
309
TABLEFORMAT_END
  1
CELLSTYLE_BEGIN
 90
        2
 91
        1
300
_HEADER
309
CELLSTYLE_END
300
CELLSTYLE
  1
TABLEFORMAT_BEGIN
 90
        5
170
     1
 91
        0
 92
        0
 62
   257
 93
        1
300
CONTENTFORMAT
  1
CONTENTFORMAT_BEGIN
 90
        0
 91
        0
 92
        4
 93
        0
300

 40
0.0
140
1.0
 94
        2
 62
     0
340
11
144
4.5
309
CONTENTFORMAT_END
171
     1
301
MARGIN
  1
CELLMARGIN_BEGIN
 40
1.5
 40
1.5
 40
1.5
 40
1.5
 40
1.5
 40
1.5
309
CELLMARGIN_END
 94
        6
 95
        1
302
GRIDFORMAT
  1
GRIDFORMAT_BEGIN
 90
        0
 91
        1
 62
     0
 92
       -2
340
14
 93
        0
 40
0.045
309
GRIDFORMAT_END
 95
        2
302
GRIDFORMAT
  1
GRIDFORMAT_BEGIN
 90
        0
 91
        1
 62
     0
 92
       -2
340
14
 93
        0
 40
0.045
309
GRIDFORMAT_END
 95
        4
302
GRIDFORMAT
  1
GRIDFORMAT_BEGIN
 90
        0
 91
        1
 62
     0
 92
       -2
340
14
 93
        0
 40
0.045
309
GRIDFORMAT_END
 95
        8
302
GRIDFORMAT
  1
GRIDFORMAT_BEGIN
 90
        0
 91
        1
 62
     0
 92
       -2
340
14
 93
        0
 40
0.045
309
GRIDFORMAT_END
 95
       16
302
GRIDFORMAT
  1
GRIDFORMAT_BEGIN
 90
        0
 91
        1
 62
     0
 92
       -2
340
14
 93
        0
 40
0.045
309
GRIDFORMAT_END
 95
       32
302
GRIDFORMAT
  1
GRIDFORMAT_BEGIN
 90
        0
 91
        1
 62
     0
 92
       -2
340
14
 93
        0
 40
0.045
309
GRIDFORMAT_END
309
TABLEFORMAT_END
  1
CELLSTYLE_BEGIN
 90
        3
 91
        2
300
_DATA
309
CELLSTYLE_END
  0
ENDSEC
  0
EOF
