  0
SECTION
  2
HEADER
  9
$ACADVER
  1
AC1027
  9
$ACADMAINTVER
 70
   105
  9
$DWGCODEPAGE
  3
ANSI_1252
  9
$LASTSAVEDBY
  1
Nick
  9
$REQUIREDVERSIONS
160
                 0
  9
$INSBASE
 10
0.0
 20
0.0
 30
0.0
  9
$EXTMIN
 10
0.0
 20
0.0
 30
0.0
  9
$EXTMAX
 10
420.0
 20
297.0
 30
0.0
  9
$LIMMIN
 10
0.0
 20
0.0
  9
$LIMMAX
 10
420.0
 20
297.0
  9
$ORTHOMODE
 70
     0
  9
$REGENMODE
 70
     1
  9
$FILLMODE
 70
     1
  9
$QTEXTMODE
 70
     0
  9
$MIRRTEXT
 70
     1
  9
$LTSCALE
 40
1.0
  9
$ATTMODE
 70
     1
  9
$TEXTSIZE
 40
4.2333333333
  9
$TRACEWID
 40
1.0
  9
$TEXTSTYLE
  7
Standard
  9
$CLAYER
  8
0
  9
$CELTYPE
  6
ByLayer
  9
$CECOLOR
 62
   256
  9
$CELTSCALE
 40
1.0
  9
$DISPSILH
 70
     0
  9
$DIMSCALE
 40
1.0
  9
$DIMASZ
 40
3.302
  9
$DIMEXO
 40
1.0
  9
$DIMDLI
 40
3.75
  9
$DIMRND
 40
0.0
  9
$DIMDLE
 40
0.0
  9
$DIMEXE
 40
1.0
  9
$DIMTP
 40
0.0
  9
$DIMTM
 40
0.0
  9
$DIMTXT
 40
4.2333333333
  9
$DIMCEN
 40
2.5
  9
$DIMTSZ
 40
0.0
  9
$DIMTOL
 70
     0
  9
$DIMLIM
 70
     0
  9
$DIMTIH
 70
     1
  9
$DIMTOH
 70
     1
  9
$DIMSE1
 70
     0
  9
$DIMSE2
 70
     0
  9
$DIMTAD
 70
     1
  9
$DIMZIN
 70
     1
  9
$DIMBLK
  1

  9
$DIMASO
 70
     1
  9
$DIMSHO
 70
     1
  9
$DIMPOST
  1

  9
$DIMAPOST
  1

  9
$DIMALT
 70
     0
  9
$DIMALTD
 70
     3
  9
$DIMALTF
 40
0.0393700787
  9
$DIMLFAC
 40
1.0
  9
$DIMTOFL
 70
     1
  9
$DIMTVP
 40
0.0
  9
$DIMTIX
 70
     0
  9
$DIMSOXD
 70
     0
  9
$DIMSAH
 70
     0
  9
$DIMBLK1
  1

  9
$DIMBLK2
  1

  9
$DIMSTYLE
  2
ISO-25
  9
$DIMCLRD
 70
     0
  9
$DIMCLRE
 70
     0
  9
$DIMCLRT
 70
     0
  9
$DIMTFAC
 40
1.0
  9
$DIMGAP
 40
1.524
  9
$DIMJUST
 70
     0
  9
$DIMSD1
 70
     0
  9
$DIMSD2
 70
     0
  9
$DIMTOLJ
 70
     0
  9
$DIMTZIN
 70
     1
  9
$DIMALTZ
 70
     0
  9
$DIMALTTZ
 70
     0
  9
$DIMUPT
 70
     0
  9
$DIMDEC
 70
     0
  9
$DIMTDEC
 70
     0
  9
$DIMALTU
 70
     2
  9
$DIMALTTD
 70
     3
  9
$DIMTXSTY
  7
Standard
  9
$DIMAUNIT
 70
     0
  9
$DIMADEC
 70
     2
  9
$DIMALTRND
 40
0.0
  9
$DIMAZIN
 70
     0
  9
$DIMDSEP
 70
    44
  9
$DIMATFIT
 70
     3
  9
$DIMFRAC
 70
     0
  9
$DIMLDRBLK
  1

  9
$DIMLUNIT
 70
     2
  9
$DIMLWD
 70
    -2
  9
$DIMLWE
 70
    -2
  9
$DIMTMOVE
 70
     0
  9
$DIMFXL
 40
1.0
  9
$DIMFXLON
 70
     0
  9
$DIMJOGANG
 40
0.7853981634
  9
$DIMTFILL
 70
     0
  9
$DIMTFILLCLR
 70
     0
  9
$DIMARCSYM
 70
     0
  9
$DIMLTYPE
  6

  9
$DIMLTEX1
  6

  9
$DIMLTEX2
  6

  9
$DIMTXTDIRECTION
 70
     0
  9
$LUNITS
 70
     2
  9
$LUPREC
 70
     0
  9
$SKETCHINC
 40
1.0
  9
$FILLETRAD
 40
0.0
  9
$AUNITS
 70
     0
  9
$AUPREC
 70
     2
  9
$MENU
  1
.
  9
$ELEVATION
 40
0.0
  9
$PELEVATION
 40
0.0
  9
$THICKNESS
 40
0.0
  9
$LIMCHECK
 70
     0
  9
$CHAMFERA
 40
0.0
  9
$CHAMFERB
 40
0.0
  9
$CHAMFERC
 40
0.0
  9
$CHAMFERD
 40
0.0
  9
$SKPOLY
 70
     0
  9
$TDCREATE
 40
2460934.552915961
  9
$TDUCREATE
 40
2460934.136249294
  9
$TDUPDATE
 40
2460934.552916227
  9
$TDUUPDATE
 40
2460934.136249561
  9
$TDINDWG
 40
0.0000000116
  9
$TDUSRTIMER
 40
0.0000000116
  9
$USRTIMER
 70
     1
  9
$ANGBASE
 50
0.0
  9
$ANGDIR
 70
     0
  9
$PDMODE
 70
     0
  9
$PDSIZE
 40
-1.0
  9
$PLINEWID
 40
0.0
  9
$SPLFRAME
 70
     0
  9
$SPLINETYPE
 70
     6
  9
$SPLINESEGS
 70
     8
  9
$HANDSEED
  5
11D
  9
$SURFTAB1
 70
     6
  9
$SURFTAB2
 70
     6
  9
$SURFTYPE
 70
     6
  9
$SURFU
 70
     6
  9
$SURFV
 70
     6
  9
$UCSBASE
  2

  9
$UCSNAME
  2

  9
$UCSORG
 10
0.0
 20
0.0
 30
0.0
  9
$UCSXDIR
 10
1.0
 20
0.0
 30
0.0
  9
$UCSYDIR
 10
0.0
 20
1.0
 30
0.0
  9
$UCSORTHOREF
  2

  9
$UCSORTHOVIEW
 70
     0
  9
$UCSORGTOP
 10
0.0
 20
0.0
 30
0.0
  9
$UCSORGBOTTOM
 10
0.0
 20
0.0
 30
0.0
  9
$UCSORGLEFT
 10
0.0
 20
0.0
 30
0.0
  9
$UCSORGRIGHT
 10
0.0
 20
0.0
 30
0.0
  9
$UCSORGFRONT
 10
0.0
 20
0.0
 30
0.0
  9
$UCSORGBACK
 10
0.0
 20
0.0
 30
0.0
  9
$PUCSBASE
  2

  9
$PUCSNAME
  2

  9
$PUCSORG
 10
0.0
 20
0.0
 30
0.0
  9
$PUCSXDIR
 10
1.0
 20
0.0
 30
0.0
  9
$PUCSYDIR
 10
0.0
 20
1.0
 30
0.0
  9
$PUCSORTHOREF
  2

  9
$PUCSORTHOVIEW
 70
     0
  9
$PUCSORGTOP
 10
0.0
 20
0.0
 30
0.0
  9
$PUCSORGBOTTOM
 10
0.0
 20
0.0
 30
0.0
  9
$PUCSORGLEFT
 10
0.0
 20
0.0
 30
0.0
  9
$PUCSORGRIGHT
 10
0.0
 20
0.0
 30
0.0
  9
$PUCSORGFRONT
 10
0.0
 20
0.0
 30
0.0
  9
$PUCSORGBACK
 10
0.0
 20
0.0
 30
0.0
  9
$USERI1
 70
     0
  9
$USERI2
 70
     0
  9
$USERI3
 70
     0
  9
$USERI4
 70
     0
  9
$USERI5
 70
     0
  9
$USERR1
 40
0.0
  9
$USERR2
 40
0.0
  9
$USERR3
 40
0.0
  9
$USERR4
 40
0.0
  9
$USERR5
 40
0.0
  9
$WORLDVIEW
 70
     1
  9
$SHADEDGE
 70
     3
  9
$SHADEDIF
 70
    70
  9
$TILEMODE
 70
     1
  9
$MAXACTVP
 70
    64
  9
$PINSBASE
 10
0.0
 20
0.0
 30
0.0
  9
$PLIMCHECK
 70
     0
  9
$PEXTMIN
 10
1.0000000000E+20
 20
1.0000000000E+20
 30
1.0000000000E+20
  9
$PEXTMAX
 10
-1.0000000000E+20
 20
-1.0000000000E+20
 30
-1.0000000000E+20
  9
$PLIMMIN
 10
0.0
 20
0.0
  9
$PLIMMAX
 10
420.0
 20
297.0
  9
$UNITMODE
 70
     0
  9
$VISRETAIN
 70
     1
  9
$PLINEGEN
 70
     0
  9
$PSLTSCALE
 70
     1
  9
$TREEDEPTH
 70
  3020
  9
$CMLSTYLE
  2
Standard
  9
$CMLJUST
 70
     0
  9
$CMLSCALE
 40
20.0
  9
$PROXYGRAPHICS
 70
     1
  9
$MEASUREMENT
 70
     1
  9
$CELWEIGHT
370
    -1
  9
$ENDCAPS
280
     0
  9
$JOINSTYLE
280
     0
  9
$LWDISPLAY
290
     1
  9
$INSUNITS
 70
     4
  9
$HYPERLINKBASE
  1

  9
$STYLESHEET
  1

  9
$XEDIT
290
     1
  9
$CEPSNTYPE
380
     0
  9
$PSTYLEMODE
290
     1
  9
$FINGERPRINTGUID
  2
{09bffaab-855f-49ac-a99c-46aad22c178c}
  9
$VERSIONGUID
  2
{FAEB1C32-E019-11D5-929B-00C0DF256EC4}
  9
$EXTNAMES
290
     1
  9
$PSVPSCALE
 40
0.0
  9
$OLESTARTUP
290
     0
  9
$SORTENTS
280
   127
  9
$INDEXCTL
280
     0
  9
$HIDETEXT
280
     1
  9
$XCLIPFRAME
280
     2
  9
$HALOGAP
280
     0
  9
$OBSCOLOR
 70
   257
  9
$OBSLTYPE
280
     0
  9
$INTERSECTIONDISPLAY
280
     0
  9
$INTERSECTIONCOLOR
 70
   257
  9
$DIMASSOC
280
     2
  9
$PROJECTNAME
  1

  9
$CAMERADISPLAY
290
     0
  9
$LENSLENGTH
 40
50.0
  9
$CAMERAHEIGHT
 40
0.0
  9
$STEPSPERSEC
 40
2.0
  9
$STEPSIZE
 40
6.0
  9
$3DDWFPREC
 40
2.0
  9
$PSOLWIDTH
 40
5.0
  9
$PSOLHEIGHT
 40
80.0
  9
$LOFTANG1
 40
1.5707963268
  9
$LOFTANG2
 40
1.5707963268
  9
$LOFTMAG1
 40
0.0
  9
$LOFTMAG2
 40
0.0
  9
$LOFTPARAM
 70
     7
  9
$LOFTNORMALS
280
     1
  9
$LATITUDE
 40
37.795
  9
$LONGITUDE
 40
-122.394
  9
$NORTHDIRECTION
 40
0.0
  9
$TIMEZONE
 70
 -8000
  9
$LIGHTGLYPHDISPLAY
280
     1
  9
$TILEMODELIGHTSYNCH
280
     1
  9
$CMATERIAL
347
44
  9
$SOLIDHIST
280
     0
  9
$SHOWHIST
280
     1
  9
$DWFFRAME
280
     2
  9
$DGNFRAME
280
     2
  9
$REALWORLDSCALE
290
     1
  9
$INTERFERECOLOR
 62
   256
  9
$CSHADOW
280
     0
  9
$SHADOWPLANELOCATION
 40
0.0
  0
ENDSEC
  0
SECTION
  2
CLASSES
  0
CLASS
  1
ACDBDICTIONARYWDFLT
  2
AcDbDictionaryWithDefault
  3
ObjectDBX Classes
 90
        0
 91
        3
280
     0
281
     0
  0
CLASS
  1
VISUALSTYLE
  2
AcDbVisualStyle
  3
ObjectDBX Classes
 90
     4095
 91
        3
280
     0
281
     0
  0
CLASS
  1
MATERIAL
  2
AcDbMaterial
  3
ObjectDBX Classes
 90
     1153
 91
        3
280
     0
281
     0
  0
CLASS
  1
SCALE
  2
AcDbScale
  3
ObjectDBX Classes
 90
     1153
 91
        3
280
     0
281
     0
  0
CLASS
  1
TABLESTYLE
  2
AcDbTableStyle
  3
ObjectDBX Classes
 90
     4095
 91
        3
280
     0
281
     0
  0
CLASS
  1
MLEADERSTYLE
  2
AcDbMLeaderStyle
  3
ACDB_MLEADERSTYLE_CLASS
 90
     4095
 91
        3
280
     0
281
     0
  0
CLASS
  1
SUN
  2
AcDbSun
  3
SCENEOE
 90
     1153
 91
        3
280
     0
281
     0
  0
CLASS
  1
DICTIONARYVAR
  2
AcDbDictionaryVar
  3
ObjectDBX Classes
 90
        0
 91
        3
280
     0
281
     0
  0
CLASS
  1
CELLSTYLEMAP
  2
AcDbCellStyleMap
  3
ObjectDBX Classes
 90
     1152
 91
        3
280
     0
281
     0
  0
ENDSEC
  0
SECTION
  2
TABLES
  0
TABLE
  2
VPORT
  5
8
330
0
100
AcDbSymbolTable
 70
     1
  0
VPORT
  5
29
330
8
100
AcDbSymbolTableRecord
100
AcDbViewportTableRecord
  2
*Active
 70
     0
 10
0.0
 20
0.0
 11
1.0
 21
1.0
 12
210.0
 22
148.5
 13
0.0
 23
0.0
 14
10.0
 24
10.0
 15
10.0
 25
10.0
 16
0.0
 26
0.0
 36
1.0
 17
0.0
 27
0.0
 37
0.0
 40
297.0
 41
1.4141414141
 42
50.0
 43
0.0
 44
0.0
 50
0.0
 51
0.0
 71
     0
 72
  2000
 73
     1
 74
     3
 75
     0
 76
     0
 77
     0
 78
     0
281
     0
 65
     1
110
0.0
120
0.0
130
0.0
111
1.0
121
0.0
131
0.0
112
0.0
122
1.0
132
0.0
 79
     0
146
0.0
348
2F
 60
     3
 61
     5
292
     1
282
     1
141
0.0
142
0.0
 63
   250
361
5D
  0
ENDTAB
  0
TABLE
  2
LTYPE
  5
5
330
0
100
AcDbSymbolTable
 70
     6
  0
LTYPE
  5
14
330
5
100
AcDbSymbolTableRecord
100
AcDbLinetypeTableRecord
  2
ByBlock
 70
     0
  3

 72
    65
 73
     0
 40
0.0
  0
LTYPE
  5
15
330
5
100
AcDbSymbolTableRecord
100
AcDbLinetypeTableRecord
  2
ByLayer
 70
     0
  3

 72
    65
 73
     0
 40
0.0
  0
LTYPE
  5
16
330
5
100
AcDbSymbolTableRecord
100
AcDbLinetypeTableRecord
  2
Continuous
 70
     0
  3
Solid line
 72
    65
 73
     0
 40
0.0
  0
LTYPE
  5
5E
330
5
100
AcDbSymbolTableRecord
100
AcDbLinetypeTableRecord
  2
HIDDEN
 70
     0
  3
Hidden __ __ __ __ __ __ __ __ __ __ __ __ __ __
 72
    65
 73
     2
 40
1.905
 49
1.27
 74
     0
 49
-0.635
 74
     0
  0
LTYPE
  5
5F
330
5
100
AcDbSymbolTableRecord
100
AcDbLinetypeTableRecord
  2
PHANTOM
 70
     0
  3
Phantom ______  __  __  ______  __  __  ______
 72
    65
 73
     6
 40
12.7
 49
6.35
 74
     0
 49
-1.27
 74
     0
 49
1.27
 74
     0
 49
-1.27
 74
     0
 49
1.27
 74
     0
 49
-1.27
 74
     0
  0
LTYPE
  5
60
330
5
100
AcDbSymbolTableRecord
100
AcDbLinetypeTableRecord
  2
CENTER
 70
     0
  3
Center ____ _ ____ _ ____ _ ____ _ ____ _ ____
 72
    65
 73
     4
 40
10.16
 49
6.35
 74
     0
 49
-1.27
 74
     0
 49
1.27
 74
     0
 49
-1.27
 74
     0
  0
LTYPE
  5
61
330
5
100
AcDbSymbolTableRecord
100
AcDbLinetypeTableRecord
  2
CENTERX2
 70
     0
  3
Center (2x) ________  __  ________  __  _____
 72
    65
 73
     4
 40
20.32
 49
12.7
 74
     0
 49
-2.54
 74
     0
 49
2.54
 74
     0
 49
-2.54
 74
     0
  0
LTYPE
  5
62
330
5
100
AcDbSymbolTableRecord
100
AcDbLinetypeTableRecord
  2
DOT2
 70
     0
  3
Dot (.5x) ........................................
 72
    65
 73
     2
 40
0.635
 49
0.0
 74
     0
 49
-0.635
 74
     0
  0
ENDTAB
  0
TABLE
  2
LAYER
  5
2
330
0
100
AcDbSymbolTable
 70
    13
  0
LAYER
  5
10
330
2
100
AcDbSymbolTableRecord
100
AcDbLayerTableRecord
  2
0
 70
     0
 62
     7
  6
Continuous
370
    -3
390
F
347
46
348
0
  0
LAYER
  5
63
330
2
100
AcDbSymbolTableRecord
100
AcDbLayerTableRecord
  2
DRAWING-SHEET
 70
     0
 62
   179
  6
Continuous
370
    -3
390
F
347
46
348
0
  0
LAYER
  5
64
330
2
100
AcDbSymbolTableRecord
100
AcDbLayerTableRecord
  2
BORDER
 70
     0
 62
   179
  6
Continuous
370
    -3
390
F
347
46
348
0
  0
LAYER
  5
65
330
2
100
AcDbSymbolTableRecord
100
AcDbLayerTableRecord
  2
DIMENSIONS
 70
     0
 62
     7
  6
Continuous
370
    -3
390
F
347
46
348
0
  0
LAYER
  5
66
330
2
100
AcDbSymbolTableRecord
100
AcDbLayerTableRecord
  2
CENTRE_LINES
 70
     0
 62
     7
  6
Continuous
370
    -3
390
F
347
46
348
0
  0
LAYER
  5
67
330
2
100
AcDbSymbolTableRecord
100
AcDbLayerTableRecord
  2
FORMAT
 70
     0
 62
     7
  6
Continuous
370
    -3
390
F
347
46
348
0
  0
LAYER
  5
68
330
2
100
AcDbSymbolTableRecord
100
AcDbLayerTableRecord
  2
SLD-0
 70
     0
 62
   179
  6
Continuous
370
    -3
390
F
347
46
348
0
  0
LAYER
  5
69
330
2
100
AcDbSymbolTableRecord
100
AcDbLayerTableRecord
  2
OUTLINE
 70
     0
 62
     4
  6
Continuous
370
    -3
390
F
347
46
348
0
  0
LAYER
  5
6A
330
2
100
AcDbSymbolTableRecord
100
AcDbLayerTableRecord
  2
4
 70
     0
 62
     7
  6
Continuous
370
    70
390
F
347
46
348
0
  0
LAYER
  5
6B
330
2
100
AcDbSymbolTableRecord
100
AcDbLayerTableRecord
  2
TEXT25
 70
     0
 62
   179
  6
Continuous
370
    -3
390
F
347
46
348
0
  0
LAYER
  5
6C
330
2
100
AcDbSymbolTableRecord
100
AcDbLayerTableRecord
  2
TEXT35
 70
     0
 62
     7
  6
Continuous
370
    -3
390
F
347
46
348
0
  0
LAYER
  5
6D
330
2
100
AcDbSymbolTableRecord
100
AcDbLayerTableRecord
  2
TEXT5
 70
     0
 62
     7
  6
Continuous
370
    -3
390
F
347
46
348
0
  0
LAYER
  5
6E
330
2
100
AcDbSymbolTableRecord
100
AcDbLayerTableRecord
  2
5
 70
     0
 62
     7
  6
Continuous
370
    35
390
F
347
46
348
0
  0
ENDTAB
  0
TABLE
  2
STYLE
  5
3
330
0
100
AcDbSymbolTable
 70
     3
  0
STYLE
  5
11
330
3
100
AcDbSymbolTableRecord
100
AcDbTextStyleTableRecord
  2
Standard
 70
     0
 40
0.0
 41
1.0
 50
0.0
 71
     0
 42
4.2333333333
  3
txt
  4

  0
STYLE
  5
75
330
3
100
AcDbSymbolTableRecord
100
AcDbTextStyleTableRecord
  2
SLDTEXTSTYLE0
 70
     0
 40
0.0
 41
0.75
 50
0.0
 71
     0
 42
4.2333333333
  3
TXT
  4

  0
STYLE
  5
7B
330
3
100
AcDbSymbolTableRecord
100
AcDbTextStyleTableRecord
  2
SLDTEXTSTYLE1
 70
     0
 40
0.0
 41
0.6
 50
0.0
 71
     0
 42
4.2333333333
  3
TXT
  4

  0
ENDTAB
  0
TABLE
  2
VIEW
  5
6
330
0
100
AcDbSymbolTable
 70
     0
  0
ENDTAB
  0
TABLE
  2
UCS
  5
7
330
0
100
AcDbSymbolTable
 70
     0
  0
ENDTAB
  0
TABLE
  2
APPID
  5
9
330
0
100
AcDbSymbolTable
 70
     1
  0
APPID
  5
12
330
9
100
AcDbSymbolTableRecord
100
AcDbRegAppTableRecord
  2
ACAD
 70
     0
  0
ENDTAB
  0
TABLE
  2
DIMSTYLE
  5
A
330
0
100
AcDbSymbolTable
 70
     1
100
AcDbDimStyleTable
  0
DIMSTYLE
105
27
330
A
100
AcDbSymbolTableRecord
100
AcDbDimStyleTableRecord
  2
ISO-25
 70
     0
 41
2.5
 42
0.625
 43
3.75
 44
1.25
 73
     0
 74
     0
 77
     1
 78
     8
140
2.5
141
2.5
143
0.0393700787
147
0.625
171
     3
172
     1
178
     0
271
     2
272
     2
274
     3
278
    44
283
     0
284
     8
340
11
  0
ENDTAB
  0
TABLE
  2
BLOCK_RECORD
  5
1
330
0
100
AcDbSymbolTable
 70
     6
  0
BLOCK_RECORD
  5
1F
330
1
100
AcDbSymbolTableRecord
100
AcDbBlockTableRecord
  2
*Model_Space
340
22
 70
     0
280
     1
281
     0
  0
BLOCK_RECORD
  5
1B
330
1
100
AcDbSymbolTableRecord
100
AcDbBlockTableRecord
  2
*Paper_Space
340
1E
 70
     0
280
     1
281
     0
  0
BLOCK_RECORD
  5
23
330
1
100
AcDbSymbolTableRecord
100
AcDbBlockTableRecord
  2
*Paper_Space0
340
26
 70
     0
280
     1
281
     0
  0
BLOCK_RECORD
  5
6F
330
1
100
AcDbSymbolTableRecord
100
AcDbBlockTableRecord
  2
Block1
340
0
 70
     0
280
     1
281
     0
  0
BLOCK_RECORD
  5
72
330
1
100
AcDbSymbolTableRecord
100
AcDbBlockTableRecord
  2
SW_NOTE_0
340
0
102
{BLKREFS
331
77
102
}
 70
     0
280
     1
281
     0
  0
BLOCK_RECORD
  5
78
330
1
100
AcDbSymbolTableRecord
100
AcDbBlockTableRecord
  2
SW_NOTE_0_1
340
0
102
{BLKREFS
331
7D
102
}
 70
     0
280
     1
281
     0
  0
BLOCK_RECORD
  5
7E
330
1
100
AcDbSymbolTableRecord
100
AcDbBlockTableRecord
  2
SW_NOTE_0_2
340
0
102
{BLKREFS
331
82
102
}
 70
     0
280
     1
281
     0
  0
BLOCK_RECORD
  5
83
330
1
100
AcDbSymbolTableRecord
100
AcDbBlockTableRecord
  2
SW_NOTE_0_3
340
0
102
{BLKREFS
331
87
102
}
 70
     0
280
     1
281
     0
  0
ENDTAB
  0
ENDSEC
  0
SECTION
  2
BLOCKS
  0
BLOCK
  5
20
330
1F
100
AcDbEntity
  8
0
100
AcDbBlockBegin
  2
*Model_Space
 70
     0
 10
0.0
 20
0.0
 30
0.0
  3
*Model_Space
  1

  0
ENDBLK
  5
21
330
1F
100
AcDbEntity
  8
0
100
AcDbBlockEnd
  0
BLOCK
  5
1C
330
1B
100
AcDbEntity
 67
     1
  8
0
100
AcDbBlockBegin
  2
*Paper_Space
 70
     0
 10
0.0
 20
0.0
 30
0.0
  3
*Paper_Space
  1

  0
ENDBLK
  5
1D
330
1B
100
AcDbEntity
 67
     1
  8
0
100
AcDbBlockEnd
  0
BLOCK
  5
24
330
23
100
AcDbEntity
  8
0
100
AcDbBlockBegin
  2
*Paper_Space0
 70
     0
 10
0.0
 20
0.0
 30
0.0
  3
*Paper_Space0
  1

  0
ENDBLK
  5
25
330
23
100
AcDbEntity
  8
0
100
AcDbBlockEnd
  0
BLOCK
  5
70
330
6F
100
AcDbEntity
  8
0
100
AcDbBlockBegin
  2
Block1
 70
     0
 10
0.0
 20
0.0
 30
0.0
  3
Block1
  1

  0
INSERT
  5
77
330
6F
100
AcDbEntity
  8
0
  6
Continuous
 62
     7
370
     0
100
AcDbBlockReference
  2
SW_NOTE_0
 10
40.5248655077
 20
20.5912386523
 30
0.0
  0
INSERT
  5
7D
330
6F
100
AcDbEntity
  8
DRAWING-SHEET
 62
     7
100
AcDbBlockReference
  2
SW_NOTE_0_1
 10
3.556761253
 20
-0.3611706024
 30
0.0
  0
INSERT
  5
82
330
6F
100
AcDbEntity
  8
DRAWING-SHEET
 62
     7
100
AcDbBlockReference
  2
SW_NOTE_0_2
 10
7.9590819428
 20
3.0109637777
 30
0.0
  0
INSERT
  5
87
330
6F
100
AcDbEntity
  8
DRAWING-SHEET
 62
     7
100
AcDbBlockReference
  2
SW_NOTE_0_3
 10
0.0721004934
 20
6.5234823937
 30
0.0
  0
ENDBLK
  5
71
330
6F
100
AcDbEntity
  8
0
100
AcDbBlockEnd
  0
BLOCK
  5
73
330
72
100
AcDbEntity
  8
0
100
AcDbBlockBegin
  2
SW_NOTE_0
 70
     0
 10
0.0
 20
0.0
 30
0.0
  3
SW_NOTE_0
  1

  0
MTEXT
  5
76
330
72
100
AcDbEntity
  8
0
  6
Continuous
 62
     0
370
     0
100
AcDbMText
 10
0.0
 20
1.9336016097
 30
0.0
 40
1.5
 41
0.0
 46
0.0
 71
     1
 72
     1
  1
TITLE:
  7
SLDTEXTSTYLE0
 73
     1
 44
1.0
  0
ENDBLK
  5
74
330
72
100
AcDbEntity
  8
0
100
AcDbBlockEnd
  0
BLOCK
  5
79
330
78
100
AcDbEntity
  8
0
100
AcDbBlockBegin
  2
SW_NOTE_0_1
 70
     0
 10
0.0
 20
0.0
 30
0.0
  3
SW_NOTE_0_1
  1

  0
MTEXT
  5
7C
330
78
100
AcDbEntity
  8
DRAWING-SHEET
 62
     0
100
AcDbMText
 10
0.0
 20
2.7285267159
 30
0.0
 40
2.1166666667
 41
0.0
 46
0.0
 71
     1
 72
     1
  1
Email: roddyeng.com.au
  7
SLDTEXTSTYLE1
 73
     1
 44
1.0
  0
ENDBLK
  5
7A
330
78
100
AcDbEntity
  8
0
100
AcDbBlockEnd
  0
BLOCK
  5
7F
330
7E
100
AcDbEntity
  8
0
100
AcDbBlockBegin
  2
SW_NOTE_0_2
 70
     0
 10
0.0
 20
0.0
 30
0.0
  3
SW_NOTE_0_2
  1

  0
MTEXT
  5
81
330
7E
100
AcDbEntity
  8
DRAWING-SHEET
 62
     0
100
AcDbMText
 10
0.0
 20
2.7285267159
 30
0.0
 40
2.1166666667
 41
0.0
 46
0.0
 71
     1
 72
     1
  1
Ph: - 02 6947 4039
  7
SLDTEXTSTYLE1
 73
     1
 44
1.0
  0
ENDBLK
  5
80
330
7E
100
AcDbEntity
  8
0
100
AcDbBlockEnd
  0
BLOCK
  5
84
330
83
100
AcDbEntity
  8
0
100
AcDbBlockBegin
  2
SW_NOTE_0_3
 70
     0
 10
0.0
 20
0.0
 30
0.0
  3
SW_NOTE_0_3
  1

  0
MTEXT
  5
86
330
83
100
AcDbEntity
  8
DRAWING-SHEET
 62
     0
100
AcDbMText
 10
0.0
 20
2.7285267159
 30
0.0
 40
2.1166666667
 41
0.0
 46
0.0
 71
     1
 72
     1
  1
14 Waratah St TUMUT NSW 2720
  7
SLDTEXTSTYLE1
 73
     1
 44
1.0
  0
ENDBLK
  5
85
330
83
100
AcDbEntity
  8
0
100
AcDbBlockEnd
  0
ENDSEC
  0
SECTION
  2
ENTITIES
  0
SPLINE
  5
88
330
1F
100
AcDbEntity
  8
0
  6
Continuous
 62
     7
370
    25
100
AcDbSpline
210
0.0
220
0.0
230
1.0
 70
     8
 71
     3
 72
    19
 73
    15
 74
     0
 42
0.00000001
 43
0.00000001
 40
0.0
 40
0.0
 40
0.0
 40
0.0
 40
0.1108026438013169
 40
0.2128292023477712
 40
0.3061013098231127
 40
0.3906473211160086
 40
0.4669244693608502
 40
0.5344810392840323
 40
0.593586940965672
 40
0.6445570045087202
 40
0.7362004526293756
 40
0.8250240256188647
 40
0.9119855848297578
 40
1.0
 40
1.0
 40
1.0
 40
1.0
 10
905.9676695442769
 20
861.8186117632705
 30
0.0
 10
906.0432075712663
 20
861.8974650353815
 30
0.0
 10
906.1883006618237
 20
862.048926033334
 30
0.0
 10
906.3935179802448
 20
862.2700527993546
 30
0.0
 10
906.577835667816
 20
862.4751946067881
 30
0.0
 10
906.7424468512944
 20
862.6639638603755
 30
0.0
 10
906.883780577845
 20
862.8391217296223
 30
0.0
 10
907.0092028222969
 20
862.994995337823
 30
0.0
 10
907.1096956016845
 20
863.1384340813839
 30
0.0
 10
907.2187593632564
 20
863.3046983417554
 30
0.0
 10
907.3243913207381
 20
863.5076979238675
 30
0.0
 10
907.4151624202589
 20
863.7557749278928
 30
0.0
 10
907.4705106452844
 20
864.0111515054379
 30
0.0
 10
907.4771502692977
 20
864.1837275901173
 30
0.0
 10
907.4804900570974
 20
864.2705348401936
 30
0.0
  0
LINE
  5
89
330
1F
100
AcDbEntity
  8
0
  6
Continuous
 62
     7
370
    25
100
AcDbLine
 10
902.8651054417
 20
858.5077143274
 30
0.0
 11
905.9676695443
 21
861.8186117633
 31
0.0
  0
LINE
  5
8A
330
1F
100
AcDbEntity
  8
0
  6
Continuous
 62
     7
370
    25
100
AcDbLine
 10
908.3010028776
 20
858.5077143274
 30
0.0
 11
902.8651054417
 21
858.5077143274
 31
0.0
  0
LINE
  5
8B
330
1F
100
AcDbEntity
  8
0
  6
Continuous
 62
     7
370
    25
100
AcDbLine
 10
908.3010028776
 20
859.3282271479
 30
0.0
 11
908.3010028776
 21
858.5077143274
 31
0.0
  0
LINE
  5
8C
330
1F
100
AcDbEntity
  8
0
  6
Continuous
 62
     7
370
    25
100
AcDbLine
 10
904.5782464674
 20
859.3282271479
 30
0.0
 11
908.3010028776
 21
859.3282271479
 31
0.0
  0
LINE
  5
8D
330
1F
100
AcDbEntity
  8
0
  6
Continuous
 62
     7
370
    25
100
AcDbLine
 10
906.5798490315
 20
861.4644450966
 30
0.0
 11
904.5782464674
 21
859.3282271479
 31
0.0
  0
SPLINE
  5
8E
330
1F
100
AcDbEntity
  8
0
  6
Continuous
 62
     7
370
    25
100
AcDbSpline
210
0.0
220
0.0
230
1.0
 70
     8
 71
     3
 72
    19
 73
    15
 74
     0
 42
0.00000001
 43
0.00000001
 40
0.0
 40
0.0
 40
0.0
 40
0.0
 40
0.0987021963061539
 40
0.1956723088106638
 40
0.2924224265079532
 40
0.3913425437998226
 40
0.4444624406718903
 40
0.5042287754493158
 40
0.5703523379946778
 40
0.6425457530977456
 40
0.7222875053440165
 40
0.8079211226827109
 40
0.9004695379850124
 40
1.0
 40
1.0
 40
1.0
 40
1.0
 10
908.1984387750462
 20
864.3346374042961
 30
0.0
 10
908.1945684599456
 20
864.2232137824109
 30
0.0
 10
908.1868957482949
 20
864.0023218654495
 30
0.0
 10
908.1212628875694
 20
863.6777164648801
 30
0.0
 10
908.0187565764941
 20
863.3632172212533
 30
0.0
 10
907.8953340465528
 20
863.1101033879175
 30
0.0
 10
907.7708256029832
 20
862.9061411164729
 30
0.0
 10
907.6586255856263
 20
862.7382126480849
 30
0.0
 10
907.5272774461478
 20
862.557400148909
 30
0.0
 10
907.3748694508046
 20
862.3643090920543
 30
0.0
 10
907.20455431446
 20
862.1574270232576
 30
0.0
 10
907.0147893696449
 20
861.9368789194898
 30
0.0
 10
906.8042214107388
 20
861.7049434456154
 30
0.0
 10
906.6564305518717
 20
861.5465306424433
 30
0.0
 10
906.5798490314564
 20
861.4644450966038
 30
0.0
  0
SPLINE
  5
8F
330
1F
100
AcDbEntity
  8
0
  6
Continuous
 62
     7
370
    25
100
AcDbSpline
210
0.0
220
0.0
230
1.0
 70
     8
 71
     3
 72
    23
 73
    19
 74
     0
 42
0.00000001
 43
0.00000001
 40
0.0
 40
0.0
 40
0.0
 40
0.0
 40
0.0694754602496703
 40
0.1365167976177993
 40
0.2007888236092615
 40
0.2638296728558266
 40
0.3257350229654209
 40
0.3872906922152907
 40
0.4495092187626033
 40
0.5129678195454408
 40
0.57627521549306
 40
0.6375801002639242
 40
0.6979026059171035
 40
0.7571720884269846
 40
0.8165985284886561
 40
0.8766531708928194
 40
0.9372896424102416
 40
1.0
 40
1.0
 40
1.0
 40
1.0
 10
905.7817721083794
 20
866.7128425325012
 30
0.0
 10
905.8694934205791
 20
866.7107889177689
 30
0.0
 10
906.041862665508
 20
866.7067536381779
 30
0.0
 10
906.2934329842575
 20
866.6720998569958
 30
0.0
 10
906.5329239430309
 20
866.6178242189723
 30
0.0
 10
906.7598674093666
 20
866.5416746959704
 30
0.0
 10
906.9724526998153
 20
866.4393102905018
 30
0.0
 10
907.1722768016583
 20
866.3163444878545
 30
0.0
 10
907.3617186548948
 20
866.1741277304325
 30
0.0
 10
907.5322484460085
 20
866.0066904425504
 30
0.0
 10
907.6888383414056
 20
865.8279421351897
 30
0.0
 10
907.8239292103068
 20
865.637112641219
 30
0.0
 10
907.939616441103
 20
865.4400171310133
 30
0.0
 10
908.0360454236885
 20
865.2351526702555
 30
0.0
 10
908.1070308841208
 20
865.020590319598
 30
0.0
 10
908.1609239310451
 20
864.7994538560741
 30
0.0
 10
908.1913865909036
 20
864.5694542880592
 30
0.0
 10
908.196061844613
 20
864.4137821608642
 30
0.0
 10
908.1984387750462
 20
864.3346374042961
 30
0.0
  0
SPLINE
  5
90
330
1F
100
AcDbEntity
  8
0
  6
Continuous
 62
     7
370
    25
100
AcDbSpline
210
0.0
220
0.0
230
1.0
 70
     8
 71
     3
 72
    23
 73
    19
 74
     0
 42
0.00000001
 43
0.00000001
 40
0.0
 40
0.0
 40
0.0
 40
0.0
 40
0.0687907943906179
 40
0.135103289431129
 40
0.1989786743106508
 40
0.2619042997808579
 40
0.3234949693679696
 40
0.3851953779660538
 40
0.446969238740776
 40
0.5097647767031347
 40
0.5722505688473699
 40
0.6334051756611531
 40
0.693251162921753
 40
0.7525831627856717
 40
0.8125792661534221
 40
0.8732750849201927
 40
0.9355499428950291
 40
1.0
 40
1.0
 40
1.0
 40
1.0
 10
903.172797749405
 20
864.0461758658346
 30
0.0
 10
903.1774769562803
 20
864.1414236093038
 30
0.0
 10
903.1866667940541
 20
864.3284876426179
 30
0.0
 10
903.2297028837952
 20
864.6012280001015
 30
0.0
 10
903.291282031692
 20
864.8619246829012
 30
0.0
 10
903.3783482122974
 20
865.1084844862604
 30
0.0
 10
903.4864768471996
 20
865.3430874742154
 30
0.0
 10
903.6161454812132
 20
865.5648017957956
 30
0.0
 10
903.7697314252439
 20
865.7727816557145
 30
0.0
 10
903.9439182459191
 20
865.9650990118186
 30
0.0
 10
904.1331037066162
 20
866.1415277450742
 30
0.0
 10
904.3372315682643
 20
866.293882585774
 30
0.0
 10
904.5517344877759
 20
866.4226086917442
 30
0.0
 10
904.7759616854111
 20
866.5302229587701
 30
0.0
 10
905.012442973547
 20
866.6109997494502
 30
0.0
 10
905.2590323628943
 20
866.6709349256893
 30
0.0
 10
905.5168132461158
 20
866.7069951444814
 30
0.0
 10
905.6924475822232
 20
866.7108712258627
 30
0.0
 10
905.7817721083794
 20
866.7128425325012
 30
0.0
  0
LINE
  5
91
330
1F
100
AcDbEntity
  8
0
  6
Continuous
 62
     7
370
    25
100
AcDbLine
 10
903.8907464674
 20
864.0461758658
 30
0.0
 11
903.1727977494
 21
864.0461758658
 31
0.0
  0
SPLINE
  5
92
330
1F
100
AcDbEntity
  8
0
  6
Continuous
 62
     7
370
    25
100
AcDbSpline
210
0.0
220
0.0
230
1.0
 70
     8
 71
     3
 72
    23
 73
    19
 74
     0
 42
0.00000001
 43
0.00000001
 40
0.0
 40
0.0
 40
0.0
 40
0.0
 40
0.0644386715952428
 40
0.1265469112716782
 40
0.1868871534365712
 40
0.2458775355894557
 40
0.3040408846912657
 40
0.3621912180726602
 40
0.420975932791645
 40
0.4806602832796661
 40
0.5406002749537582
 40
0.6006890983494536
 40
0.6619357897571937
 40
0.7244425059139818
 40
0.7890383938817416
 40
0.8563137570509933
 40
0.9263520282058617
 40
1.0
 40
1.0
 40
1.0
 40
1.0
 10
905.7449131340205
 20
865.8923297119885
 30
0.0
 10
905.6823512305775
 20
865.890695352528
 30
0.0
 10
905.5594899820755
 20
865.8874857404038
 30
0.0
 10
905.3791036210778
 20
865.8650339369934
 30
0.0
 10
905.2070218438804
 20
865.8263005875148
 30
0.0
 10
905.042811779988
 20
865.773325331773
 30
0.0
 10
904.8861955838446
 20
865.7059915058933
 30
0.0
 10
904.7379349117593
 20
865.6221246609133
 30
0.0
 10
904.5983625934509
 20
865.5220481051362
 30
0.0
 10
904.4672162543756
 20
865.4085839763954
 30
0.0
 10
904.3463843022303
 20
865.282258030759
 30
0.0
 10
904.2402200145391
 20
865.1414352580346
 30
0.0
 10
904.1474565536394
 20
864.9886868800435
 30
0.0
 10
904.0665211628284
 20
864.8244250501707
 30
0.0
 10
904.0007938712106
 20
864.6471592673489
 30
0.0
 10
903.9505695273681
 20
864.4575187991239
 30
0.0
 10
903.9108281634329
 20
864.2563270701215
 30
0.0
 10
903.8975515449076
 20
864.1173897333065
 30
0.0
 10
903.8907464673538
 20
864.0461758658346
 30
0.0
  0
SPLINE
  5
93
330
1F
100
AcDbEntity
  8
0
  6
Continuous
 62
     7
370
    25
100
AcDbSpline
210
0.0
220
0.0
230
1.0
 70
     8
 71
     3
 72
    23
 73
    19
 74
     0
 42
0.00000001
 43
0.00000001
 40
0.0
 40
0.0
 40
0.0
 40
0.0
 40
0.0619654006870639
 40
0.1221219056382953
 40
0.180988496849841
 40
0.2399332164519055
 40
0.2999058311065261
 40
0.3599888474769872
 40
0.421775741741647
 40
0.4865758264211295
 40
0.5515348046197411
 40
0.6150175427599821
 40
0.6772586166616583
 40
0.7397299623627133
 40
0.803050102662953
 40
0.8664951320156987
 40
0.9319734741771507
 40
0.9999999999999999
 40
0.9999999999999999
 40
0.9999999999999999
 40
0.9999999999999999
 10
907.4804900570974
 20
864.2705348401936
 30
0.0
 10
907.4790369318416
 20
864.3251208937039
 30
0.0
 10
907.4761731010037
 20
864.4326995231013
 30
0.0
 10
907.4508983638749
 20
864.5904269722867
 30
0.0
 10
907.4127029213732
 20
864.7425751181513
 30
0.0
 10
907.357970902978
 20
864.8896119618493
 30
0.0
 10
907.28572692564
 20
865.030059166572
 30
0.0
 10
907.1977877715427
 20
865.1640876927515
 30
0.0
 10
907.0963247694447
 20
865.2936624703518
 30
0.0
 10
906.9789504395455
 20
865.4151557230559
 30
0.0
 10
906.8500098228448
 20
865.5264270498731
 30
0.0
 10
906.7137943952215
 20
865.6249963879629
 30
0.0
 10
906.5696798711988
 20
865.7073714983603
 30
0.0
 10
906.4182738776541
 20
865.7748994919156
 30
0.0
 10
906.2599985190064
 20
865.8278717917929
 30
0.0
 10
906.0945476730124
 20
865.8645771161886
 30
0.0
 10
905.922378492938
 20
865.8876227937808
 30
0.0
 10
905.8048162170737
 20
865.8907409010001
 30
0.0
 10
905.7449131340205
 20
865.8923297119885
 30
0.0
  0
SPLINE
  5
94
330
1F
100
AcDbEntity
  8
0
  6
Continuous
 62
     7
370
    25
100
AcDbSpline
210
0.0
220
0.0
230
1.0
 70
     8
 71
     3
 72
    31
 73
    27
 74
     0
 42
0.00000001
 43
0.00000001
 40
0.0
 40
0.0
 40
0.0
 40
0.0
 40
0.0337881161627101
 40
0.0671939323738798
 40
0.0998624108568244
 40
0.1325666121262574
 40
0.165151173254786
 40
0.197913187355792
 40
0.2313190035669613
 40
0.2650832782673722
 40
0.2992553087581143
 40
0.334398566504978
 40
0.3699428235093068
 40
0.4062835607000597
 40
0.4440638196985084
 40
0.4829977068727741
 40
0.5233544466133037
 40
0.5655365896041497
 40
0.6096129240658181
 40
0.6563908113764166
 40
0.7058854949364579
 40
0.7583245002617311
 40
0.8138317829411498
 40
0.8727945590393887
 40
0.9347222295400733
 40
1.0
 40
1.0
 40
1.0
 40
1.0
 10
911.6936310827384
 20
866.7128425325012
 30
0.0
 10
911.7572550335598
 20
866.7117275263855
 30
0.0
 10
911.8837830538928
 20
866.7095101300328
 30
0.0
 10
912.0708467687406
 20
866.6881982613824
 30
0.0
 10
912.2535888983739
 20
866.6528356943036
 30
0.0
 10
912.4312303582677
 20
866.6027306095432
 30
0.0
 10
912.6052303273368
 20
866.5405690628932
 30
0.0
 10
912.7742278305269
 20
866.4626556523579
 30
0.0
 10
912.9392725885658
 20
866.3719610984277
 30
0.0
 10
913.0977418171827
 20
866.2653922360125
 30
0.0
 10
913.251375223688
 20
866.1465756047056
 30
0.0
 10
913.396399139053
 20
866.0122609331551
 30
0.0
 10
913.5328267639615
 20
865.8638044319696
 30
0.0
 10
913.6623703191299
 20
865.7027944573716
 30
0.0
 10
913.7813545412996
 20
865.5261428348949
 30
0.0
 10
913.894665243552
 20
865.3369220124625
 30
0.0
 10
913.9960870398986
 20
865.1318228929339
 30
0.0
 10
914.0937662974497
 20
864.9142675378686
 30
0.0
 10
914.1780794099966
 20
864.678236317739
 30
0.0
 10
914.2541165420475
 20
864.4250597222691
 30
0.0
 10
914.3155541845047
 20
864.1517472951758
 30
0.0
 10
914.3667296641347
 20
863.8597330202156
 30
0.0
 10
914.4063751405818
 20
863.5479444870952
 30
0.0
 10
914.435249751047
 20
863.2170500516397
 30
0.0
 10
914.4505025168557
 20
862.8668320158895
 30
0.0
 10
914.4533749767567
 20
862.6273855034844
 30
0.0
 10
914.4548490314563
 20
862.5045091991678
 30
0.0
  0
SPLINE
  5
95
330
1F
100
AcDbEntity
  8
0
  6
Continuous
 62
     7
370
    25
100
AcDbSpline
210
0.0
220
0.0
230
1.0
 70
     8
 71
     3
 72
    31
 73
    27
 74
     0
 42
0.00000001
 43
0.00000001
 40
0.0
 40
0.0
 40
0.0
 40
0.0
 40
0.0685946222587426
 40
0.1332460424433
 40
0.1943125864682571
 40
0.2512792231169659
 40
0.3045134392563465
 40
0.3542349066533259
 40
0.4004805887739901
 40
0.4434107549384916
 40
0.4840148686163447
 40
0.5232523007732017
 40
0.5610423727283598
 40
0.5979002393643987
 40
0.6335184888561961
 40
0.66831435116965
 40
0.7024956712863808
 40
0.7366853535134577
 40
0.7702931693607886
 40
0.8034372550192477
 40
0.835912951666028
 40
0.86846024578929
 40
0.900846538243182
 40
0.9334665246307073
 40
0.9662575752981225
 40
1.0
 40
1.0
 40
1.0
 40
1.0
 10
909.0189515955589
 20
862.5045091991678
 30
0.0
 10
909.0197013513475
 20
862.6327317997034
 30
0.0
 10
909.0211577627733
 20
862.8818060494118
 30
0.0
 10
909.0373598677842
 20
863.244742374136
 30
0.0
 10
909.0642749359286
 20
863.5852230346964
 30
0.0
 10
909.1011603595863
 20
863.9032643284985
 30
0.0
 10
909.146047171526
 20
864.1989483616818
 30
0.0
 10
909.2059682837576
 20
864.4714849494219
 30
0.0
 10
909.2741118325918
 20
864.7221354788232
 30
0.0
 10
909.3530888515872
 20
864.9517173039113
 30
0.0
 10
909.4422037979149
 20
865.1633234822475
 30
0.0
 10
909.5391963938511
 20
865.3608667994905
 30
0.0
 10
909.647915923962
 20
865.5440483591243
 30
0.0
 10
909.7621488677955
 20
865.7157918800842
 30
0.0
 10
909.8865193172304
 20
865.8732860396095
 30
0.0
 10
910.0174879811556
 20
866.018754982509
 30
0.0
 10
910.1601665554805
 20
866.1488366978548
 30
0.0
 10
910.3097048601054
 20
866.2673425318778
 30
0.0
 10
910.4674567787151
 20
866.3712270385566
 30
0.0
 10
910.6289257298996
 20
866.4627304411069
 30
0.0
 10
910.7952231147132
 20
866.5409015662672
 30
0.0
 10
910.9668029613371
 20
866.6023654196604
 30
0.0
 10
911.1421230936563
 20
866.6531330694264
 30
0.0
 10
911.3217963889506
 20
866.6878506640471
 30
0.0
 10
911.5061195065194
 20
866.7096950263086
 30
0.0
 10
911.6305342146295
 20
866.7117834097147
 30
0.0
 10
911.6936310827384
 20
866.7128425325012
 30
0.0
  0
SPLINE
  5
96
330
1F
100
AcDbEntity
  8
0
  6
Continuous
 62
     7
370
    25
100
AcDbSpline
210
0.0
220
0.0
230
1.0
 70
     8
 71
     3
 72
    31
 73
    27
 74
     0
 42
0.00000001
 43
0.00000001
 40
0.0
 40
0.0
 40
0.0
 40
0.0
 40
0.0337871463469916
 40
0.0666216577242942
 40
0.0992848780959728
 40
0.1313611650426511
 40
0.1635851875953436
 40
0.196103926987069
 40
0.2289022543238179
 40
0.2621580559050076
 40
0.2959912222583162
 40
0.3302178457247995
 40
0.3650598258919541
 40
0.4009507373401081
 40
0.4376203820767381
 40
0.4757075294370928
 40
0.5153806916250498
 40
0.556413541493165
 40
0.5997648298727323
 40
0.6464241555840875
 40
0.6964314445175676
 40
0.7497815178015587
 40
0.8065733069755331
 40
0.8674355315654004
 40
0.9318867532508747
 40
0.9999999999999999
 40
0.9999999999999999
 40
0.9999999999999999
 40
0.9999999999999999
 10
911.6936310827384
 20
858.3025861222449
 30
0.0
 10
911.6305359650578
 20
858.3036520775793
 30
0.0
 10
911.5061247084509
 20
858.3057539334362
 30
0.0
 10
911.3217763074465
 20
858.3274996054091
 30
0.0
 10
911.1428450081552
 20
858.3624607556088
 30
0.0
 10
910.9684478560692
 20
858.4114129935314
 30
0.0
 10
910.7976901073065
 20
858.4713326193952
 30
0.0
 10
910.6328985949505
 20
858.5493981819163
 30
0.0
 10
910.4722410322289
 20
858.6393046252443
 30
0.0
 10
910.3161460470446
 20
858.7416941599604
 30
0.0
 10
910.1675468218108
 20
858.8590008642539
 30
0.0
 10
910.025607152522
 20
858.9887478098229
 30
0.0
 10
909.8938928231576
 20
859.1341727499312
 30
0.0
 10
909.7713006046037
 20
859.2929794313203
 30
0.0
 10
909.6547884030134
 20
859.4637068423666
 30
0.0
 10
909.5476126925694
 20
859.6486859807561
 30
0.0
 10
909.4484793118423
 20
859.847183376161
 30
0.0
 10
909.3578656188857
 20
860.0604814577041
 30
0.0
 10
909.2775258165659
 20
860.2916927213836
 30
0.0
 10
909.2065596265924
 20
860.5434622722464
 30
0.0
 10
909.1505272666608
 20
860.8180122976498
 30
0.0
 10
909.1025662258999
 20
861.1131377081765
 30
0.0
 10
909.0638819218005
 20
861.4301066919156
 30
0.0
 10
909.0374720353585
 20
861.7690913277713
 30
0.0
 10
909.0211490295626
 20
862.1298803767454
 30
0.0
 10
909.0196974400309
 20
862.377354146612
 30
0.0
 10
909.0189515955589
 20
862.5045091991678
 30
0.0
  0
SPLINE
  5
97
330
1F
100
AcDbEntity
  8
0
  6
Continuous
 62
     7
370
    25
100
AcDbSpline
210
0.0
220
0.0
230
1.0
 70
     8
 71
     3
 72
    31
 73
    27
 74
     0
 42
0.00000001
 43
0.00000001
 40
0.0
 40
0.0
 40
0.0
 40
0.0
 40
0.0650632896172783
 40
0.1267731664665234
 40
0.1855157632260796
 40
0.2407646791677159
 40
0.2929797960235991
 40
0.3422503727797682
 40
0.3889192861856598
 40
0.4327756640583106
 40
0.4746284326311176
 40
0.5147746906379531
 40
0.5536058934984424
 40
0.5914264064311745
 40
0.628028119946068
 40
0.6638036341103203
 40
0.6989843361316636
 40
0.7335914893067056
 40
0.7676284691511397
 40
0.8012083477865924
 40
0.8342638397266234
 40
0.8669806947287766
 40
0.8997197415181607
 40
0.9327019124985383
 40
0.9661758834327498
 40
1.0
 40
1.0
 40
1.0
 40
1.0
 10
914.4548490314563
 20
862.5045091991678
 30
0.0
 10
914.453359695356
 20
862.38216883816
 30
0.0
 10
914.4504577847011
 20
862.1437936339114
 30
0.0
 10
914.4354207406607
 20
861.7951514046091
 30
0.0
 10
914.4058010122521
 20
861.4660130199265
 30
0.0
 10
914.3687496104035
 20
861.1555891057352
 30
0.0
 10
914.317433123607
 20
860.8651716912599
 30
0.0
 10
914.254335600747
 20
860.5937558090475
 30
0.0
 10
914.1842777200116
 20
860.3401693595265
 30
0.0
 10
914.0977981906177
 20
860.1064897901324
 30
0.0
 10
914.0031451383954
 20
859.8894572807272
 30
0.0
 10
913.9001618328517
 20
859.6867895131164
 30
0.0
 10
913.7898308017988
 20
859.4966951298486
 30
0.0
 10
913.6696279560775
 20
859.3206957082917
 30
0.0
 10
913.5415058687714
 20
859.1575444921251
 30
0.0
 10
913.4027223515303
 20
859.010121354636
 30
0.0
 10
913.2571895855829
 20
858.8748741044344
 30
0.0
 10
913.1031040636768
 20
858.7545275273782
 30
0.0
 10
912.9421633751462
 20
858.6491908310663
 30
0.0
 10
912.7776854850322
 20
858.5549877444657
 30
0.0
 10
912.6067520373812
 20
858.4790272986374
 30
0.0
 10
912.4332367168566
 20
858.4138043478312
 30
0.0
 10
912.2546575943081
 20
858.36397474352
 30
0.0
 10
912.0712372727322
 20
858.3295202166158
 30
0.0
 10
911.8839087334667
 20
858.3053559915763
 30
0.0
 10
911.7572765847095
 20
858.3035126090042
 30
0.0
 10
911.6936310827384
 20
858.3025861222449
 30
0.0
  0
LINE
  5
98
330
1F
100
AcDbEntity
  8
0
  6
Continuous
 62
     7
370
    25
100
AcDbLine
 10
928.0349772366
 20
858.5077143274
 30
0.0
 11
922.7625413391
 21
864.7897656094
 31
0.0
  0
LINE
  5
99
330
1F
100
AcDbEntity
  8
0
  6
Continuous
 62
     7
370
    25
100
AcDbLine
 10
928.198438775
 20
858.5077143274
 30
0.0
 11
928.0349772366
 21
858.5077143274
 31
0.0
  0
LINE
  5
9A
330
1F
100
AcDbEntity
  8
0
  6
Continuous
 62
     7
370
    25
100
AcDbLine
 10
928.198438775
 20
866.5077143274
 30
0.0
 11
928.198438775
 21
858.5077143274
 31
0.0
  0
LINE
  5
9B
330
1F
100
AcDbEntity
  8
0
  6
Continuous
 62
     7
370
    25
100
AcDbLine
 10
927.4804900571
 20
866.5077143274
 30
0.0
 11
928.198438775
 21
866.5077143274
 31
0.0
  0
LINE
  5
9C
330
1F
100
AcDbEntity
  8
0
  6
Continuous
 62
     7
370
    25
100
AcDbLine
 10
927.4804900571
 20
860.2112399684
 30
0.0
 11
927.4804900571
 21
866.5077143274
 31
0.0
  0
LINE
  5
9D
330
1F
100
AcDbEntity
  8
0
  6
Continuous
 62
     7
370
    25
100
AcDbLine
 10
922.1952336468
 20
866.5077143274
 30
0.0
 11
927.4804900571
 21
860.2112399684
 31
0.0
  0
LINE
  5
9E
330
1F
100
AcDbEntity
  8
0
  6
Continuous
 62
     7
370
    25
100
AcDbLine
 10
922.0445926212
 20
866.5077143274
 30
0.0
 11
922.1952336468
 21
866.5077143274
 31
0.0
  0
LINE
  5
9F
330
1F
100
AcDbEntity
  8
0
  6
Continuous
 62
     7
370
    25
100
AcDbLine
 10
922.0445926212
 20
858.5077143274
 30
0.0
 11
922.0445926212
 21
866.5077143274
 31
0.0
  0
LINE
  5
A0
330
1F
100
AcDbEntity
  8
0
  6
Continuous
 62
     7
370
    25
100
AcDbLine
 10
922.7625413391
 20
858.5077143274
 30
0.0
 11
922.0445926212
 21
858.5077143274
 31
0.0
  0
LINE
  5
A1
330
1F
100
AcDbEntity
  8
0
  6
Continuous
 62
     7
370
    25
100
AcDbLine
 10
922.7625413391
 20
864.7897656094
 30
0.0
 11
922.7625413391
 21
858.5077143274
 31
0.0
  0
SPLINE
  5
A2
330
1F
100
AcDbEntity
  8
0
  6
Continuous
 62
     7
370
    25
100
AcDbSpline
210
0.0
220
0.0
230
1.0
 70
     8
 71
     3
 72
    23
 73
    19
 74
     0
 42
0.00000001
 43
0.00000001
 40
0.0
 40
0.0
 40
0.0
 40
0.0
 40
0.0611602766365183
 40
0.1203345577262035
 40
0.1781802550631265
 40
0.2352351259863656
 40
0.2926829614441807
 40
0.3511862482150805
 40
0.4104566095096924
 40
0.4717198544629949
 40
0.5337612027725894
 40
0.5957390238870951
 40
0.6578875151248839
 40
0.7212951802914616
 40
0.7868225145418892
 40
0.8546861538286845
 40
0.9254779862699963
 40
1.0
 40
1.0
 40
1.0
 40
1.0
 10
934.9676695442769
 20
860.7785476607064
 30
0.0
 10
934.9654367533664
 20
860.7004519529993
 30
0.0
 10
934.9610436746971
 20
860.5467964601847
 30
0.0
 10
934.9286323105902
 20
860.321070438355
 30
0.0
 10
934.8737543517537
 20
860.1053562746686
 30
0.0
 10
934.7981631600632
 20
859.8982587142017
 30
0.0
 10
934.6995064409812
 20
859.7001784068402
 30
0.0
 10
934.5794425225093
 20
859.5108909462996
 30
0.0
 10
934.4362846628001
 20
859.3322981906125
 30
0.0
 10
934.2761409623384
 20
859.16241562352
 30
0.0
 10
934.0949703440787
 20
859.0096663953149
 30
0.0
 10
933.8995057613986
 20
858.873630494329
 30
0.0
 10
933.6872856016416
 20
858.7617537809223
 30
0.0
 10
933.461795329604
 20
858.6677743032013
 30
0.0
 10
933.2205054642001
 20
858.5959864209956
 30
0.0
 10
932.9644995045205
 20
858.54576339494
 30
0.0
 10
932.6939982431834
 20
858.5119233103717
 30
0.0
 10
932.5083759549285
 20
858.5091411277548
 30
0.0
 10
932.4131823647898
 20
858.507714327373
 30
0.0
  0
SPLINE
  5
A3
330
1F
100
AcDbEntity
  8
0
  6
Continuous
 62
     7
370
    25
100
AcDbSpline
210
0.0
220
0.0
230
1.0
 70
     8
 71
     3
 72
    19
 73
    15
 74
     0
 42
0.00000001
 43
0.00000001
 40
0.0
 40
0.0
 40
0.0
 40
0.0
 40
0.1060574933033972
 40
0.2029142570846103
 40
0.2903001653958373
 40
0.3702225656250404
 40
0.4463837207709711
 40
0.5213968999648266
 40
0.5982910828464565
 40
0.6761424688569256
 40
0.7555286995560201
 40
0.834887172457659
 40
0.9166460487466404
 40
1.0
 40
1.0
 40
1.0
 40
1.0
 10
933.4276054417128
 20
862.8234194555781
 30
0.0
 10
933.5184864190724
 20
862.7885280294282
 30
0.0
 10
933.6923642416536
 20
862.721772087954
 30
0.0
 10
933.9316465557839
 20
862.6037481702465
 30
0.0
 10
934.1378062014893
 20
862.4753776322092
 30
0.0
 10
934.3124282494555
 20
862.3351905461664
 30
0.0
 10
934.4617714606935
 20
862.1840846929318
 30
0.0
 10
934.5921781842886
 20
862.0198444317926
 30
0.0
 10
934.7034498966565
 20
861.8403272709301
 30
0.0
 10
934.7987937219492
 20
861.6474049043874
 30
0.0
 10
934.8731908785805
 20
861.4430472624289
 30
0.0
 10
934.9289072314258
 20
861.2291712027777
 30
0.0
 10
934.9608328294504
 20
861.0065436480478
 30
0.0
 10
934.9653760095148
 20
860.8550342095599
 30
0.0
 10
934.9676695442769
 20
860.7785476607064
 30
0.0
  0
SPLINE
  5
A4
330
1F
100
AcDbEntity
  8
0
  6
Continuous
 62
     7
370
    25
100
AcDbSpline
210
0.0
220
0.0
230
1.0
 70
     8
 71
     3
 72
    15
 73
    11
 74
     0
 42
0.00000001
 43
0.00000001
 40
0.0
 40
0.0
 40
0.0
 40
0.0
 40
0.1305691070873113
 40
0.2565806086940817
 40
0.3805516168036832
 40
0.5036229172007111
 40
0.6257393231697916
 40
0.7475485819596281
 40
0.871766118564872
 40
1.0
 40
1.0
 40
1.0
 40
1.0
 10
934.3522849288923
 20
864.5253425325012
 30
0.0
 10
934.3497861438808
 20
864.4369938338087
 30
0.0
 10
934.344875795686
 20
864.2633803091894
 30
0.0
 10
934.2979209172112
 20
864.0094509165409
 30
0.0
 10
934.2244108179209
 20
863.7677338449356
 30
0.0
 10
934.1222273912604
 20
863.5391112496969
 30
0.0
 10
933.9894228285219
 20
863.328748705364
 30
0.0
 10
933.8320323858587
 20
863.1349492401182
 30
0.0
 10
933.6421425515937
 20
862.9659182527012
 30
0.0
 10
933.4998722887642
 20
862.8714201897282
 30
0.0
 10
933.4276054417128
 20
862.8234194555781
 30
0.0
  0
SPLINE
  5
A5
330
1F
100
AcDbEntity
  8
0
  6
Continuous
 62
     7
370
    25
100
AcDbSpline
210
0.0
220
0.0
230
1.0
 70
     8
 71
     3
 72
    23
 73
    19
 74
     0
 42
0.00000001
 43
0.00000001
 40
0.0
 40
0.0
 40
0.0
 40
0.0
 40
0.0625940971873314
 40
0.1213229386347492
 40
0.1766801421977651
 40
0.2283650957096747
 40
0.2768684458368066
 40
0.3218791276660453
 40
0.3640986251098911
 40
0.4033556962427007
 40
0.4779679481633706
 40
0.5505354613647756
 40
0.6235844567403221
 40
0.6981748822642049
 40
0.7733536703408737
 40
0.8472811254977322
 40
0.9228183395566673
 40
0.9999999999999999
 40
0.9999999999999999
 40
0.9999999999999999
 40
0.9999999999999999
 10
931.8106182622257
 20
866.507714327373
 30
0.0
 10
931.887026212369
 20
866.5073126121689
 30
0.0
 10
932.0351238359953
 20
866.5065339881256
 30
0.0
 10
932.2504825601753
 20
866.4944582597897
 30
0.0
 10
932.4521941273536
 20
866.4779927286385
 30
0.0
 10
932.6403170355834
 20
866.4518668025945
 30
0.0
 10
932.8147643553345
 20
866.420342740548
 30
0.0
 10
932.9760618118781
 20
866.382167160913
 30
0.0
 10
933.1236964913485
 20
866.3363920439782
 30
0.0
 10
933.2999541745626
 20
866.2636005440182
 30
0.0
 10
933.5009156851427
 20
866.1554333020761
 30
0.0
 10
933.718512011321
 20
865.9955965817354
 30
0.0
 10
933.9045788441424
 20
865.8000938088887
 30
0.0
 10
934.0650047121217
 20
865.5795620250618
 30
0.0
 10
934.1925501283758
 20
865.3369659753453
 30
0.0
 10
934.2848228079546
 20
865.078087829568
 30
0.0
 10
934.3432408087745
 20
864.8062667051804
 30
0.0
 10
934.3492486584107
 20
864.6196537271716
 30
0.0
 10
934.3522849288923
 20
864.5253425325012
 30
0.0
  0
LINE
  5
A6
330
1F
100
AcDbEntity
  8
0
  6
Continuous
 62
     7
370
    25
100
AcDbLine
 10
930.2497208263
 20
866.5077143274
 30
0.0
 11
931.8106182622
 21
866.5077143274
 31
0.0
  0
LINE
  5
A7
330
1F
100
AcDbEntity
  8
0
  6
Continuous
 62
     7
370
    25
100
AcDbLine
 10
930.2497208263
 20
858.5077143274
 30
0.0
 11
930.2497208263
 21
866.5077143274
 31
0.0
  0
LINE
  5
A8
330
1F
100
AcDbEntity
  8
0
  6
Continuous
 62
     7
370
    25
100
AcDbLine
 10
932.4131823648
 20
858.5077143274
 30
0.0
 11
930.2497208263
 21
858.5077143274
 31
0.0
  0
SPLINE
  5
A9
330
1F
100
AcDbEntity
  8
0
  6
Continuous
 62
     7
370
    25
100
AcDbSpline
210
0.0
220
0.0
230
1.0
 70
     8
 71
     3
 72
    31
 73
    27
 74
     0
 42
0.00000001
 43
0.00000001
 40
0.0
 40
0.0
 40
0.0
 40
0.0
 40
0.0337881161627101
 40
0.0671939323738797
 40
0.0998624108568255
 40
0.1325666121262585
 40
0.1651511732547859
 40
0.1979131873557919
 40
0.2313190035669612
 40
0.2650832782673731
 40
0.2992553087581151
 40
0.3343985665049788
 40
0.3699428235093076
 40
0.4062835607000604
 40
0.4440638196985092
 40
0.4829977068727748
 40
0.5233544466133043
 40
0.5655365896041497
 40
0.6096129240658182
 40
0.6563908113764166
 40
0.7058854949364581
 40
0.7583245002617313
 40
0.8138317829411499
 40
0.8727945590393889
 40
0.9347222295400733
 40
1.0
 40
1.0
 40
1.0
 40
1.0
 10
962.0526054417128
 20
866.7128425325012
 30
0.0
 10
962.1162293925341
 20
866.7117275263855
 30
0.0
 10
962.2427574128671
 20
866.7095101300329
 30
0.0
 10
962.429821127715
 20
866.6881982613822
 30
0.0
 10
962.6125632573484
 20
866.6528356943036
 30
0.0
 10
962.790204717242
 20
866.6027306095432
 30
0.0
 10
962.9642046863112
 20
866.5405690628932
 30
0.0
 10
963.1332021895013
 20
866.4626556523579
 30
0.0
 10
963.2982469475402
 20
866.3719610984276
 30
0.0
 10
963.4567161761571
 20
866.2653922360125
 30
0.0
 10
963.6103495826625
 20
866.1465756047055
 30
0.0
 10
963.7553734980272
 20
866.0122609331551
 30
0.0
 10
963.8918011229357
 20
865.8638044319697
 30
0.0
 10
964.0213446781042
 20
865.7027944573716
 30
0.0
 10
964.1403289002739
 20
865.5261428348949
 30
0.0
 10
964.2536396025264
 20
865.3369220124625
 30
0.0
 10
964.3550613988731
 20
865.1318228929339
 30
0.0
 10
964.4527406564241
 20
864.9142675378686
 30
0.0
 10
964.537053768971
 20
864.6782363177391
 30
0.0
 10
964.613090901022
 20
864.4250597222691
 30
0.0
 10
964.6745285434789
 20
864.1517472951758
 30
0.0
 10
964.725704023109
 20
863.8597330202156
 30
0.0
 10
964.765349499556
 20
863.5479444870952
 30
0.0
 10
964.7942241100213
 20
863.2170500516397
 30
0.0
 10
964.8094768758301
 20
862.8668320158895
 30
0.0
 10
964.8123493357311
 20
862.6273855034844
 30
0.0
 10
964.8138233904308
 20
862.5045091991678
 30
0.0
  0
SPLINE
  5
AA
330
1F
100
AcDbEntity
  8
0
  6
Continuous
 62
     7
370
    25
100
AcDbSpline
210
0.0
220
0.0
230
1.0
 70
     8
 71
     3
 72
    31
 73
    27
 74
     0
 42
0.00000001
 43
0.00000001
 40
0.0
 40
0.0
 40
0.0
 40
0.0
 40
0.0685946222587427
 40
0.1332460424433002
 40
0.1943125864682573
 40
0.2512792231169663
 40
0.3045134392563468
 40
0.3542349066533263
 40
0.4004805887739902
 40
0.4434107549384921
 40
0.4840148686163453
 40
0.5232523007732024
 40
0.5610423727283604
 40
0.5979002393643995
 40
0.6335184888561969
 40
0.6683143511696509
 40
0.7024956712863808
 40
0.7366853535134587
 40
0.7702931693607896
 40
0.8034372550192487
 40
0.8359129516660291
 40
0.8684602457892912
 40
0.9008465382431832
 40
0.9334665246307073
 40
0.9662575752981237
 40
1.0
 40
1.0
 40
1.0
 40
1.0
 10
959.3779259545333
 20
862.5045091991678
 30
0.0
 10
959.3786757103218
 20
862.6327317997034
 30
0.0
 10
959.3801321217478
 20
862.8818060494119
 30
0.0
 10
959.3963342267585
 20
863.244742374136
 30
0.0
 10
959.4232492949029
 20
863.5852230346964
 30
0.0
 10
959.4601347185608
 20
863.9032643284985
 30
0.0
 10
959.5050215305004
 20
864.1989483616818
 30
0.0
 10
959.5649426427319
 20
864.4714849494219
 30
0.0
 10
959.6330861915661
 20
864.7221354788231
 30
0.0
 10
959.7120632105616
 20
864.9517173039113
 30
0.0
 10
959.8011781568893
 20
865.1633234822475
 30
0.0
 10
959.8981707528253
 20
865.3608667994905
 30
0.0
 10
960.0068902829364
 20
865.5440483591242
 30
0.0
 10
960.1211232267698
 20
865.7157918800842
 30
0.0
 10
960.2454936762048
 20
865.8732860396095
 30
0.0
 10
960.3764623401299
 20
866.0187549825089
 30
0.0
 10
960.5191409144547
 20
866.1488366978548
 30
0.0
 10
960.6686792190799
 20
866.2673425318778
 30
0.0
 10
960.8264311376895
 20
866.3712270385566
 30
0.0
 10
960.9879000888739
 20
866.4627304411069
 30
0.0
 10
961.1541974736874
 20
866.5409015662672
 30
0.0
 10
961.3257773203113
 20
866.6023654196604
 30
0.0
 10
961.5010974526306
 20
866.6531330694263
 30
0.0
 10
961.6807707479251
 20
866.6878506640471
 30
0.0
 10
961.8650938654938
 20
866.7096950263085
 30
0.0
 10
961.9895085736038
 20
866.7117834097147
 30
0.0
 10
962.0526054417128
 20
866.7128425325012
 30
0.0
  0
SPLINE
  5
AB
330
1F
100
AcDbEntity
  8
0
  6
Continuous
 62
     7
370
    25
100
AcDbSpline
210
0.0
220
0.0
230
1.0
 70
     8
 71
     3
 72
    31
 73
    27
 74
     0
 42
0.00000001
 43
0.00000001
 40
0.0
 40
0.0
 40
0.0
 40
0.0
 40
0.0337871463469903
 40
0.0666216577242942
 40
0.0992848780959716
 40
0.1313611650426511
 40
0.1635851875953425
 40
0.196103926987068
 40
0.2289022543238179
 40
0.2621580559050076
 40
0.2959912222583153
 40
0.3302178457247995
 40
0.3650598258919533
 40
0.4009507373401082
 40
0.4376203820767381
 40
0.4757075294370928
 40
0.5153806916250494
 40
0.5564135414931647
 40
0.5997648298727318
 40
0.6464241555840875
 40
0.6964314445175676
 40
0.7497815178015584
 40
0.8065733069755329
 40
0.8674355315654002
 40
0.9318867532508747
 40
0.9999999999999999
 40
0.9999999999999999
 40
0.9999999999999999
 40
0.9999999999999999
 10
962.0526054417128
 20
858.3025861222449
 30
0.0
 10
961.9895103240323
 20
858.3036520775793
 30
0.0
 10
961.8650990674254
 20
858.3057539334362
 30
0.0
 10
961.6807506664209
 20
858.3274996054092
 30
0.0
 10
961.5018193671295
 20
858.3624607556088
 30
0.0
 10
961.3274222150436
 20
858.4114129935314
 30
0.0
 10
961.1566644662809
 20
858.4713326193952
 30
0.0
 10
960.9918729539247
 20
858.5493981819163
 30
0.0
 10
960.8312153912032
 20
858.6393046252443
 30
0.0
 10
960.6751204060191
 20
858.7416941599603
 30
0.0
 10
960.5265211807852
 20
858.8590008642539
 30
0.0
 10
960.3845815114964
 20
858.9887478098229
 30
0.0
 10
960.2528671821319
 20
859.1341727499313
 30
0.0
 10
960.1302749635779
 20
859.2929794313203
 30
0.0
 10
960.0137627619877
 20
859.4637068423666
 30
0.0
 10
959.9065870515437
 20
859.6486859807561
 30
0.0
 10
959.8074536708168
 20
859.847183376161
 30
0.0
 10
959.7168399778602
 20
860.0604814577041
 30
0.0
 10
959.6365001755403
 20
860.2916927213836
 30
0.0
 10
959.5655339855667
 20
860.5434622722464
 30
0.0
 10
959.5095016256352
 20
860.81801229765
 30
0.0
 10
959.4615405848743
 20
861.1131377081765
 30
0.0
 10
959.4228562807749
 20
861.4301066919156
 30
0.0
 10
959.396446394333
 20
861.7690913277713
 30
0.0
 10
959.3801233885368
 20
862.1298803767454
 30
0.0
 10
959.3786717990051
 20
862.377354146612
 30
0.0
 10
959.3779259545333
 20
862.5045091991678
 30
0.0
  0
SPLINE
  5
AC
330
1F
100
AcDbEntity
  8
0
  6
Continuous
 62
     7
370
    25
100
AcDbSpline
210
0.0
220
0.0
230
1.0
 70
     8
 71
     3
 72
    31
 73
    27
 74
     0
 42
0.00000001
 43
0.00000001
 40
0.0
 40
0.0
 40
0.0
 40
0.0
 40
0.0650632896172782
 40
0.1267731664665232
 40
0.1855157632260793
 40
0.2407646791677157
 40
0.2929797960235987
 40
0.3422503727797678
 40
0.3889192861856592
 40
0.4327756640583105
 40
0.4746284326311174
 40
0.5147746906379523
 40
0.5536058934984416
 40
0.5914264064311737
 40
0.6280281199460671
 40
0.6638036341103194
 40
0.6989843361316636
 40
0.7335914893067046
 40
0.7676284691511387
 40
0.8012083477865914
 40
0.8342638397266224
 40
0.8669806947287755
 40
0.8997197415181608
 40
0.9327019124985384
 40
0.9661758834327498
 40
0.9999999999999999
 40
0.9999999999999999
 40
0.9999999999999999
 40
0.9999999999999999
 10
964.8138233904308
 20
862.5045091991678
 30
0.0
 10
964.8123340543303
 20
862.38216883816
 30
0.0
 10
964.8094321436755
 20
862.1437936339114
 30
0.0
 10
964.794395099635
 20
861.7951514046091
 30
0.0
 10
964.7647753712265
 20
861.4660130199265
 30
0.0
 10
964.7277239693778
 20
861.1555891057352
 30
0.0
 10
964.6764074825815
 20
860.8651716912599
 30
0.0
 10
964.6133099597214
 20
860.5937558090475
 30
0.0
 10
964.5432520789859
 20
860.3401693595265
 30
0.0
 10
964.4567725495921
 20
860.1064897901324
 30
0.0
 10
964.3621194973698
 20
859.8894572807272
 30
0.0
 10
964.2591361918261
 20
859.6867895131164
 30
0.0
 10
964.1488051607731
 20
859.4966951298486
 30
0.0
 10
964.0286023150519
 20
859.3206957082917
 30
0.0
 10
963.9004802277458
 20
859.1575444921251
 30
0.0
 10
963.7616967105047
 20
859.010121354636
 30
0.0
 10
963.6161639445573
 20
858.8748741044345
 30
0.0
 10
963.4620784226511
 20
858.7545275273781
 30
0.0
 10
963.3011377341205
 20
858.6491908310664
 30
0.0
 10
963.1366598440064
 20
858.5549877444657
 30
0.0
 10
962.9657263963554
 20
858.4790272986374
 30
0.0
 10
962.7922110758309
 20
858.4138043478312
 30
0.0
 10
962.6136319532824
 20
858.36397474352
 30
0.0
 10
962.4302116317066
 20
858.3295202166158
 30
0.0
 10
962.242883092441
 20
858.3053559915762
 30
0.0
 10
962.1162509436838
 20
858.3035126090042
 30
0.0
 10
962.0526054417128
 20
858.3025861222449
 30
0.0
  0
CIRCLE
  5
AD
330
1F
100
AcDbEntity
  8
0
  6
Continuous
 62
     7
370
    25
100
AcDbCircle
 10
906.8409945633
 20
952.2582128627
 30
0.0
 40
16.49999999999998
  0
CIRCLE
  5
AE
330
1F
100
AcDbEntity
  8
0
  6
Continuous
 62
     7
370
    25
100
AcDbCircle
 10
1073.4631995981
 20
907.6119275825
 30
0.0
 40
16.50000000000011
  0
CIRCLE
  5
AF
330
1F
100
AcDbEntity
  8
0
  6
Continuous
 62
     7
370
    25
100
AcDbCircle
 10
1118.1094848783
 20
830.282293108
 30
0.0
 40
16.49999999999998
  0
CIRCLE
  5
B0
330
1F
100
AcDbEntity
  8
0
  6
Continuous
 62
     7
370
    25
100
AcDbCircle
 10
1118.1094848783
 20
740.9897225476
 30
0.0
 40
16.5
  0
CIRCLE
  5
B1
330
1F
100
AcDbEntity
  8
0
  6
Continuous
 62
     7
370
    25
100
AcDbCircle
 10
1073.4631995981
 20
663.6600880731
 30
0.0
 40
16.49999999999996
  0
CIRCLE
  5
B2
330
1F
100
AcDbEntity
  8
0
  6
Continuous
 62
     7
370
    25
100
AcDbCircle
 10
996.1335651236
 20
619.0138027929
 30
0.0
 40
16.50000000000003
  0
CIRCLE
  5
B3
330
1F
100
AcDbEntity
  8
0
  6
Continuous
 62
     7
370
    25
100
AcDbCircle
 10
906.8409945633
 20
619.0138027929
 30
0.0
 40
16.5
  0
CIRCLE
  5
B4
330
1F
100
AcDbEntity
  8
0
  6
Continuous
 62
     7
370
    25
100
AcDbCircle
 10
829.5113600888
 20
663.6600880731
 30
0.0
 40
16.50000000000002
  0
CIRCLE
  5
B5
330
1F
100
AcDbEntity
  8
0
  6
Continuous
 62
     7
370
    25
100
AcDbCircle
 10
784.8650748086
 20
740.9897225476
 30
0.0
 40
16.50000000000013
  0
CIRCLE
  5
B6
330
1F
100
AcDbEntity
  8
0
  6
Continuous
 62
     7
370
    25
100
AcDbCircle
 10
784.8650748086
 20
830.282293108
 30
0.0
 40
16.50000000000011
  0
CIRCLE
  5
B7
330
1F
100
AcDbEntity
  8
0
  6
Continuous
 62
     7
370
    25
100
AcDbCircle
 10
829.5113600888
 20
907.6119275825
 30
0.0
 40
16.50000000000007
  0
CIRCLE
  5
B8
330
1F
100
AcDbEntity
  8
0
  6
Continuous
 62
     7
370
    25
100
AcDbCircle
 10
996.1335651236
 20
952.2582128627
 30
0.0
 40
16.49999999999989
  0
CIRCLE
  5
B9
330
1F
100
AcDbEntity
  8
0
  6
Continuous
 62
     7
370
    25
100
AcDbCircle
 10
951.4872798434
 20
785.6360078278
 30
0.0
 40
202.5
  0
LINE
  5
BA
330
1F
100
AcDbEntity
  8
0
  6
Continuous
 62
     7
370
    25
100
AcDbLine
 10
966.9676695443
 20
862.3682912505
 30
0.0
 11
966.9676695443
 21
858.5077143274
 31
0.0
  0
LINE
  5
BB
330
1F
100
AcDbEntity
  8
0
  6
Continuous
 62
     7
370
    25
100
AcDbLine
 10
970.6776054417
 20
858.5077143274
 30
0.0
 11
966.9676695443
 21
862.3682912505
 31
0.0
  0
LINE
  5
BC
330
1F
100
AcDbEntity
  8
0
  6
Continuous
 62
     7
370
    25
100
AcDbLine
 10
971.6343362109
 20
858.5077143274
 30
0.0
 11
970.6776054417
 21
858.5077143274
 31
0.0
  0
LINE
  5
BD
330
1F
100
AcDbEntity
  8
0
  6
Continuous
 62
     7
370
    25
100
AcDbLine
 10
967.3955541597
 20
862.9179707376
 30
0.0
 11
971.6343362109
 21
858.5077143274
 31
0.0
  0
LINE
  5
BE
330
1F
100
AcDbEntity
  8
0
  6
Continuous
 62
     7
370
    25
100
AcDbLine
 10
971.3266439033
 20
866.5077143274
 30
0.0
 11
967.3955541597
 21
862.9179707376
 31
0.0
  0
LINE
  5
BF
330
1F
100
AcDbEntity
  8
0
  6
Continuous
 62
     7
370
    25
100
AcDbLine
 10
970.3026054417
 20
866.5077143274
 30
0.0
 11
971.3266439033
 21
866.5077143274
 31
0.0
  0
LINE
  5
C0
330
1F
100
AcDbEntity
  8
0
  6
Continuous
 62
     7
370
    25
100
AcDbLine
 10
966.9676695443
 20
863.4612399684
 30
0.0
 11
970.3026054417
 21
866.5077143274
 31
0.0
  0
LINE
  5
C1
330
1F
100
AcDbEntity
  8
0
  6
Continuous
 62
     7
370
    25
100
AcDbLine
 10
966.9676695443
 20
866.5077143274
 30
0.0
 11
966.9676695443
 21
863.4612399684
 31
0.0
  0
LINE
  5
C2
330
1F
100
AcDbEntity
  8
0
  6
Continuous
 62
     7
370
    25
100
AcDbLine
 10
966.2497208263
 20
866.5077143274
 30
0.0
 11
966.9676695443
 21
866.5077143274
 31
0.0
  0
LINE
  5
C3
330
1F
100
AcDbEntity
  8
0
  6
Continuous
 62
     7
370
    25
100
AcDbLine
 10
966.2497208263
 20
858.5077143274
 30
0.0
 11
966.2497208263
 21
866.5077143274
 31
0.0
  0
LINE
  5
C4
330
1F
100
AcDbEntity
  8
0
  6
Continuous
 62
     7
370
    25
100
AcDbLine
 10
966.9676695443
 20
858.5077143274
 30
0.0
 11
966.2497208263
 21
858.5077143274
 31
0.0
  0
LINE
  5
C5
330
1F
100
AcDbEntity
  8
0
  6
Continuous
 62
     7
370
    25
100
AcDbLine
 10
957.0189515956
 20
858.5077143274
 30
0.0
 11
957.0189515956
 21
860.3538681735
 31
0.0
  0
LINE
  5
C6
330
1F
100
AcDbEntity
  8
0
  6
Continuous
 62
     7
370
    25
100
AcDbLine
 10
957.7369003135
 20
858.5077143274
 30
0.0
 11
957.0189515956
 21
858.5077143274
 31
0.0
  0
LINE
  5
C7
330
1F
100
AcDbEntity
  8
0
  6
Continuous
 62
     7
370
    25
100
AcDbLine
 10
957.7369003135
 20
860.3538681735
 30
0.0
 11
957.7369003135
 21
858.5077143274
 31
0.0
  0
LINE
  5
C8
330
1F
100
AcDbEntity
  8
0
  6
Continuous
 62
     7
370
    25
100
AcDbLine
 10
958.6599772366
 20
860.3538681735
 30
0.0
 11
957.7369003135
 21
860.3538681735
 31
0.0
  0
LINE
  5
C9
330
1F
100
AcDbEntity
  8
0
  6
Continuous
 62
     7
370
    25
100
AcDbLine
 10
958.6599772366
 20
861.174380994
 30
0.0
 11
958.6599772366
 21
860.3538681735
 31
0.0
  0
LINE
  5
CA
330
1F
100
AcDbEntity
  8
0
  6
Continuous
 62
     7
370
    25
100
AcDbLine
 10
957.7369003135
 20
861.174380994
 30
0.0
 11
958.6599772366
 21
861.174380994
 31
0.0
  0
LINE
  5
CB
330
1F
100
AcDbEntity
  8
0
  6
Continuous
 62
     7
370
    25
100
AcDbLine
 10
957.7369003135
 20
866.7128425325
 30
0.0
 11
957.7369003135
 21
861.174380994
 31
0.0
  0
LINE
  5
CC
330
1F
100
AcDbEntity
  8
0
  6
Continuous
 62
     7
370
    25
100
AcDbLine
 10
957.5910669802
 20
866.7128425325
 30
0.0
 11
957.7369003135
 21
866.7128425325
 31
0.0
  0
LINE
  5
CD
330
1F
100
AcDbEntity
  8
0
  6
Continuous
 62
     7
370
    25
100
AcDbLine
 10
953.2240798007
 20
860.3538681735
 30
0.0
 11
957.5910669802
 21
866.7128425325
 31
0.0
  0
LINE
  5
CE
330
1F
100
AcDbEntity
  8
0
  6
Continuous
 62
     7
370
    25
100
AcDbLine
 10
957.0189515956
 20
860.3538681735
 30
0.0
 11
953.2240798007
 21
860.3538681735
 31
0.0
  0
SPLINE
  5
CF
330
1F
100
AcDbEntity
  8
0
  6
Continuous
 62
     7
370
    25
100
AcDbSpline
210
0.0
220
0.0
230
1.0
 70
     8
 71
     3
 72
    19
 73
    15
 74
     0
 42
0.00000001
 43
0.00000001
 40
0.0
 40
0.0
 40
0.0
 40
0.0
 40
0.0969723103815161
 40
0.1877734389628681
 40
0.2723961390136943
 40
0.35132099737529
 40
0.4243347744514666
 40
0.4919087840005267
 40
0.5542332197968021
 40
0.6112676582441573
 40
0.7163478449915549
 40
0.8145400858216161
 40
0.9084954561491877
 40
1.0
 40
1.0
 40
1.0
 40
1.0
 10
950.4163874929949
 20
863.0493809940397
 30
0.0
 10
950.5032124376976
 20
862.9862007436404
 30
0.0
 10
950.6713369094198
 20
862.8638609453479
 30
0.0
 10
950.9105542349317
 20
862.6800536767138
 30
0.0
 10
951.12745436772
 20
862.500287348544
 30
0.0
 10
951.3227988330233
 20
862.3257099608958
 30
0.0
 10
951.4985174808857
 20
862.157645748316
 30
0.0
 10
951.652660842428
 20
861.9940727647042
 30
0.0
 10
951.7867995403644
 20
861.8361628842877
 30
0.0
 10
951.931209182559
 20
861.6337112827078
 30
0.0
 10
952.0787699128915
 20
861.3850688043665
 30
0.0
 10
952.2054933584369
 20
861.0804328305487
 30
0.0
 10
952.2853981526188
 20
860.7746126694128
 30
0.0
 10
952.295847330749
 20
860.5690656146127
 30
0.0
 10
952.3010028776102
 20
860.467650224809
 30
0.0
  0
SPLINE
  5
D0
330
1F
100
AcDbEntity
  8
0
  6
Continuous
 62
     7
370
    25
100
AcDbSpline
210
0.0
220
0.0
230
1.0
 70
     8
 71
     3
 72
    15
 73
    11
 74
     0
 42
0.00000001
 43
0.00000001
 40
0.0
 40
0.0
 40
0.0
 40
0.0
 40
0.0525942815291342
 40
0.1249519739750351
 40
0.2180938989285908
 40
0.3335024107325172
 40
0.4687891785044455
 40
0.6249375859646001
 40
0.8016830479282234
 40
0.9999999999999999
 40
0.9999999999999999
 40
0.9999999999999999
 40
0.9999999999999999
 10
949.3410669801743
 20
863.845855353014
 30
0.0
 10
949.3585786885347
 20
863.8302278654351
 30
0.0
 10
949.4001824991334
 20
863.793100532111
 30
0.0
 10
949.4762417579669
 20
863.7323181763538
 30
0.0
 10
949.5766824396354
 20
863.6573404111076
 30
0.0
 10
949.698881756611
 20
863.5645694020224
 30
0.0
 10
949.84509286913
 20
863.4569546314685
 30
0.0
 10
950.0153318546035
 20
863.3358720893799
 30
0.0
 10
950.2077010725119
 20
863.1973910402213
 30
0.0
 10
950.3442083088537
 20
863.1005738045415
 30
0.0
 10
950.4163874929949
 20
863.0493809940397
 30
0.0
  0
SPLINE
  5
D1
330
1F
100
AcDbEntity
  8
0
  6
Continuous
 62
     7
370
    25
100
AcDbSpline
210
0.0
220
0.0
230
1.0
 70
     8
 71
     3
 72
    15
 73
    11
 74
     0
 42
0.00000001
 43
0.00000001
 40
0.0
 40
0.0
 40
0.0
 40
0.0
 40
0.1072852142689599
 40
0.21474586096964
 40
0.3229385595552854
 40
0.4341161625174687
 40
0.553412310962798
 40
0.6860729848107318
 40
0.8342559920595854
 40
1.0
 40
1.0
 40
1.0
 40
1.0
 10
948.8138233904308
 20
864.8795091991678
 30
0.0
 10
948.8147219655963
 20
864.8366486767897
 30
0.0
 10
948.8165205852745
 20
864.7508575466471
 30
0.0
 10
948.841605837129
 20
864.6241114393239
 30
0.0
 10
948.8738328747469
 20
864.4976855206528
 30
0.0
 10
948.9249017473262
 20
864.3721481884603
 30
0.0
 10
948.995405298448
 20
864.2453039391979
 30
0.0
 10
949.0879885576625
 20
864.1149685390642
 30
0.0
 10
949.2045904137768
 20
863.9799932049565
 30
0.0
 10
949.2939092991514
 20
863.8922049220424
 30
0.0
 10
949.3410669801743
 20
863.845855353014
 30
0.0
  0
SPLINE
  5
D2
330
1F
100
AcDbEntity
  8
0
  6
Continuous
 62
     7
370
    25
100
AcDbSpline
210
0.0
220
0.0
230
1.0
 70
     8
 71
     3
 72
    15
 73
    11
 74
     0
 42
0.00000001
 43
0.00000001
 40
0.0
 40
0.0
 40
0.0
 40
0.0
 40
0.143073083730361
 40
0.2759029640930106
 40
0.4023708562739986
 40
0.5284136450935926
 40
0.6503563791869509
 40
0.7658950861246917
 40
0.8807741308440217
 40
1.0
 40
1.0
 40
1.0
 40
1.0
 10
949.9869003135076
 20
865.8923297119885
 30
0.0
 10
949.9042568337237
 20
865.8895601120984
 30
0.0
 10
949.7448866682053
 20
865.8842191996144
 30
0.0
 10
949.5186232713879
 20
865.8258878046621
 30
0.0
 10
949.3149800141006
 20
865.7340435525344
 30
0.0
 10
949.1400027225435
 20
865.6053236026014
 30
0.0
 10
948.9943182035879
 20
865.452818476464
 30
0.0
 10
948.8889342978396
 20
865.2773239505785
 30
0.0
 10
948.8255053502921
 20
865.0835356017682
 30
0.0
 10
948.8177652825183
 20
864.94835467301
 30
0.0
 10
948.8138233904308
 20
864.8795091991678
 30
0.0
  0
SPLINE
  5
D3
330
1F
100
AcDbEntity
  8
0
  6
Continuous
 62
     7
370
    25
100
AcDbSpline
210
0.0
220
0.0
230
1.0
 70
     8
 71
     3
 72
    19
 73
    15
 74
     0
 42
0.00000001
 43
0.00000001
 40
0.0
 40
0.0
 40
0.0
 40
0.0
 40
0.0984694310255615
 40
0.1896291011376355
 40
0.2741840894379686
 40
0.352183160967155
 40
0.4231988731834675
 40
0.4885509460005333
 40
0.5484733460279372
 40
0.6014401636178719
 40
0.7011980824257658
 40
0.7995918021381837
 40
0.8985450984822274
 40
1.0
 40
1.0
 40
1.0
 40
1.0
 10
951.5494003135077
 20
864.8666886863474
 30
0.0
 10
951.5102096107138
 20
864.9171771215991
 30
0.0
 10
951.4347374802633
 20
865.0144060432544
 30
0.0
 10
951.3201557960106
 20
865.1505690503545
 30
0.0
 10
951.2121588864786
 20
865.2749495749988
 30
0.0
 10
951.1057579726861
 20
865.3829841533533
 30
0.0
 10
951.0065725293354
 20
865.4805890295542
 30
0.0
 10
950.9103050041995
 20
865.56415418801
 30
0.0
 10
950.8183407727997
 20
865.6344984061359
 30
0.0
 10
950.7024164056088
 20
865.7095694003283
 30
0.0
 10
950.5567759065843
 20
865.7839842655964
 30
0.0
 10
950.3739541094659
 20
865.8469535869169
 30
0.0
 10
950.1828997665289
 20
865.8847937284455
 30
0.0
 10
950.0527748945501
 20
865.8897969000291
 30
0.0
 10
949.9869003135076
 20
865.8923297119885
 30
0.0
  0
LINE
  5
D4
330
1F
100
AcDbEntity
  8
0
  6
Continuous
 62
     7
370
    25
100
AcDbLine
 10
952.198438775
 20
865.3586758658
 30
0.0
 11
951.5494003135
 21
864.8666886863
 31
0.0
  0
SPLINE
  5
D5
330
1F
100
AcDbEntity
  8
0
  6
Continuous
 62
     7
370
    25
100
AcDbSpline
210
0.0
220
0.0
230
1.0
 70
     8
 71
     3
 72
    19
 73
    15
 74
     0
 42
0.00000001
 43
0.00000001
 40
0.0
 40
0.0
 40
0.0
 40
0.0
 40
0.1072327993600894
 40
0.2132518127818508
 40
0.3188304473075882
 40
0.4267935306342756
 40
0.4836459507827173
 40
0.5436038220211421
 40
0.6083076495640865
 40
0.6771267602600389
 40
0.7506856360204986
 40
0.8287134184432884
 40
0.9121903482234538
 40
1.0
 40
1.0
 40
1.0
 40
1.0
 10
950.0670285186359
 20
866.7128425325012
 30
0.0
 10
950.1613007478885
 20
866.7095909859888
 30
0.0
 10
950.3487781233098
 20
866.7031246977613
 30
0.0
 10
950.6245477588973
 20
866.6469017690304
 30
0.0
 10
950.8900579678129
 20
866.5538716620864
 30
0.0
 10
951.1036425731146
 20
866.4482975867091
 30
0.0
 10
951.2708031707416
 20
866.342854350793
 30
0.0
 10
951.398283702602
 20
866.2468090381557
 30
0.0
 10
951.5274664472571
 20
866.1362373613462
 30
0.0
 10
951.6593934297229
 20
866.0108447988757
 30
0.0
 10
951.7918292227265
 20
865.8694807963851
 30
0.0
 10
951.9267399707132
 20
865.7131135074499
 30
0.0
 10
952.0644411565662
 20
865.5426985226169
 30
0.0
 10
952.1530259797066
 20
865.4210425208923
 30
0.0
 10
952.1984387750462
 20
865.3586758658346
 30
0.0
  0
SPLINE
  5
D6
330
1F
100
AcDbEntity
  8
0
  6
Continuous
 62
     7
370
    25
100
AcDbSpline
210
0.0
220
0.0
230
1.0
 70
     8
 71
     3
 72
    19
 73
    15
 74
     0
 42
0.00000001
 43
0.00000001
 40
0.0
 40
0.0
 40
0.0
 40
0.0
 40
0.0837853706537116
 40
0.165779887922145
 40
0.2462800078932649
 40
0.3274609277363923
 40
0.4087969540320697
 40
0.4897152412309894
 40
0.5713760321300535
 40
0.655523321111277
 40
0.7410194827999738
 40
0.8265467605037612
 40
0.9119888516548338
 40
1.0
 40
1.0
 40
1.0
 40
1.0
 10
948.0958746724821
 20
864.845855353014
 30
0.0
 10
948.098858007324
 20
864.9304948377335
 30
0.0
 10
948.1047609103233
 20
865.0979646976991
 30
0.0
 10
948.1546820926559
 20
865.3426065958525
 30
0.0
 10
948.2334772781518
 20
865.5761755494927
 30
0.0
 10
948.3438655932639
 20
865.7963591694348
 30
0.0
 10
948.4861681142199
 20
865.9974242686079
 30
0.0
 10
948.6508446270548
 20
866.181683667424
 30
0.0
 10
948.846985167026
 20
866.3365832839289
 30
0.0
 10
949.0621911630567
 20
866.4719251316757
 30
0.0
 10
949.29774858496
 20
866.5778586750062
 30
0.0
 10
949.5445849355831
 20
866.6577694868015
 30
0.0
 10
949.8030925287836
 20
866.7030477900951
 30
0.0
 10
949.9781854079228
 20
866.709545538467
 30
0.0
 10
950.0670285186359
 20
866.7128425325012
 30
0.0
  0
SPLINE
  5
D7
330
1F
100
AcDbEntity
  8
0
  6
Continuous
 62
     7
370
    25
100
AcDbSpline
210
0.0
220
0.0
230
1.0
 70
     8
 71
     3
 72
    15
 73
    11
 74
     0
 42
0.00000001
 43
0.00000001
 40
0.0
 40
0.0
 40
0.0
 40
0.0
 40
0.1335067689985155
 40
0.2625589787303678
 40
0.3882644471488824
 40
0.5126673546814278
 40
0.6337222699657565
 40
0.7553938601370976
 40
0.8775529450912811
 40
1.0
 40
1.0
 40
1.0
 40
1.0
 10
948.5429900570974
 20
863.6279066350654
 30
0.0
 10
948.5076242394263
 20
863.6749947193035
 30
0.0
 10
948.4380726126483
 20
863.7675997564914
 30
0.0
 10
948.3462646001566
 20
863.9123422885318
 30
0.0
 10
948.268232228046
 20
864.0605097523244
 30
0.0
 10
948.2070611831632
 20
864.2125002999006
 30
0.0
 10
948.1555498258156
 20
864.3661801373419
 30
0.0
 10
948.1209031270321
 20
864.5235544132267
 30
0.0
 10
948.0992085055103
 20
864.6839169697171
 30
0.0
 10
948.0969868220061
 20
864.7918335425685
 30
0.0
 10
948.0958746724821
 20
864.845855353014
 30
0.0
  0
SPLINE
  5
D8
330
1F
100
AcDbEntity
  8
0
  6
Continuous
 62
     7
370
    25
100
AcDbSpline
210
0.0
220
0.0
230
1.0
 70
     8
 71
     3
 72
    15
 73
    11
 74
     0
 42
0.00000001
 43
0.00000001
 40
0.0
 40
0.0
 40
0.0
 40
0.0
 40
0.181535301376285
 40
0.3470816724816275
 40
0.4955678164315517
 40
0.6283573018772124
 40
0.7455196699921548
 40
0.845830750757651
 40
0.9307818073847572
 40
1.0
 40
1.0
 40
1.0
 40
1.0
 10
949.8538874929948
 20
862.5397656094243
 30
0.0
 10
949.7697183588713
 20
862.5997166668399
 30
0.0
 10
949.6087933838309
 20
862.7143385233995
 30
0.0
 10
949.3837451956107
 20
862.8844511725736
 30
0.0
 10
949.1825007087308
 20
863.0399800172407
 30
0.0
 10
949.005954385249
 20
863.1823891877608
 30
0.0
 10
948.8541838781722
 20
863.3116979985718
 30
0.0
 10
948.7259932244257
 20
863.4266647166111
 30
0.0
 10
948.6246479510644
 20
863.5303985700245
 30
0.0
 10
948.5682923381305
 20
863.5976930654421
 30
0.0
 10
948.5429900570974
 20
863.6279066350654
 30
0.0
  0
SPLINE
  5
D9
330
1F
100
AcDbEntity
  8
0
  6
Continuous
 62
     7
370
    25
100
AcDbSpline
210
0.0
220
0.0
230
1.0
 70
     8
 71
     3
 72
    15
 73
    11
 74
     0
 42
0.00000001
 43
0.00000001
 40
0.0
 40
0.0
 40
0.0
 40
0.0
 40
0.0902792146500148
 40
0.1895299184469602
 40
0.2991978724002899
 40
0.4189258867738195
 40
0.5483762854012455
 40
0.6881363695386787
 40
0.8390835016589211
 40
1.0
 40
1.0
 40
1.0
 40
1.0
 10
951.2961951853025
 20
861.2641245837833
 30
0.0
 10
951.260376638604
 20
861.3099458948766
 30
0.0
 10
951.185180080227
 20
861.4061420058898
 30
0.0
 10
951.0559057657288
 20
861.549331115548
 30
0.0
 10
950.9042117901736
 20
861.6970303588669
 30
0.0
 10
950.735289378947
 20
861.854879631894
 30
0.0
 10
950.5429851758827
 20
862.0155374528953
 30
0.0
 10
950.3333222858182
 20
862.1866649453272
 30
0.0
 10
950.1009477510386
 20
862.361754264291
 30
0.0
 10
949.9379774730546
 20
862.4791772712546
 30
0.0
 10
949.8538874929948
 20
862.5397656094243
 30
0.0
  0
SPLINE
  5
DA
330
1F
100
AcDbEntity
  8
0
  6
Continuous
 62
     7
370
    25
100
AcDbSpline
210
0.0
220
0.0
230
1.0
 70
     8
 71
     3
 72
    11
 73
     7
 74
     0
 42
0.00000001
 43
0.00000001
 40
0.0
 40
0.0
 40
0.0
 40
0.0
 40
0.2347233736739069
 40
0.4771583189289953
 40
0.728556284203051
 40
0.9999999999999999
 40
0.9999999999999999
 40
0.9999999999999999
 40
0.9999999999999999
 10
951.5830541596615
 20
860.478868173527
 30
0.0
 10
951.5796843066345
 20
860.5454758300011
 30
0.0
 10
951.572833887862
 20
860.6808794623432
 30
0.0
 10
951.514933361982
 20
860.8806500976666
 30
0.0
 10
951.423849369197
 20
861.0783474005791
 30
0.0
 10
951.3398204692999
 20
861.200636007614
 30
0.0
 10
951.2961951853025
 20
861.2641245837833
 30
0.0
  0
SPLINE
  5
DB
330
1F
100
AcDbEntity
  8
0
  6
Continuous
 62
     7
370
    25
100
AcDbSpline
210
0.0
220
0.0
230
1.0
 70
     8
 71
     3
 72
    19
 73
    15
 74
     0
 42
0.00000001
 43
0.00000001
 40
0.0
 40
0.0
 40
0.0
 40
0.0
 40
0.0912636048966265
 40
0.1809303110850811
 40
0.2700882198317234
 40
0.3601561333877261
 40
0.4483425324981538
 40
0.5326658421383305
 40
0.6138337041070508
 40
0.6939815272835616
 40
0.772715977089007
 40
0.8493351720622496
 40
0.9239673265752314
 40
1.0
 40
1.0
 40
1.0
 40
1.0
 10
950.0157464673538
 20
859.1230989427577
 30
0.0
 10
950.0858878628087
 20
859.1250524799284
 30
0.0
 10
950.2249433440595
 20
859.1289253719584
 30
0.0
 10
950.4296570422564
 20
859.1661386337855
 30
0.0
 10
950.6284725902931
 20
859.2233092141591
 30
0.0
 10
950.8172923336771
 20
859.3051856290357
 30
0.0
 10
950.9935108811778
 20
859.4042450249784
 30
0.0
 10
951.1480404705186
 20
859.5238934307096
 30
0.0
 10
951.2816315863574
 20
859.6578504723409
 30
0.0
 10
951.390909562511
 20
859.8072965400938
 30
0.0
 10
951.4747496431701
 20
859.9680214511963
 30
0.0
 10
951.539188656686
 20
860.1329950542552
 30
0.0
 10
951.5749488250433
 20
860.3048089246072
 30
0.0
 10
951.5803356900873
 20
860.420489982545
 30
0.0
 10
951.5830541596615
 20
860.478868173527
 30
0.0
  0
SPLINE
  5
DC
330
1F
100
AcDbEntity
  8
0
  6
Continuous
 62
     7
370
    25
100
AcDbSpline
210
0.0
220
0.0
230
1.0
 70
     8
 71
     3
 72
    15
 73
    11
 74
     0
 42
0.00000001
 43
0.00000001
 40
0.0
 40
0.0
 40
0.0
 40
0.0
 40
0.1590042985173804
 40
0.304646099896816
 40
0.4385469045795933
 40
0.5623222987759279
 40
0.6774325425257303
 40
0.7868973929387529
 40
0.8936108891042674
 40
1.0
 40
1.0
 40
1.0
 40
1.0
 10
948.2593362109436
 20
860.456432276091
 30
0.0
 10
948.3222350389448
 20
860.3511422533547
 30
0.0
 10
948.4427467660951
 20
860.1494106329915
 30
0.0
 10
948.6437784441579
 20
859.8768208262971
 30
0.0
 10
948.8520822411086
 20
859.6451358965622
 30
0.0
 10
949.069200717793
 20
859.4557036507568
 30
0.0
 10
949.2938085992156
 20
859.3065633381909
 30
0.0
 10
949.5273721506138
 20
859.20095823712
 30
0.0
 10
949.7691042893828
 20
859.1350931505568
 30
0.0
 10
949.9336158813358
 20
859.1270929527176
 30
0.0
 10
950.0157464673538
 20
859.1230989427577
 30
0.0
  0
LINE
  5
DD
330
1F
100
AcDbEntity
  8
0
  6
Continuous
 62
     7
370
    25
100
AcDbLine
 10
947.5830541597
 20
860.0509835581
 30
0.0
 11
948.2593362109
 21
860.4564322761
 31
0.0
  0
SPLINE
  5
DE
330
1F
100
AcDbEntity
  8
0
  6
Continuous
 62
     7
370
    25
100
AcDbSpline
210
0.0
220
0.0
230
1.0
 70
     8
 71
     3
 72
    23
 73
    19
 74
     0
 42
0.00000001
 43
0.00000001
 40
0.0
 40
0.0
 40
0.0
 40
0.0
 40
0.0572082694335104
 40
0.1136960596574913
 40
0.1691779164171951
 40
0.2241592165805421
 40
0.2787198783810438
 40
0.3337942174469891
 40
0.389241459340004
 40
0.4458220733936206
 40
0.5037042811090199
 40
0.5642938918193638
 40
0.6279754158952224
 40
0.6950382596840499
 40
0.7653727258510108
 40
0.8396114430907339
 40
0.9175377500777876
 40
0.9999999999999999
 40
0.9999999999999999
 40
0.9999999999999999
 40
0.9999999999999999
 10
950.0157464673538
 20
858.3025861222449
 30
0.0
 10
949.9553228262544
 20
858.3037545373246
 30
0.0
 10
949.8352365175584
 20
858.3060766525001
 30
0.0
 10
949.6576148447054
 20
858.3266052934651
 30
0.0
 10
949.4835814979671
 20
858.3556501016736
 30
0.0
 10
949.3153202818891
 20
858.4017622616209
 30
0.0
 10
949.1506633409937
 20
858.457709637717
 30
0.0
 10
948.9903268049342
 20
858.5265972550843
 30
0.0
 10
948.8342329675494
 20
858.6091508583926
 30
0.0
 10
948.6815070638504
 20
858.7035394861152
 30
0.0
 10
948.5325375219393
 20
858.8133857594034
 30
0.0
 10
948.3887215952446
 20
858.9413251798336
 30
0.0
 10
948.2453405997857
 20
859.0838291912422
 30
0.0
 10
948.1066265510506
 20
859.2447676217834
 30
0.0
 10
947.9697736497802
 20
859.421540382601
 30
0.0
 10
947.8374801422682
 20
859.6158013732238
 30
0.0
 10
947.7070076447162
 20
859.82649246753
 30
0.0
 10
947.6251437182538
 20
859.9747555206038
 30
0.0
 10
947.5830541596615
 20
860.0509835581422
 30
0.0
  0
SPLINE
  5
DF
330
1F
100
AcDbEntity
  8
0
  6
Continuous
 62
     7
370
    25
100
AcDbSpline
210
0.0
220
0.0
230
1.0
 70
     8
 71
     3
 72
    23
 73
    19
 74
     0
 42
0.00000001
 43
0.00000001
 40
0.0
 40
0.0
 40
0.0
 40
0.0
 40
0.0614842551968907
 40
0.121774527702212
 40
0.1809195598139335
 40
0.2402561150782733
 40
0.3001144444023517
 40
0.361145947612612
 40
0.4235005824125854
 40
0.4886693612807191
 40
0.5539541046535623
 40
0.6175812610152625
 40
0.6802384268167404
 40
0.7421873887724549
 40
0.804663211769293
 40
0.8682589893126633
 40
0.9330202571803768
 40
1.0
 40
1.0
 40
1.0
 40
1.0
 10
952.3010028776102
 20
860.467650224809
 30
0.0
 10
952.2995008476126
 20
860.3959282474476
 30
0.0
 10
952.296525956025
 20
860.2538770850634
 30
0.0
 10
952.2623295816738
 20
860.0452940521899
 30
0.0
 10
952.2122274898736
 20
859.842709207198
 30
0.0
 10
952.1367138122725
 20
859.6486266644666
 30
0.0
 10
952.0445465933926
 20
859.459495778333
 30
0.0
 10
951.927595169699
 20
859.280277720251
 30
0.0
 10
951.7920347474413
 20
859.1070059520522
 30
0.0
 10
951.6365289990885
 20
858.9443008289546
 30
0.0
 10
951.4663669366507
 20
858.7949380952738
 30
0.0
 10
951.2865184917073
 20
858.662071669051
 30
0.0
 10
951.0966892964292
 20
858.5512869298617
 30
0.0
 10
950.8979091440104
 20
858.4608850051761
 30
0.0
 10
950.6901323743942
 20
858.3901798222589
 30
0.0
 10
950.4734288684868
 20
858.3389504071026
 30
0.0
 10
950.2474414142706
 20
858.3075087821576
 30
0.0
 10
950.0938403135336
 20
858.3042453273813
 30
0.0
 10
950.0157464673538
 20
858.3025861222449
 30
0.0
  0
LINE
  5
E0
330
1F
100
AcDbEntity
  8
0
  6
Continuous
 62
     7
370
    25
100
AcDbLine
 10
946.3522849289
 20
866.5077143274
 30
0.0
 11
946.3522849289
 21
858.5077143274
 31
0.0
  0
LINE
  5
E1
330
1F
100
AcDbEntity
  8
0
  6
Continuous
 62
     7
370
    25
100
AcDbLine
 10
945.6343362109
 20
866.5077143274
 30
0.0
 11
946.3522849289
 21
866.5077143274
 31
0.0
  0
LINE
  5
E2
330
1F
100
AcDbEntity
  8
0
  6
Continuous
 62
     7
370
    25
100
AcDbLine
 10
945.6343362109
 20
858.5077143274
 30
0.0
 11
945.6343362109
 21
866.5077143274
 31
0.0
  0
LINE
  5
E3
330
1F
100
AcDbEntity
  8
0
  6
Continuous
 62
     7
370
    25
100
AcDbLine
 10
946.3522849289
 20
858.5077143274
 30
0.0
 11
945.6343362109
 21
858.5077143274
 31
0.0
  0
SPLINE
  5
E4
330
1F
100
AcDbEntity
  8
0
  6
Continuous
 62
     7
370
    25
100
AcDbSpline
210
0.0
220
0.0
230
1.0
 70
     8
 71
     3
 72
    11
 73
     7
 74
     0
 42
0.00000001
 43
0.00000001
 40
0.0
 40
0.0
 40
0.0
 40
0.0
 40
0.2629516255674855
 40
0.5157066923583614
 40
0.7621092269530989
 40
1.0
 40
1.0
 40
1.0
 40
1.0
 10
941.2336951853025
 20
859.2384835581422
 30
0.0
 10
941.2777736117234
 20
859.2212047985086
 30
0.0
 10
941.3642212214113
 20
859.1873173031962
 30
0.0
 10
941.49639283208
 20
859.1494981070566
 30
0.0
 10
941.6278100594199
 20
859.1288297415248
 30
0.0
 10
941.7149362168295
 20
859.1249866943509
 30
0.0
 10
941.757733646841
 20
859.1230989427577
 30
0.0
  0
SPLINE
  5
E5
330
1F
100
AcDbEntity
  8
0
  6
Continuous
 62
     7
370
    25
100
AcDbSpline
210
0.0
220
0.0
230
1.0
 70
     8
 71
     3
 72
    11
 73
     7
 74
     0
 42
0.00000001
 43
0.00000001
 40
0.0
 40
0.0
 40
0.0
 40
0.0
 40
0.2991842876765383
 40
0.5648989463568108
 40
0.7985478688426153
 40
1.0
 40
1.0
 40
1.0
 40
1.0
 10
940.2112592878666
 20
859.8410476607063
 30
0.0
 10
940.3088654113466
 20
859.7737393265561
 30
0.0
 10
940.49315849953
 20
859.6466524152152
 30
0.0
 10
940.764025792984
 20
859.4831630427785
 30
0.0
 10
941.004019285569
 20
859.3429912357901
 30
0.0
 10
941.1610088794579
 20
859.2715574550093
 30
0.0
 10
941.2336951853025
 20
859.2384835581422
 30
0.0
  0
LINE
  5
E6
330
1F
100
AcDbEntity
  8
0
  6
Continuous
 62
     7
370
    25
100
AcDbLine
 10
939.7881823648
 20
859.2256630453
 30
0.0
 11
940.2112592879
 21
859.8410476607
 31
0.0
  0
SPLINE
  5
E7
330
1F
100
AcDbEntity
  8
0
  6
Continuous
 62
     7
370
    25
100
AcDbSpline
210
0.0
220
0.0
230
1.0
 70
     8
 71
     3
 72
    15
 73
    11
 74
     0
 42
0.00000001
 43
0.00000001
 40
0.0
 40
0.0
 40
0.0
 40
0.0
 40
0.1060709021051295
 40
0.2134216804124504
 40
0.3216854881303261
 40
0.4338579390981598
 40
0.5540812827743542
 40
0.6875870439665601
 40
0.8364658500651109
 40
1.0
 40
1.0
 40
1.0
 40
1.0
 10
941.717669544277
 20
858.3025861222449
 30
0.0
 10
941.6400504396746
 20
858.3050560859685
 30
0.0
 10
941.4838756602811
 20
858.3100258165731
 30
0.0
 10
941.2514397545391
 20
858.3505325892583
 30
0.0
 10
941.0196638097233
 20
858.4129692597642
 30
0.0
 10
940.7873176409456
 20
858.5044037635327
 30
0.0
 10
940.5498108035787
 20
858.6287594172118
 30
0.0
 10
940.3039265825647
 20
858.7914675693924
 30
0.0
 10
940.0465021460873
 20
858.9922253440147
 30
0.0
 10
939.876940349272
 20
859.1454544768333
 30
0.0
 10
939.7881823647897
 20
859.2256630453218
 30
0.0
  0
SPLINE
  5
E8
330
1F
100
AcDbEntity
  8
0
  6
Continuous
 62
     7
370
    25
100
AcDbSpline
210
0.0
220
0.0
230
1.0
 70
     8
 71
     3
 72
    23
 73
    19
 74
     0
 42
0.00000001
 43
0.00000001
 40
0.0
 40
0.0
 40
0.0
 40
0.0
 40
0.0773606839426999
 40
0.1485419530250433
 40
0.214007737252132
 40
0.2729945033606876
 40
0.3264091957674681
 40
0.3738804007298079
 40
0.4160199382657599
 40
0.4521255195126318
 40
0.5180017107054544
 40
0.5823669297335147
 40
0.6470437823418057
 40
0.7133304210644734
 40
0.7809119703509683
 40
0.8503949591306456
 40
0.9229229735922768
 40
1.0
 40
1.0
 40
1.0
 40
1.0
 10
943.5830541596615
 20
861.1054707376294
 30
0.0
 10
943.5823366313601
 20
861.0055732041534
 30
0.0
 10
943.580958889466
 20
860.8137577499892
 30
0.0
 10
943.5733830939564
 20
860.5374745593798
 30
0.0
 10
943.5593637158845
 20
860.2851987052005
 30
0.0
 10
943.5389408301942
 20
860.0563565406457
 30
0.0
 10
943.5116945837403
 20
859.8516649857022
 30
0.0
 10
943.4805150908945
 20
859.6695424306968
 30
0.0
 10
943.4427715508355
 20
859.5115088710903
 30
0.0
 10
943.3859339135072
 20
859.3340566294037
 30
0.0
 10
943.2927363168304
 20
859.1394422185845
 30
0.0
 10
943.1524688010705
 20
858.9292590171998
 30
0.0
 10
942.9782224092198
 20
858.7454112214276
 30
0.0
 10
942.7763914762505
 20
858.5857478501918
 30
0.0
 10
942.5452119926396
 20
858.4585313217889
 30
0.0
 10
942.2894446346414
 20
858.3672051997092
 30
0.0
 10
942.0106638633317
 20
858.311500384568
 30
0.0
 10
941.8172942350977
 20
858.3056171729174
 30
0.0
 10
941.717669544277
 20
858.3025861222449
 30
0.0
  0
LINE
  5
E9
330
1F
100
AcDbEntity
  8
0
  6
Continuous
 62
     7
370
    25
100
AcDbLine
 10
943.5830541597
 20
866.5077143274
 30
0.0
 11
943.5830541597
 21
861.1054707376
 31
0.0
  0
LINE
  5
EA
330
1F
100
AcDbEntity
  8
0
  6
Continuous
 62
     7
370
    25
100
AcDbLine
 10
942.8651054417
 20
866.5077143274
 30
0.0
 11
943.5830541597
 21
866.5077143274
 31
0.0
  0
LINE
  5
EB
330
1F
100
AcDbEntity
  8
0
  6
Continuous
 62
     7
370
    25
100
AcDbLine
 10
942.8651054417
 20
861.1855989428
 30
0.0
 11
942.8651054417
 21
866.5077143274
 31
0.0
  0
SPLINE
  5
EC
330
1F
100
AcDbEntity
  8
0
  6
Continuous
 62
     7
370
    25
100
AcDbSpline
210
0.0
220
0.0
230
1.0
 70
     8
 71
     3
 72
    23
 73
    19
 74
     0
 42
0.00000001
 43
0.00000001
 40
0.0
 40
0.0
 40
0.0
 40
0.0
 40
0.0623263659914404
 40
0.1231962451944444
 40
0.1840362202545513
 40
0.2469640854288916
 40
0.3106993957895715
 40
0.3732676370734409
 40
0.4365875799673878
 40
0.5021247910366505
 40
0.5390047220341654
 40
0.5832553755259874
 40
0.6344465152828147
 40
0.6926760461021148
 40
0.758570486286528
 40
0.8316586747921159
 40
0.9119171022748382
 40
1.0
 40
1.0
 40
1.0
 40
1.0
 10
941.757733646841
 20
859.1230989427577
 30
0.0
 10
941.813008591818
 20
859.1254366226068
 30
0.0
 10
941.922266777598
 20
859.1300573537419
 30
0.0
 10
942.0810416210453
 20
859.170855697219
 30
0.0
 10
942.2329456923819
 20
859.2331286183935
 30
0.0
 10
942.3725334813671
 20
859.3243087184311
 30
0.0
 10
942.5011857946971
 20
859.4327233943159
 30
0.0
 10
942.6073408246109
 20
859.563822842696
 30
0.0
 10
942.6958373834337
 20
859.709116520425
 30
0.0
 10
942.7490938253778
 20
859.846651272064
 30
0.0
 10
942.7830247328316
 20
859.9720835698313
 30
0.0
 10
942.8045598799337
 20
860.087359308979
 30
0.0
 10
942.8233911036851
 20
860.2221284026954
 30
0.0
 10
942.8398060794599
 20
860.37655171769
 30
0.0
 10
942.8494162978814
 20
860.5509384197055
 30
0.0
 10
942.8601986357668
 20
860.7447764606871
 30
0.0
 10
942.8640963749432
 20
860.9585545457068
 30
0.0
 10
942.8647588226452
 20
861.1076081500948
 30
0.0
 10
942.8651054417128
 20
861.1855989427577
 30
0.0
  0
LINE
  5
ED
330
1F
100
AcDbEntity
  8
0
  6
Continuous
 62
     7
370
    25
100
AcDbLine
 10
938.9676695443
 20
861.9948938146
 30
0.0
 11
938.9676695443
 21
861.174380994
 31
0.0
  0
LINE
  5
EE
330
1F
100
AcDbEntity
  8
0
  6
Continuous
 62
     7
370
    25
100
AcDbLine
 10
935.8907464674
 20
861.9948938146
 30
0.0
 11
938.9676695443
 21
861.9948938146
 31
0.0
  0
LINE
  5
EF
330
1F
100
AcDbEntity
  8
0
  6
Continuous
 62
     7
370
    25
100
AcDbLine
 10
935.8907464674
 20
861.174380994
 30
0.0
 11
935.8907464674
 21
861.9948938146
 31
0.0
  0
LINE
  5
F0
330
1F
100
AcDbEntity
  8
0
  6
Continuous
 62
     7
370
    25
100
AcDbLine
 10
938.9676695443
 20
861.174380994
 30
0.0
 11
935.8907464674
 21
861.174380994
 31
0.0
  0
SPLINE
  5
F1
330
1F
100
AcDbEntity
  8
0
  6
Continuous
 62
     7
370
    25
100
AcDbSpline
210
0.0
220
0.0
230
1.0
 70
     8
 71
     3
 72
    31
 73
    27
 74
     0
 42
0.00000001
 43
0.00000001
 40
0.0
 40
0.0
 40
0.0
 40
0.0
 40
0.0337881161627101
 40
0.0671939323738809
 40
0.0998624108568255
 40
0.1325666121262585
 40
0.1651511732547859
 40
0.197913187355793
 40
0.2313190035669623
 40
0.2650832782673732
 40
0.2992553087581152
 40
0.3343985665049788
 40
0.3699428235093068
 40
0.4062835607000604
 40
0.4440638196985092
 40
0.4829977068727748
 40
0.5233544466133043
 40
0.5655365896041499
 40
0.6096129240658185
 40
0.6563908113764169
 40
0.7058854949364582
 40
0.7583245002617314
 40
0.8138317829411499
 40
0.8727945590393889
 40
0.9347222295400733
 40
1.0
 40
1.0
 40
1.0
 40
1.0
 10
917.8474772365846
 20
866.7128425325012
 30
0.0
 10
917.911101187406
 20
866.7117275263854
 30
0.0
 10
918.0376292077389
 20
866.7095101300329
 30
0.0
 10
918.2246929225867
 20
866.6881982613824
 30
0.0
 10
918.4074350522201
 20
866.6528356943036
 30
0.0
 10
918.5850765121137
 20
866.6027306095432
 30
0.0
 10
918.7590764811829
 20
866.5405690628932
 30
0.0
 10
918.928073984373
 20
866.4626556523579
 30
0.0
 10
919.093118742412
 20
866.3719610984276
 30
0.0
 10
919.2515879710289
 20
866.2653922360125
 30
0.0
 10
919.4052213775342
 20
866.1465756047055
 30
0.0
 10
919.550245292899
 20
866.0122609331551
 30
0.0
 10
919.6866729178075
 20
865.8638044319697
 30
0.0
 10
919.8162164729761
 20
865.7027944573716
 30
0.0
 10
919.9352006951458
 20
865.5261428348948
 30
0.0
 10
920.0485113973982
 20
865.3369220124627
 30
0.0
 10
920.1499331937448
 20
865.1318228929339
 30
0.0
 10
920.2476124512959
 20
864.9142675378686
 30
0.0
 10
920.3319255638427
 20
864.6782363177391
 30
0.0
 10
920.4079626958937
 20
864.4250597222691
 30
0.0
 10
920.4694003383506
 20
864.1517472951758
 30
0.0
 10
920.5205758179808
 20
863.8597330202156
 30
0.0
 10
920.560221294428
 20
863.5479444870952
 30
0.0
 10
920.5890959048932
 20
863.2170500516397
 30
0.0
 10
920.6043486707019
 20
862.8668320158895
 30
0.0
 10
920.6072211306029
 20
862.6273855034844
 30
0.0
 10
920.6086951853025
 20
862.5045091991678
 30
0.0
  0
SPLINE
  5
F2
330
1F
100
AcDbEntity
  8
0
  6
Continuous
 62
     7
370
    25
100
AcDbSpline
210
0.0
220
0.0
230
1.0
 70
     8
 71
     3
 72
    31
 73
    27
 74
     0
 42
0.00000001
 43
0.00000001
 40
0.0
 40
0.0
 40
0.0
 40
0.0
 40
0.0685946222587427
 40
0.1332460424433002
 40
0.1943125864682573
 40
0.2512792231169663
 40
0.3045134392563468
 40
0.3542349066533263
 40
0.4004805887739902
 40
0.4434107549384921
 40
0.4840148686163453
 40
0.5232523007732024
 40
0.5610423727283604
 40
0.5979002393643995
 40
0.6335184888561969
 40
0.6683143511696509
 40
0.7024956712863817
 40
0.7366853535134587
 40
0.7702931693607896
 40
0.8034372550192487
 40
0.8359129516660291
 40
0.8684602457892912
 40
0.9008465382431832
 40
0.9334665246307086
 40
0.9662575752981225
 40
1.0
 40
1.0
 40
1.0
 40
1.0
 10
915.172797749405
 20
862.5045091991678
 30
0.0
 10
915.1735475051936
 20
862.6327317997034
 30
0.0
 10
915.1750039166195
 20
862.8818060494119
 30
0.0
 10
915.1912060216304
 20
863.244742374136
 30
0.0
 10
915.2181210897747
 20
863.5852230346964
 30
0.0
 10
915.2550065134325
 20
863.9032643284985
 30
0.0
 10
915.2998933253722
 20
864.1989483616818
 30
0.0
 10
915.3598144376037
 20
864.4714849494219
 30
0.0
 10
915.427957986438
 20
864.7221354788231
 30
0.0
 10
915.5069350054333
 20
864.9517173039113
 30
0.0
 10
915.5960499517611
 20
865.1633234822475
 30
0.0
 10
915.6930425476972
 20
865.3608667994905
 30
0.0
 10
915.8017620778081
 20
865.5440483591242
 30
0.0
 10
915.9159950216416
 20
865.7157918800842
 30
0.0
 10
916.0403654710766
 20
865.8732860396095
 30
0.0
 10
916.1713341350018
 20
866.018754982509
 30
0.0
 10
916.3140127093266
 20
866.1488366978548
 30
0.0
 10
916.4635510139516
 20
866.2673425318778
 30
0.0
 10
916.6213029325613
 20
866.3712270385566
 30
0.0
 10
916.7827718837457
 20
866.4627304411069
 30
0.0
 10
916.9490692685592
 20
866.5409015662672
 30
0.0
 10
917.1206491151831
 20
866.6023654196604
 30
0.0
 10
917.2959692475024
 20
866.6531330694264
 30
0.0
 10
917.4756425427968
 20
866.6878506640471
 30
0.0
 10
917.6599656603655
 20
866.7096950263086
 30
0.0
 10
917.7843803684756
 20
866.7117834097147
 30
0.0
 10
917.8474772365846
 20
866.7128425325012
 30
0.0
  0
SPLINE
  5
F3
330
1F
100
AcDbEntity
  8
0
  6
Continuous
 62
     7
370
    25
100
AcDbSpline
210
0.0
220
0.0
230
1.0
 70
     8
 71
     3
 72
    31
 73
    27
 74
     0
 42
0.00000001
 43
0.00000001
 40
0.0
 40
0.0
 40
0.0
 40
0.0
 40
0.0337871463469916
 40
0.066621657724293
 40
0.0992848780959716
 40
0.1313611650426512
 40
0.1635851875953425
 40
0.196103926987068
 40
0.2289022543238179
 40
0.2621580559050076
 40
0.2959912222583153
 40
0.3302178457247995
 40
0.3650598258919534
 40
0.4009507373401082
 40
0.4376203820767382
 40
0.4757075294370923
 40
0.5153806916250494
 40
0.5564135414931647
 40
0.5997648298727318
 40
0.6464241555840872
 40
0.6964314445175674
 40
0.7497815178015583
 40
0.8065733069755329
 40
0.8674355315654002
 40
0.9318867532508747
 40
1.0
 40
1.0
 40
1.0
 40
1.0
 10
917.8474772365846
 20
858.3025861222449
 30
0.0
 10
917.784382118904
 20
858.3036520775793
 30
0.0
 10
917.6599708622971
 20
858.3057539334362
 30
0.0
 10
917.4756224612927
 20
858.3274996054092
 30
0.0
 10
917.2966911620013
 20
858.3624607556088
 30
0.0
 10
917.1222940099154
 20
858.4114129935313
 30
0.0
 10
916.9515362611527
 20
858.4713326193952
 30
0.0
 10
916.7867447487967
 20
858.5493981819163
 30
0.0
 10
916.626087186075
 20
858.6393046252443
 30
0.0
 10
916.4699922008908
 20
858.7416941599603
 30
0.0
 10
916.321392975657
 20
858.8590008642537
 30
0.0
 10
916.1794533063681
 20
858.9887478098229
 30
0.0
 10
916.0477389770036
 20
859.1341727499313
 30
0.0
 10
915.9251467584498
 20
859.2929794313203
 30
0.0
 10
915.8086345568596
 20
859.4637068423666
 30
0.0
 10
915.7014588464156
 20
859.6486859807561
 30
0.0
 10
915.6023254656885
 20
859.8471833761611
 30
0.0
 10
915.5117117727319
 20
860.0604814577041
 30
0.0
 10
915.4313719704121
 20
860.2916927213835
 30
0.0
 10
915.3604057804386
 20
860.5434622722464
 30
0.0
 10
915.304373420507
 20
860.8180122976498
 30
0.0
 10
915.256412379746
 20
861.1131377081765
 30
0.0
 10
915.2177280756467
 20
861.4301066919156
 30
0.0
 10
915.1913181892047
 20
861.7690913277713
 30
0.0
 10
915.1749951834087
 20
862.1298803767454
 30
0.0
 10
915.1735435938771
 20
862.377354146612
 30
0.0
 10
915.172797749405
 20
862.5045091991678
 30
0.0
  0
SPLINE
  5
F4
330
1F
100
AcDbEntity
  8
0
  6
Continuous
 62
     7
370
    25
100
AcDbSpline
210
0.0
220
0.0
230
1.0
 70
     8
 71
     3
 72
    31
 73
    27
 74
     0
 42
0.00000001
 43
0.00000001
 40
0.0
 40
0.0
 40
0.0
 40
0.0
 40
0.0650632896172782
 40
0.1267731664665232
 40
0.1855157632260794
 40
0.2407646791677157
 40
0.2929797960235988
 40
0.3422503727797678
 40
0.3889192861856594
 40
0.4327756640583106
 40
0.4746284326311175
 40
0.5147746906379519
 40
0.5536058934984418
 40
0.591426406431174
 40
0.6280281199460673
 40
0.6638036341103204
 40
0.6989843361316636
 40
0.7335914893067046
 40
0.7676284691511387
 40
0.8012083477865914
 40
0.8342638397266224
 40
0.8669806947287755
 40
0.8997197415181608
 40
0.9327019124985372
 40
0.9661758834327498
 40
0.9999999999999999
 40
0.9999999999999999
 40
0.9999999999999999
 40
0.9999999999999999
 10
920.6086951853025
 20
862.5045091991678
 30
0.0
 10
920.607205849202
 20
862.38216883816
 30
0.0
 10
920.6043039385473
 20
862.1437936339114
 30
0.0
 10
920.5892668945069
 20
861.7951514046091
 30
0.0
 10
920.5596471660983
 20
861.4660130199265
 30
0.0
 10
920.5225957642497
 20
861.1555891057353
 30
0.0
 10
920.4712792774532
 20
860.8651716912599
 30
0.0
 10
920.4081817545931
 20
860.5937558090475
 30
0.0
 10
920.3381238738577
 20
860.3401693595265
 30
0.0
 10
920.2516443444638
 20
860.1064897901324
 30
0.0
 10
920.1569912922416
 20
859.8894572807272
 30
0.0
 10
920.0540079866979
 20
859.6867895131164
 30
0.0
 10
919.943676955645
 20
859.4966951298487
 30
0.0
 10
919.8234741099237
 20
859.3206957082917
 30
0.0
 10
919.6953520226175
 20
859.1575444921251
 30
0.0
 10
919.5565685053765
 20
859.010121354636
 30
0.0
 10
919.411035739429
 20
858.8748741044345
 30
0.0
 10
919.256950217523
 20
858.7545275273782
 30
0.0
 10
919.0960095289923
 20
858.6491908310664
 30
0.0
 10
918.9315316388781
 20
858.5549877444657
 30
0.0
 10
918.7605981912274
 20
858.4790272986374
 30
0.0
 10
918.5870828707027
 20
858.4138043478312
 30
0.0
 10
918.4085037481543
 20
858.36397474352
 30
0.0
 10
918.2250834265784
 20
858.3295202166158
 30
0.0
 10
918.0377548873128
 20
858.3053559915763
 30
0.0
 10
917.9111227385557
 20
858.3035126090042
 30
0.0
 10
917.8474772365846
 20
858.3025861222449
 30
0.0
  0
LINE
  5
F5
330
1F
100
AcDbEntity
  8
0
  6
Continuous
 62
     7
370
    25
100
AcDbLine
 10
930.9676695443
 20
865.6872015069
 30
0.0
 11
930.9676695443
 21
863.1230989428
 31
0.0
  0
LINE
  5
F6
330
1F
100
AcDbEntity
  8
0
  6
Continuous
 62
     7
370
    25
100
AcDbLine
 10
930.9676695443
 20
863.1230989428
 30
0.0
 11
931.4500413391
 21
863.1230989428
 31
0.0
  0
SPLINE
  5
F7
330
1F
100
AcDbEntity
  8
0
  6
Continuous
 62
     7
370
    25
100
AcDbSpline
210
0.0
220
0.0
230
1.0
 70
     8
 71
     3
 72
    23
 73
    19
 74
     0
 42
0.00000001
 43
0.00000001
 40
0.0
 40
0.0
 40
0.0
 40
0.0
 40
0.0723010339955062
 40
0.1397003317393864
 40
0.2022885114847731
 40
0.2605995332222016
 40
0.3131903291553332
 40
0.3617389329854278
 40
0.4057064756322239
 40
0.4455399848948725
 40
0.5188319558616066
 40
0.5897782395835778
 40
0.6588674786561485
 40
0.7284304780610662
 40
0.7972827036081003
 40
0.8648153774014441
 40
0.9313637528792688
 40
1.0
 40
1.0
 40
1.0
 40
1.0
 10
931.4500413391487
 20
863.1230989427577
 30
0.0
 10
931.5205528714149
 20
863.1240130524868
 30
0.0
 10
931.6567955211348
 20
863.1257792987677
 30
0.0
 10
931.8540981418405
 20
863.130838766338
 30
0.0
 10
932.0372410405746
 20
863.1450057227197
 30
0.0
 10
932.2059080876008
 20
863.159168607416
 30
0.0
 10
932.3598336738103
 20
863.1821962363618
 30
0.0
 10
932.4986767858151
 20
863.2096068030186
 30
0.0
 10
932.6246164359603
 20
863.2385963003819
 30
0.0
 10
932.7698496829007
 20
863.2878979847256
 30
0.0
 10
932.934587850805
 20
863.3607612422887
 30
0.0
 10
933.1102063745865
 20
863.4738397248489
 30
0.0
 10
933.265028019361
 20
863.6085239607326
 30
0.0
 10
933.3957644484336
 20
863.7639318733153
 30
0.0
 10
933.5027620953562
 20
863.9350545838482
 30
0.0
 10
933.5770791585659
 20
864.1191617391277
 30
0.0
 10
933.6274729509832
 20
864.3116648980659
 30
0.0
 10
933.6320250226569
 20
864.4438209044428
 30
0.0
 10
933.6343362109436
 20
864.5109194555781
 30
0.0
  0
SPLINE
  5
F8
330
1F
100
AcDbEntity
  8
0
  6
Continuous
 62
     7
370
    25
100
AcDbSpline
210
0.0
220
0.0
230
1.0
 70
     8
 71
     3
 72
    23
 73
    19
 74
     0
 42
0.00000001
 43
0.00000001
 40
0.0
 40
0.0
 40
0.0
 40
0.0
 40
0.0570031325129265
 40
0.1118178691207244
 40
0.1644023722182132
 40
0.2158698048987946
 40
0.2668411100818683
 40
0.3174789632053573
 40
0.3699021362727587
 40
0.4234004494436374
 40
0.47971839829945
 40
0.5392414966442967
 40
0.6024306889434228
 40
0.6710295461473356
 40
0.744484797560849
 40
0.823453971378685
 40
0.9087403127306668
 40
1.0
 40
1.0
 40
1.0
 40
1.0
 10
933.6343362109436
 20
864.5109194555781
 30
0.0
 10
933.6331335133806
 20
864.5553212190376
 30
0.0
 10
933.6307742907773
 20
864.6424201267008
 30
0.0
 10
933.6114524562516
 20
864.7693900790583
 30
0.0
 10
933.5786122861132
 20
864.8888043705148
 30
0.0
 10
933.5364310444214
 20
865.0022994798273
 30
0.0
 10
933.4774854702126
 20
865.1063265660451
 30
0.0
 10
933.4080832683794
 20
865.2044824419189
 30
0.0
 10
933.324230262003
 20
865.2934244270547
 30
0.0
 10
933.2287849759322
 20
865.3765547089184
 30
0.0
 10
933.1190509808274
 20
865.4502564867424
 30
0.0
 10
932.9950937423832
 20
865.5148068025677
 30
0.0
 10
932.855236194802
 20
865.5667857206931
 30
0.0
 10
932.7018353834159
 20
865.6123083549278
 30
0.0
 10
932.5325300405619
 20
865.6442815979408
 30
0.0
 10
932.3492739184851
 20
865.6709179125855
 30
0.0
 10
932.1505659892806
 20
865.684478465739
 30
0.0
 10
932.0130914692219
 20
865.686273580881
 30
0.0
 10
931.9420285186359
 20
865.6872015068602
 30
0.0
  0
LINE
  5
F9
330
1F
100
AcDbEntity
  8
0
  6
Continuous
 62
     7
370
    25
100
AcDbLine
 10
931.9420285186
 20
865.6872015069
 30
0.0
 11
930.9676695443
 21
865.6872015069
 31
0.0
  0
SPLINE
  5
FA
330
1F
100
AcDbEntity
  8
0
  6
Continuous
 62
     7
370
    25
100
AcDbSpline
210
0.0
220
0.0
230
1.0
 70
     8
 71
     3
 72
    27
 73
    23
 74
     0
 42
0.00000001
 43
0.00000001
 40
0.0
 40
0.0
 40
0.0
 40
0.0
 40
0.0729510658758663
 40
0.1415836941865471
 40
0.2059264601708678
 40
0.2653013571846064
 40
0.3205972327139289
 40
0.3718165030988104
 40
0.418789769709452
 40
0.4616987286157648
 40
0.5021335821035656
 40
0.5408043152926488
 40
0.5781805253279672
 40
0.6142968652075143
 40
0.649678243264788
 40
0.6842994600896384
 40
0.718358952772361
 40
0.7520808646475975
 40
0.817652438602386
 40
0.8797220764054368
 40
0.9399655597309876
 40
1.0
 40
1.0
 40
1.0
 40
1.0
 10
960.0958746724821
 20
862.507714327373
 30
0.0
 10
960.0961476943506
 20
862.4008601586786
 30
0.0
 10
960.096677576187
 20
862.1934771991375
 30
0.0
 10
960.1105203203634
 20
861.8921211740496
 30
0.0
 10
960.1293779935052
 20
861.6110461367533
 30
0.0
 10
960.1537009584997
 20
861.3498951962617
 30
0.0
 10
960.189821983702
 20
861.1095523105249
 30
0.0
 10
960.230294641571
 20
860.8883644635189
 30
0.0
 10
960.2795474178436
 20
860.6875022072587
 30
0.0
 10
960.3378217443967
 20
860.5055872113627
 30
0.0
 10
960.4041968230104
 20
860.339532197659
 30
0.0
 10
960.4766673685419
 20
860.1850151345109
 30
0.0
 10
960.5545204494674
 20
860.0402107083719
 30
0.0
 10
960.6416499364458
 20
859.9064196035167
 30
0.0
 10
960.7365415095405
 20
859.7832055142073
 30
0.0
 10
960.8370518161405
 20
859.6683876117564
 30
0.0
 10
960.9469320086939
 20
859.5659945115608
 30
0.0
 10
961.0989405630785
 20
859.4431902714934
 30
0.0
 10
961.2996182189117
 20
859.3162893943972
 30
0.0
 10
961.5524649737257
 20
859.2057840462106
 30
0.0
 10
961.8122785759691
 20
859.1363384315082
 30
0.0
 10
961.9886242904535
 20
859.1275069893251
 30
0.0
 10
962.0766439032512
 20
859.1230989427577
 30
0.0
  0
SPLINE
  5
FB
330
1F
100
AcDbEntity
  8
0
  6
Continuous
 62
     7
370
    25
100
AcDbSpline
210
0.0
220
0.0
230
1.0
 70
     8
 71
     3
 72
    19
 73
    15
 74
     0
 42
0.00000001
 43
0.00000001
 40
0.0
 40
0.0
 40
0.0
 40
0.0
 40
0.1128134007444558
 40
0.2253938839207276
 40
0.3395948145626994
 40
0.4596754102248636
 40
0.5217351900879329
 40
0.5839258387389145
 40
0.6481741447653694
 40
0.7138810381130627
 40
0.7810044549073876
 40
0.8514509275565517
 40
0.9240506926641738
 40
1.0
 40
1.0
 40
1.0
 40
1.0
 10
962.0766439032512
 20
859.1230989427577
 30
0.0
 10
962.1652328670358
 20
859.126751013184
 30
0.0
 10
962.3422278914579
 20
859.1340476138745
 30
0.0
 10
962.6008194232165
 20
859.2044447278727
 30
0.0
 10
962.8518600405473
 20
859.3106608180753
 30
0.0
 10
963.048595904042
 20
859.4362551161765
 30
0.0
 10
963.1982702891881
 20
859.5558627263508
 30
0.0
 10
963.305509123716
 20
859.6578390653517
 30
0.0
 10
963.403936662992
 20
859.7720239049094
 30
0.0
 10
963.4972899769452
 20
859.895222295572
 30
0.0
 10
963.582910721345
 20
860.0297879736836
 30
0.0
 10
963.6607693217912
 20
860.1750738600058
 30
0.0
 10
963.731816973323
 20
860.3314834095194
 30
0.0
 10
963.7722947926379
 20
860.4406713846413
 30
0.0
 10
963.7929900570974
 20
860.4964963786551
 30
0.0
  0
SPLINE
  5
FC
330
1F
100
AcDbEntity
  8
0
  6
Continuous
 62
     7
370
    25
100
AcDbSpline
210
0.0
220
0.0
230
1.0
 70
     8
 71
     3
 72
    15
 73
    11
 74
     0
 42
0.00000001
 43
0.00000001
 40
0.0
 40
0.0
 40
0.0
 40
0.0
 40
0.1105883385953364
 40
0.2245417540535905
 40
0.3425034940501052
 40
0.4643240984173589
 40
0.5907560327017657
 40
0.7222274753555104
 40
0.8588428362087218
 40
1.0
 40
1.0
 40
1.0
 40
1.0
 10
963.7929900570974
 20
860.4964963786551
 30
0.0
 10
963.8171083834831
 20
860.5678786402924
 30
0.0
 10
963.8660789293859
 20
860.7128152442774
 30
0.0
 10
963.9291915562904
 20
860.937646449033
 30
0.0
 10
963.978895325899
 20
861.173538480891
 30
0.0
 10
964.023611590469
 20
861.4190816048189
 30
0.0
 10
964.0541328610915
 20
861.6760866357012
 30
0.0
 10
964.0786992914533
 20
861.9437583703657
 30
0.0
 10
964.0931694330287
 20
862.2222986269039
 30
0.0
 10
964.0949631497632
 20
862.4115443210645
 30
0.0
 10
964.0958746724821
 20
862.507714327373
 30
0.0
  0
SPLINE
  5
FD
330
1F
100
AcDbEntity
  8
0
  6
Continuous
 62
     7
370
    25
100
AcDbSpline
210
0.0
220
0.0
230
1.0
 70
     8
 71
     3
 72
    27
 73
    23
 74
     0
 42
0.00000001
 43
0.00000001
 40
0.0
 40
0.0
 40
0.0
 40
0.0
 40
0.0656811979906367
 40
0.1284864641740656
 40
0.1881751303280078
 40
0.2451061306699844
 40
0.2994484245294762
 40
0.3508229360093825
 40
0.3999416805337758
 40
0.4466717436323729
 40
0.4912545333734979
 40
0.5333763442704369
 40
0.5738527549682236
 40
0.612526311719453
 40
0.6495971364453283
 40
0.6855320415538504
 40
0.7201057860682
 40
0.75383766297365
 40
0.8189254160467134
 40
0.8804934616501638
 40
0.9403113338460576
 40
1.0
 40
1.0
 40
1.0
 40
1.0
 10
964.0958746724821
 20
862.507714327373
 30
0.0
 10
964.0946170970924
 20
862.6038687788429
 30
0.0
 10
964.092157010794
 20
862.7919674411985
 30
0.0
 10
964.0827536103344
 20
863.0674375684262
 30
0.0
 10
964.0584711543526
 20
863.32907816479
 30
0.0
 10
964.0315017398052
 20
863.5780163880227
 30
0.0
 10
963.9917366630233
 20
863.8128742227758
 30
0.0
 10
963.9488616758683
 20
864.0356177776474
 30
0.0
 10
963.8912589049193
 20
864.243487548663
 30
0.0
 10
963.829727990693
 20
864.4397380211467
 30
0.0
 10
963.7593042294783
 20
864.6221395171485
 30
0.0
 10
963.6817825511753
 20
864.7915424574044
 30
0.0
 10
963.5989899597032
 20
864.94876468542
 30
0.0
 10
963.5090648386536
 20
865.0933748375949
 30
0.0
 10
963.4130747059329
 20
865.2260206499632
 30
0.0
 10
963.3084860220526
 20
865.3440425803793
 30
0.0
 10
963.1994474556279
 20
865.4510985074846
 30
0.0
 10
963.0467224594596
 20
865.5732986654768
 30
0.0
 10
962.84678122563
 20
865.6978968265812
 30
0.0
 10
962.5979911745617
 20
865.8125614205476
 30
0.0
 10
962.3390868448448
 20
865.8784089465383
 30
0.0
 10
962.1640618069201
 20
865.8876928026255
 30
0.0
 10
962.0766439032512
 20
865.8923297119885
 30
0.0
  0
SPLINE
  5
FE
330
1F
100
AcDbEntity
  8
0
  6
Continuous
 62
     7
370
    25
100
AcDbSpline
210
0.0
220
0.0
230
1.0
 70
     8
 71
     3
 72
    27
 73
    23
 74
     0
 42
0.00000001
 43
0.00000001
 40
0.0
 40
0.0
 40
0.0
 40
0.0
 40
0.0603866193110628
 40
0.1208832485859966
 40
0.1827546186251396
 40
0.2478110297583507
 40
0.2812991000432498
 40
0.3150876241506568
 40
0.3497023955502764
 40
0.3848565811185574
 40
0.4209661972261022
 40
0.45851118826114
 40
0.4971747221273132
 40
0.537602047866271
 40
0.5805030184200134
 40
0.6274675400267065
 40
0.6783882095592454
 40
0.7339832205925612
 40
0.793746704550835
 40
0.8577136721607319
 40
0.9266978643613873
 40
1.0
 40
1.0
 40
1.0
 40
1.0
 10
962.0766439032512
 20
865.8923297119885
 30
0.0
 10
961.9881625499099
 20
865.8876864053661
 30
0.0
 10
961.811038651384
 20
865.8783913331285
 30
0.0
 10
961.5494433262943
 20
865.8128067534906
 30
0.0
 10
961.2986905225405
 20
865.698491402776
 30
0.0
 10
961.0992780089888
 20
865.572885979999
 30
0.0
 10
960.9464464969715
 20
865.4532555538467
 30
0.0
 10
960.8388289121102
 20
865.3495150874273
 30
0.0
 10
960.7379233756127
 20
865.2360379345928
 30
0.0
 10
960.644968632441
 20
865.1116907006491
 30
0.0
 10
960.5579074137157
 20
864.9780555753482
 30
0.0
 10
960.4779508135427
 20
864.8340812559762
 30
0.0
 10
960.4059112028546
 20
864.6790381377467
 30
0.0
 10
960.3394322630143
 20
864.5130577139317
 30
0.0
 10
960.2809801760972
 20
864.3311584123647
 30
0.0
 10
960.232765403
 20
864.1305435698654
 30
0.0
 10
960.1882235672974
 20
863.9100592457759
 30
0.0
 10
960.1566915240961
 20
863.6684146561868
 30
0.0
 10
960.128660082355
 20
863.4071983056286
 30
0.0
 10
960.11064557275
 20
863.1254215782474
 30
0.0
 10
960.0966312699632
 20
862.8235601373276
 30
0.0
 10
960.0961319228483
 20
862.615104917893
 30
0.0
 10
960.0958746724821
 20
862.507714327373
 30
0.0
  0
LINE
  5
FF
330
1F
100
AcDbEntity
  8
0
  6
Continuous
 62
     7
370
    25
100
AcDbLine
 10
957.0189515956
 20
861.174380994
 30
0.0
 11
957.0189515956
 21
864.6487399684
 31
0.0
  0
LINE
  5
100
330
1F
100
AcDbEntity
  8
0
  6
Continuous
 62
     7
370
    25
100
AcDbLine
 10
957.0189515956
 20
864.6487399684
 30
0.0
 11
954.6343362109
 21
861.174380994
 31
0.0
  0
LINE
  5
101
330
1F
100
AcDbEntity
  8
0
  6
Continuous
 62
     7
370
    25
100
AcDbLine
 10
954.6343362109
 20
861.174380994
 30
0.0
 11
957.0189515956
 21
861.174380994
 31
0.0
  0
SPLINE
  5
102
330
1F
100
AcDbEntity
  8
0
  6
Continuous
 62
     7
370
    25
100
AcDbSpline
210
0.0
220
0.0
230
1.0
 70
     8
 71
     3
 72
    15
 73
    11
 74
     0
 42
0.00000001
 43
0.00000001
 40
0.0
 40
0.0
 40
0.0
 40
0.0
 40
0.1105883385953375
 40
0.2245417540535906
 40
0.3425034940501052
 40
0.4643240984173591
 40
0.5907560327017658
 40
0.7222274753555105
 40
0.8588428362087219
 40
1.0
 40
1.0
 40
1.0
 40
1.0
 10
913.434015698123
 20
860.4964963786551
 30
0.0
 10
913.4581340245088
 20
860.5678786402924
 30
0.0
 10
913.5071045704115
 20
860.7128152442774
 30
0.0
 10
913.5702171973161
 20
860.937646449033
 30
0.0
 10
913.6199209669246
 20
861.173538480891
 30
0.0
 10
913.6646372314947
 20
861.4190816048189
 30
0.0
 10
913.6951585021172
 20
861.6760866357012
 30
0.0
 10
913.7197249324789
 20
861.9437583703657
 30
0.0
 10
913.7341950740542
 20
862.2222986269038
 30
0.0
 10
913.7359887907887
 20
862.4115443210645
 30
0.0
 10
913.7369003135076
 20
862.507714327373
 30
0.0
  0
SPLINE
  5
103
330
1F
100
AcDbEntity
  8
0
  6
Continuous
 62
     7
370
    25
100
AcDbSpline
210
0.0
220
0.0
230
1.0
 70
     8
 71
     3
 72
    27
 73
    23
 74
     0
 42
0.00000001
 43
0.00000001
 40
0.0
 40
0.0
 40
0.0
 40
0.0
 40
0.0656811979906367
 40
0.1284864641740655
 40
0.1881751303280078
 40
0.2451061306699842
 40
0.2994484245294762
 40
0.3508229360093824
 40
0.3999416805337758
 40
0.4466717436323728
 40
0.4912545333734973
 40
0.5333763442704369
 40
0.5738527549682235
 40
0.6125263117194522
 40
0.6495971364453285
 40
0.6855320415538504
 40
0.7201057860682
 40
0.75383766297365
 40
0.8189254160467134
 40
0.8804934616501623
 40
0.940311333846056
 40
1.0
 40
1.0
 40
1.0
 40
1.0
 10
913.7369003135076
 20
862.507714327373
 30
0.0
 10
913.7356427381181
 20
862.6038687788429
 30
0.0
 10
913.7331826518197
 20
862.7919674411985
 30
0.0
 10
913.7237792513599
 20
863.0674375684262
 30
0.0
 10
913.6994967953783
 20
863.32907816479
 30
0.0
 10
913.6725273808308
 20
863.5780163880227
 30
0.0
 10
913.6327623040489
 20
863.8128742227758
 30
0.0
 10
913.589887316894
 20
864.0356177776474
 30
0.0
 10
913.5322845459448
 20
864.243487548663
 30
0.0
 10
913.4707536317186
 20
864.4397380211467
 30
0.0
 10
913.4003298705039
 20
864.6221395171485
 30
0.0
 10
913.3228081922009
 20
864.7915424574044
 30
0.0
 10
913.2400156007288
 20
864.94876468542
 30
0.0
 10
913.1500904796791
 20
865.0933748375949
 30
0.0
 10
913.0541003469584
 20
865.2260206499632
 30
0.0
 10
912.9495116630784
 20
865.3440425803793
 30
0.0
 10
912.8404730966535
 20
865.4510985074846
 30
0.0
 10
912.6877481004851
 20
865.5732986654768
 30
0.0
 10
912.4878068666558
 20
865.6978968265812
 30
0.0
 10
912.2390168155873
 20
865.8125614205476
 30
0.0
 10
911.9801124858704
 20
865.8784089465383
 30
0.0
 10
911.8050874479458
 20
865.8876928026255
 30
0.0
 10
911.7176695442769
 20
865.8923297119885
 30
0.0
  0
SPLINE
  5
104
330
1F
100
AcDbEntity
  8
0
  6
Continuous
 62
     7
370
    25
100
AcDbSpline
210
0.0
220
0.0
230
1.0
 70
     8
 71
     3
 72
    27
 73
    23
 74
     0
 42
0.00000001
 43
0.00000001
 40
0.0
 40
0.0
 40
0.0
 40
0.0
 40
0.0729510658758663
 40
0.1415836941865471
 40
0.2059264601708679
 40
0.2653013571846065
 40
0.3205972327139291
 40
0.3718165030988106
 40
0.4187897697094522
 40
0.461698728615765
 40
0.5021335821035658
 40
0.540804315292649
 40
0.578180525327968
 40
0.6142968652075143
 40
0.649678243264788
 40
0.6842994600896384
 40
0.7183589527723611
 40
0.7520808646475976
 40
0.8176524386023875
 40
0.8797220764054381
 40
0.9399655597309875
 40
1.0
 40
1.0
 40
1.0
 40
1.0
 10
909.7369003135076
 20
862.507714327373
 30
0.0
 10
909.7371733353763
 20
862.4008601586786
 30
0.0
 10
909.7377032172126
 20
862.1934771991375
 30
0.0
 10
909.7515459613892
 20
861.8921211740496
 30
0.0
 10
909.7704036345308
 20
861.6110461367534
 30
0.0
 10
909.7947265995255
 20
861.3498951962616
 30
0.0
 10
909.8308476247278
 20
861.1095523105249
 30
0.0
 10
909.8713202825968
 20
860.8883644635189
 30
0.0
 10
909.9205730588692
 20
860.6875022072587
 30
0.0
 10
909.9788473854223
 20
860.5055872113627
 30
0.0
 10
910.045222464036
 20
860.339532197659
 30
0.0
 10
910.1176930095676
 20
860.1850151345109
 30
0.0
 10
910.1955460904932
 20
860.0402107083719
 30
0.0
 10
910.2826755774713
 20
859.9064196035167
 30
0.0
 10
910.3775671505662
 20
859.7832055142073
 30
0.0
 10
910.4780774571663
 20
859.6683876117563
 30
0.0
 10
910.5879576497196
 20
859.5659945115608
 30
0.0
 10
910.739966204104
 20
859.4431902714934
 30
0.0
 10
910.9406438599374
 20
859.3162893943972
 30
0.0
 10
911.1934906147513
 20
859.2057840462106
 30
0.0
 10
911.4533042169946
 20
859.1363384315083
 30
0.0
 10
911.6296499314791
 20
859.1275069893251
 30
0.0
 10
911.7176695442769
 20
859.1230989427577
 30
0.0
  0
SPLINE
  5
105
330
1F
100
AcDbEntity
  8
0
  6
Continuous
 62
     7
370
    25
100
AcDbSpline
210
0.0
220
0.0
230
1.0
 70
     8
 71
     3
 72
    19
 73
    15
 74
     0
 42
0.00000001
 43
0.00000001
 40
0.0
 40
0.0
 40
0.0
 40
0.0
 40
0.1128134007444586
 40
0.2253938839207275
 40
0.3395948145626992
 40
0.4596754102248658
 40
0.5217351900879327
 40
0.5839258387389142
 40
0.6481741447653692
 40
0.7138810381130626
 40
0.7810044549073872
 40
0.8514509275565529
 40
0.9240506926641749
 40
0.9999999999999999
 40
0.9999999999999999
 40
0.9999999999999999
 40
0.9999999999999999
 10
911.7176695442769
 20
859.1230989427577
 30
0.0
 10
911.8062585080614
 20
859.126751013184
 30
0.0
 10
911.9832535324837
 20
859.1340476138745
 30
0.0
 10
912.241845064242
 20
859.2044447278726
 30
0.0
 10
912.4928856815731
 20
859.3106608180753
 30
0.0
 10
912.6896215450676
 20
859.4362551161765
 30
0.0
 10
912.8392959302138
 20
859.5558627263508
 30
0.0
 10
912.9465347647415
 20
859.6578390653518
 30
0.0
 10
913.0449623040175
 20
859.7720239049094
 30
0.0
 10
913.138315617971
 20
859.895222295572
 30
0.0
 10
913.2239363623706
 20
860.0297879736836
 30
0.0
 10
913.3017949628169
 20
860.1750738600058
 30
0.0
 10
913.3728426143487
 20
860.3314834095194
 30
0.0
 10
913.4133204336636
 20
860.4406713846413
 30
0.0
 10
913.434015698123
 20
860.4964963786551
 30
0.0
  0
SPLINE
  5
106
330
1F
100
AcDbEntity
  8
0
  6
Continuous
 62
     7
370
    25
100
AcDbSpline
210
0.0
220
0.0
230
1.0
 70
     8
 71
     3
 72
    27
 73
    23
 74
     0
 42
0.00000001
 43
0.00000001
 40
0.0
 40
0.0
 40
0.0
 40
0.0
 40
0.0603866193110629
 40
0.1208832485859967
 40
0.1827546186251397
 40
0.2478110297583507
 40
0.2812991000432498
 40
0.3150876241506569
 40
0.3497023955502765
 40
0.3848565811185575
 40
0.4209661972261023
 40
0.4585111882611394
 40
0.4971747221273133
 40
0.5376020478662705
 40
0.580503018420013
 40
0.627467540026706
 40
0.6783882095592453
 40
0.733983220592561
 40
0.7937467045508348
 40
0.8577136721607319
 40
0.9266978643613873
 40
1.0
 40
1.0
 40
1.0
 40
1.0
 10
911.7176695442769
 20
865.8923297119885
 30
0.0
 10
911.6291881909357
 20
865.8876864053661
 30
0.0
 10
911.4520642924097
 20
865.8783913331285
 30
0.0
 10
911.1904689673199
 20
865.8128067534906
 30
0.0
 10
910.939716163566
 20
865.698491402776
 30
0.0
 10
910.7403036500143
 20
865.5728859799991
 30
0.0
 10
910.5874721379971
 20
865.4532555538467
 30
0.0
 10
910.479854553136
 20
865.3495150874274
 30
0.0
 10
910.3789490166383
 20
865.2360379345928
 30
0.0
 10
910.2859942734666
 20
865.1116907006491
 30
0.0
 10
910.1989330547415
 20
864.9780555753482
 30
0.0
 10
910.1189764545684
 20
864.8340812559761
 30
0.0
 10
910.0469368438803
 20
864.6790381377467
 30
0.0
 10
909.9804579040398
 20
864.5130577139317
 30
0.0
 10
909.9220058171228
 20
864.3311584123647
 30
0.0
 10
909.8737910440257
 20
864.1305435698654
 30
0.0
 10
909.8292492083231
 20
863.9100592457759
 30
0.0
 10
909.7977171651219
 20
863.6684146561868
 30
0.0
 10
909.7696857233807
 20
863.4071983056286
 30
0.0
 10
909.7516712137756
 20
863.1254215782474
 30
0.0
 10
909.7376569109888
 20
862.8235601373275
 30
0.0
 10
909.7371575638739
 20
862.615104917893
 30
0.0
 10
909.7369003135076
 20
862.507714327373
 30
0.0
  0
SPLINE
  5
107
330
1F
100
AcDbEntity
  8
0
  6
Continuous
 62
     7
370
    25
100
AcDbSpline
210
0.0
220
0.0
230
1.0
 70
     8
 71
     3
 72
    27
 73
    23
 74
     0
 42
0.00000001
 43
0.00000001
 40
0.0
 40
0.0
 40
0.0
 40
0.0
 40
0.0729510658758663
 40
0.1415836941865471
 40
0.2059264601708678
 40
0.2653013571846064
 40
0.3205972327139289
 40
0.3718165030988104
 40
0.418789769709452
 40
0.4616987286157648
 40
0.5021335821035656
 40
0.5408043152926488
 40
0.5781805253279672
 40
0.6142968652075143
 40
0.649678243264788
 40
0.6842994600896384
 40
0.718358952772361
 40
0.7520808646475975
 40
0.817652438602386
 40
0.8797220764054368
 40
0.9399655597309876
 40
1.0
 40
1.0
 40
1.0
 40
1.0
 10
915.8907464673538
 20
862.507714327373
 30
0.0
 10
915.8910194892225
 20
862.4008601586786
 30
0.0
 10
915.8915493710588
 20
862.1934771991375
 30
0.0
 10
915.9053921152353
 20
861.8921211740496
 30
0.0
 10
915.924249788377
 20
861.6110461367533
 30
0.0
 10
915.9485727533716
 20
861.3498951962617
 30
0.0
 10
915.984693778574
 20
861.1095523105249
 30
0.0
 10
916.025166436443
 20
860.8883644635189
 30
0.0
 10
916.0744192127154
 20
860.6875022072587
 30
0.0
 10
916.1326935392685
 20
860.5055872113627
 30
0.0
 10
916.1990686178822
 20
860.339532197659
 30
0.0
 10
916.2715391634138
 20
860.1850151345109
 30
0.0
 10
916.3493922443394
 20
860.0402107083719
 30
0.0
 10
916.4365217313175
 20
859.9064196035167
 30
0.0
 10
916.5314133044124
 20
859.7832055142073
 30
0.0
 10
916.6319236110123
 20
859.6683876117564
 30
0.0
 10
916.7418038035657
 20
859.5659945115608
 30
0.0
 10
916.8938123579502
 20
859.4431902714934
 30
0.0
 10
917.0944900137836
 20
859.3162893943972
 30
0.0
 10
917.3473367685975
 20
859.2057840462106
 30
0.0
 10
917.6071503708408
 20
859.1363384315082
 30
0.0
 10
917.7834960853253
 20
859.1275069893251
 30
0.0
 10
917.8715156981231
 20
859.1230989427577
 30
0.0
  0
SPLINE
  5
108
330
1F
100
AcDbEntity
  8
0
  6
Continuous
 62
     7
370
    25
100
AcDbSpline
210
0.0
220
0.0
230
1.0
 70
     8
 71
     3
 72
    19
 73
    15
 74
     0
 42
0.00000001
 43
0.00000001
 40
0.0
 40
0.0
 40
0.0
 40
0.0
 40
0.1128134007444587
 40
0.2253938839207277
 40
0.3395948145626995
 40
0.4596754102248637
 40
0.5217351900879329
 40
0.5839258387389145
 40
0.6481741447653694
 40
0.7138810381130627
 40
0.7810044549073876
 40
0.8514509275565517
 40
0.9240506926641738
 40
1.0
 40
1.0
 40
1.0
 40
1.0
 10
917.8715156981231
 20
859.1230989427577
 30
0.0
 10
917.9601046619076
 20
859.126751013184
 30
0.0
 10
918.1370996863299
 20
859.1340476138745
 30
0.0
 10
918.3956912180882
 20
859.2044447278727
 30
0.0
 10
918.6467318354192
 20
859.3106608180753
 30
0.0
 10
918.8434676989137
 20
859.4362551161767
 30
0.0
 10
918.9931420840599
 20
859.5558627263508
 30
0.0
 10
919.1003809185877
 20
859.6578390653517
 30
0.0
 10
919.1988084578637
 20
859.7720239049094
 30
0.0
 10
919.2921617718172
 20
859.895222295572
 30
0.0
 10
919.3777825162168
 20
860.0297879736836
 30
0.0
 10
919.455641116663
 20
860.1750738600058
 30
0.0
 10
919.5266887681948
 20
860.3314834095194
 30
0.0
 10
919.5671665875097
 20
860.4406713846413
 30
0.0
 10
919.5878618519691
 20
860.4964963786551
 30
0.0
  0
SPLINE
  5
109
330
1F
100
AcDbEntity
  8
0
  6
Continuous
 62
     7
370
    25
100
AcDbSpline
210
0.0
220
0.0
230
1.0
 70
     8
 71
     3
 72
    27
 73
    23
 74
     0
 42
0.00000001
 43
0.00000001
 40
0.0
 40
0.0
 40
0.0
 40
0.0
 40
0.0603866193110629
 40
0.1208832485859967
 40
0.1827546186251397
 40
0.2478110297583507
 40
0.2812991000432498
 40
0.3150876241506569
 40
0.3497023955502754
 40
0.3848565811185574
 40
0.4209661972261022
 40
0.4585111882611393
 40
0.4971747221273132
 40
0.537602047866271
 40
0.580503018420013
 40
0.627467540026706
 40
0.6783882095592453
 40
0.733983220592561
 40
0.7937467045508348
 40
0.8577136721607319
 40
0.9266978643613873
 40
1.0
 40
1.0
 40
1.0
 40
1.0
 10
917.8715156981231
 20
865.8923297119885
 30
0.0
 10
917.7830343447819
 20
865.8876864053661
 30
0.0
 10
917.6059104462558
 20
865.8783913331285
 30
0.0
 10
917.3443151211661
 20
865.8128067534906
 30
0.0
 10
917.0935623174122
 20
865.698491402776
 30
0.0
 10
916.8941498038605
 20
865.5728859799991
 30
0.0
 10
916.7413182918433
 20
865.4532555538467
 30
0.0
 10
916.633700706982
 20
865.3495150874273
 30
0.0
 10
916.5327951704845
 20
865.2360379345928
 30
0.0
 10
916.4398404273128
 20
865.1116907006491
 30
0.0
 10
916.3527792085874
 20
864.9780555753482
 30
0.0
 10
916.2728226084145
 20
864.8340812559761
 30
0.0
 10
916.2007829977265
 20
864.6790381377467
 30
0.0
 10
916.134304057886
 20
864.5130577139317
 30
0.0
 10
916.075851970969
 20
864.3311584123647
 30
0.0
 10
916.0276371978719
 20
864.1305435698654
 30
0.0
 10
915.9830953621691
 20
863.9100592457759
 30
0.0
 10
915.9515633189678
 20
863.6684146561868
 30
0.0
 10
915.9235318772269
 20
863.4071983056286
 30
0.0
 10
915.9055173676218
 20
863.1254215782474
 30
0.0
 10
915.8915030648349
 20
862.8235601373275
 30
0.0
 10
915.8910037177201
 20
862.615104917893
 30
0.0
 10
915.8907464673538
 20
862.507714327373
 30
0.0
  0
SPLINE
  5
10A
330
1F
100
AcDbEntity
  8
0
  6
Continuous
 62
     7
370
    25
100
AcDbSpline
210
0.0
220
0.0
230
1.0
 70
     8
 71
     3
 72
    15
 73
    11
 74
     0
 42
0.00000001
 43
0.00000001
 40
0.0
 40
0.0
 40
0.0
 40
0.0
 40
0.1105883385953364
 40
0.2245417540535913
 40
0.3425034940501052
 40
0.4643240984173589
 40
0.5907560327017656
 40
0.7222274753555102
 40
0.8588428362087218
 40
1.0
 40
1.0
 40
1.0
 40
1.0
 10
919.5878618519691
 20
860.4964963786551
 30
0.0
 10
919.611980178355
 20
860.5678786402924
 30
0.0
 10
919.6609507242576
 20
860.7128152442774
 30
0.0
 10
919.7240633511623
 20
860.937646449033
 30
0.0
 10
919.7737671207708
 20
861.173538480891
 30
0.0
 10
919.8184833853409
 20
861.4190816048189
 30
0.0
 10
919.8490046559633
 20
861.6760866357012
 30
0.0
 10
919.8735710863251
 20
861.9437583703657
 30
0.0
 10
919.8880412279004
 20
862.2222986269039
 30
0.0
 10
919.8898349446349
 20
862.4115443210645
 30
0.0
 10
919.8907464673538
 20
862.507714327373
 30
0.0
  0
SPLINE
  5
10B
330
1F
100
AcDbEntity
  8
0
  6
Continuous
 62
     7
370
    25
100
AcDbSpline
210
0.0
220
0.0
230
1.0
 70
     8
 71
     3
 72
    27
 73
    23
 74
     0
 42
0.00000001
 43
0.00000001
 40
0.0
 40
0.0
 40
0.0
 40
0.0
 40
0.0656811979906367
 40
0.1284864641740656
 40
0.1881751303280078
 40
0.2451061306699844
 40
0.2994484245294762
 40
0.3508229360093824
 40
0.3999416805337762
 40
0.4466717436323727
 40
0.4912545333734972
 40
0.5333763442704375
 40
0.5738527549682227
 40
0.6125263117194522
 40
0.6495971364453285
 40
0.6855320415538494
 40
0.7201057860682
 40
0.75383766297365
 40
0.8189254160467134
 40
0.8804934616501637
 40
0.9403113338460576
 40
1.0
 40
1.0
 40
1.0
 40
1.0
 10
919.8907464673538
 20
862.507714327373
 30
0.0
 10
919.8894888919642
 20
862.6038687788429
 30
0.0
 10
919.8870288056659
 20
862.7919674411985
 30
0.0
 10
919.8776254052061
 20
863.0674375684262
 30
0.0
 10
919.8533429492244
 20
863.32907816479
 30
0.0
 10
919.826373534677
 20
863.5780163880227
 30
0.0
 10
919.7866084578951
 20
863.8128742227758
 30
0.0
 10
919.7437334707402
 20
864.0356177776474
 30
0.0
 10
919.686130699791
 20
864.243487548663
 30
0.0
 10
919.6245997855648
 20
864.4397380211467
 30
0.0
 10
919.5541760243501
 20
864.6221395171485
 30
0.0
 10
919.4766543460471
 20
864.7915424574044
 30
0.0
 10
919.393861754575
 20
864.94876468542
 30
0.0
 10
919.3039366335253
 20
865.0933748375949
 30
0.0
 10
919.2079465008046
 20
865.2260206499632
 30
0.0
 10
919.1033578169246
 20
865.3440425803793
 30
0.0
 10
918.9943192504996
 20
865.4510985074846
 30
0.0
 10
918.8415942543313
 20
865.5732986654768
 30
0.0
 10
918.6416530205018
 20
865.6978968265812
 30
0.0
 10
918.3928629694335
 20
865.8125614205476
 30
0.0
 10
918.1339586397166
 20
865.8784089465383
 30
0.0
 10
917.958933601792
 20
865.8876928026255
 30
0.0
 10
917.8715156981231
 20
865.8923297119885
 30
0.0
  0
LINE
  5
10C
330
1F
100
AcDbEntity
  8
0
  6
Continuous
 62
     7
370
    25
100
AcDbLine
 10
930.9676695443
 20
862.3025861222
 30
0.0
 11
930.9676695443
 21
859.3282271479
 31
0.0
  0
LINE
  5
10D
330
1F
100
AcDbEntity
  8
0
  6
Continuous
 62
     7
370
    25
100
AcDbLine
 10
930.9676695443
 20
859.3282271479
 30
0.0
 11
931.9901054417
 21
859.3282271479
 31
0.0
  0
SPLINE
  5
10E
330
1F
100
AcDbEntity
  8
0
  6
Continuous
 62
     7
370
    25
100
AcDbSpline
210
0.0
220
0.0
230
1.0
 70
     8
 71
     3
 72
    19
 73
    15
 74
     0
 42
0.00000001
 43
0.00000001
 40
0.0
 40
0.0
 40
0.0
 40
0.0
 40
0.0602873979279692
 40
0.1196023547075216
 40
0.1775033710185429
 40
0.2351426637323308
 40
0.2921325932269357
 40
0.3508712086415661
 40
0.4100978625665962
 40
0.4707315215304479
 40
0.5948287040804158
 40
0.7225788240942896
 40
0.8566913895440168
 40
1.0
 40
1.0
 40
1.0
 40
1.0
 10
934.2497208263281
 20
860.7785476607064
 30
0.0
 10
934.2490897306998
 20
860.8208181533122
 30
0.0
 10
934.2478377190722
 20
860.9046773116781
 30
0.0
 10
934.2289563135324
 20
861.027913469822
 30
0.0
 10
934.2014960397181
 20
861.1472868945289
 30
0.0
 10
934.1659956194152
 20
861.2631217299225
 30
0.0
 10
934.11429398035
 20
861.3733237330033
 30
0.0
 10
934.053936163168
 20
861.4800724405159
 30
0.0
 10
933.9831672451231
 20
861.5835089649131
 30
0.0
 10
933.872894865997
 20
861.7142798299402
 30
0.0
 10
933.7125017585229
 20
861.8649472880052
 30
0.0
 10
933.4846005575105
 20
862.0124615789003
 30
0.0
 10
933.2254638764377
 20
862.1314279951004
 30
0.0
 10
933.0375153212469
 20
862.1819410838739
 30
0.0
 10
932.9404259545333
 20
862.2080348401936
 30
0.0
  0
SPLINE
  5
10F
330
1F
100
AcDbEntity
  8
0
  6
Continuous
 62
     7
370
    25
100
AcDbSpline
210
0.0
220
0.0
230
1.0
 70
     8
 71
     3
 72
    15
 73
    11
 74
     0
 42
0.00000001
 43
0.00000001
 40
0.0
 40
0.0
 40
0.0
 40
0.0
 40
0.0793064855229972
 40
0.1719528189279295
 40
0.2770565073915884
 40
0.3947305758644747
 40
0.5261773212767582
 40
0.6713447665976112
 40
0.8292852571892513
 40
1.0
 40
1.0
 40
1.0
 40
1.0
 10
932.9404259545333
 20
862.2080348401936
 30
0.0
 10
932.901502306871
 20
862.2159321749488
 30
0.0
 10
932.8171078100734
 20
862.2330552256581
 30
0.0
 10
932.6794904833788
 20
862.2511299762624
 30
0.0
 10
932.5223799258879
 20
862.2672329703015
 30
0.0
 10
932.3454133493713
 20
862.2791441878186
 30
0.0
 10
932.1483668553972
 20
862.2914562873569
 30
0.0
 10
931.9308196126871
 20
862.296244449922
 30
0.0
 10
931.6936600363233
 20
862.3019570444213
 30
0.0
 10
931.5291060422668
 20
862.3023710655456
 30
0.0
 10
931.4436310827384
 20
862.3025861222449
 30
0.0
  0
LINE
  5
110
330
1F
100
AcDbEntity
  8
0
  6
Continuous
 62
     7
370
    25
100
AcDbLine
 10
931.4436310827
 20
862.3025861222
 30
0.0
 11
930.9676695443
 21
862.3025861222
 31
0.0
  0
SPLINE
  5
111
330
1F
100
AcDbEntity
  8
0
  6
Continuous
 62
     7
370
    25
100
AcDbSpline
210
0.0
220
0.0
230
1.0
 70
     8
 71
     3
 72
    23
 73
    19
 74
     0
 42
0.00000001
 43
0.00000001
 40
0.0
 40
0.0
 40
0.0
 40
0.0
 40
0.0725024889330346
 40
0.1397389892678949
 40
0.2017951348259232
 40
0.2598219344148621
 40
0.3122059893845976
 40
0.3607734341243382
 40
0.4045403426007489
 40
0.4436980985527635
 40
0.5168407942439702
 40
0.587874335944282
 40
0.6579654175616318
 40
0.7289693886473126
 40
0.7993077199548838
 40
0.8666357778344737
 40
0.9331163290572759
 40
1.0
 40
1.0
 40
1.0
 40
1.0
 10
931.9901054417128
 20
859.328227147886
 30
0.0
 10
932.0632915580854
 20
859.3291042847927
 30
0.0
 10
932.204348149119
 20
859.330794850546
 30
0.0
 10
932.4080081036811
 20
859.3363138323992
 30
0.0
 10
932.596769483798
 20
859.3488676054258
 30
0.0
 10
932.7697709368938
 20
859.3686295475143
 30
0.0
 10
932.9288805429068
 20
859.3900660027648
 30
0.0
 10
933.0721895784014
 20
859.4188917877286
 30
0.0
 10
933.2008597348847
 20
859.4519179832154
 30
0.0
 10
933.3500581525748
 20
859.5029675197526
 30
0.0
 10
933.5180661715027
 20
859.5822737389921
 30
0.0
 10
933.699119557527
 20
859.7018491136623
 30
0.0
 10
933.8600937704275
 20
859.8443023885717
 30
0.0
 10
933.996791505757
 20
860.00917304954
 30
0.0
 10
934.1088211938621
 20
860.1884446539474
 30
0.0
 10
934.1903193769102
 20
860.378491168125
 30
0.0
 10
934.2405841922682
 20
860.5761723736528
 30
0.0
 10
934.2466691506451
 20
860.7109534308938
 30
0.0
 10
934.2497208263281
 20
860.7785476607064
 30
0.0
  0
ENDSEC
  0
SECTION
  2
OBJECTS
  0
DICTIONARY
  5
C
330
0
100
AcDbDictionary
281
     1
  3
ACAD_DETAILVIEWSTYLE
350
119
  3
ACAD_GROUP
350
D
  3
ACAD_LAYOUT
350
1A
  3
ACAD_MATERIAL
350
43
  3
ACAD_MLEADERSTYLE
350
5B
  3
ACAD_MLINESTYLE
350
17
  3
ACAD_PLOTSETTINGS
350
19
  3
ACAD_PLOTSTYLENAME
350
E
  3
ACAD_SCALELIST
350
47
  3
ACAD_SECTIONVIEWSTYLE
350
11A
  3
ACAD_TABLESTYLE
350
59
  3
ACAD_VISUALSTYLE
350
2A
  3
ACDB_RECOMPOSE_DATA
350
116
  3
AcDbVariableDictionary
350
112
  0
SUN
  5
5D
330
29
100
AcDbSun
 90
        1
290
     0
 63
     7
421
 16777215
 40
1.0
291
     1
 91
  2455826
 92
 54000000
292
     0
 70
     2
 71
   256
280
     1
  0
DICTIONARY
  5
119
102
{ACAD_REACTORS
330
C
102
}
330
C
100
AcDbDictionary
281
     1
  0
DICTIONARY
  5
D
102
{ACAD_REACTORS
330
C
102
}
330
C
100
AcDbDictionary
281
     1
  0
DICTIONARY
  5
1A
102
{ACAD_REACTORS
330
C
102
}
330
C
100
AcDbDictionary
281
     1
  3
Layout1
350
1E
  3
Layout2
350
26
  3
Model
350
22
  0
DICTIONARY
  5
43
102
{ACAD_REACTORS
330
C
102
}
330
C
100
AcDbDictionary
281
     1
  3
ByBlock
350
45
  3
ByLayer
350
44
  3
Global
350
46
  0
DICTIONARY
  5
5B
102
{ACAD_REACTORS
330
C
102
}
330
C
100
AcDbDictionary
281
     1
  3
Standard
350
5C
  0
DICTIONARY
  5
17
102
{ACAD_REACTORS
330
C
102
}
330
C
100
AcDbDictionary
281
     1
  3
Standard
350
18
  0
DICTIONARY
  5
19
102
{ACAD_REACTORS
330
C
102
}
330
C
100
AcDbDictionary
281
     1
  0
ACDBDICTIONARYWDFLT
  5
E
102
{ACAD_REACTORS
330
C
102
}
330
C
100
AcDbDictionary
281
     1
  3
Normal
350
F
100
AcDbDictionaryWithDefault
340
F
  0
DICTIONARY
  5
47
102
{ACAD_REACTORS
330
C
102
}
330
C
100
AcDbDictionary
281
     1
  3
A0
350
48
  3
A1
350
49
  3
A2
350
4A
  3
A3
350
4B
  3
A4
350
4C
  3
A5
350
4D
  3
A6
350
4E
  3
A7
350
4F
  3
A8
350
50
  3
A9
350
51
  3
B0
350
52
  3
B1
350
53
  3
B2
350
54
  3
B3
350
55
  3
B4
350
56
  3
B5
350
57
  3
B6
350
58
  0
DICTIONARY
  5
11A
102
{ACAD_REACTORS
330
C
102
}
330
C
100
AcDbDictionary
281
     1
  0
DICTIONARY
  5
59
102
{ACAD_REACTORS
330
C
102
}
330
C
100
AcDbDictionary
281
     1
  3
Standard
350
5A
  0
DICTIONARY
  5
2A
102
{ACAD_REACTORS
330
C
102
}
330
C
100
AcDbDictionary
281
     1
  3
2dWireframe
350
2F
  3
Basic
350
32
  3
Brighten
350
36
  3
ColorChange
350
3A
  3
Conceptual
350
34
  3
Dim
350
35
  3
EdgeColorOff
350
3D
  3
Facepattern
350
39
  3
Flat
350
2B
  3
FlatWithEdges
350
2C
  3
Gouraud
350
2D
  3
GouraudWithEdges
350
2E
  3
Hidden
350
31
  3
JitterOff
350
3B
  3
Linepattern
350
38
  3
OverhangOff
350
3C
  3
Realistic
350
33
  3
Shaded
350
42
  3
Shaded with edges
350
41
  3
Shades of Gray
350
3E
  3
Sketchy
350
3F
  3
Thicken
350
37
  3
Wireframe
350
30
  3
X-Ray
350
40
  0
XRECORD
  5
116
102
{ACAD_REACTORS
330
C
102
}
330
C
100
AcDbXrecord
280
     1
 90
        1
330
5A
  0
DICTIONARY
  5
112
102
{ACAD_REACTORS
330
C
102
}
330
C
100
AcDbDictionary
281
     1
  3
CANNOSCALE
350
113
  3
CENTEREXE
350
11B
  3
CENTERLTYPEFILE
350
11C
  3
CMLEADERSTYLE
350
118
  3
CTABLESTYLE
350
117
  0
LAYOUT
  5
1E
102
{ACAD_REACTORS
330
1A
102
}
330
1A
100
AcDbPlotSettings
  1

  2
none_device
  4

  6

 40
0.0
 41
0.0
 42
0.0
 43
0.0
 44
0.0
 45
0.0
 46
0.0
 47
0.0
 48
0.0
 49
0.0
140
0.0
141
0.0
142
1.0
143
1.0
 70
   688
 72
     1
 73
     0
 74
     5
  7

 75
    16
 76
     0
 77
     2
 78
   300
147
1.0
148
0.0
149
0.0
100
AcDbLayout
  1
Layout1
 70
     1
 71
     1
 10
0.0
 20
0.0
 11
420.0
 21
297.0
 12
0.0
 22
0.0
 32
0.0
 14
1.0000000000E+20
 24
1.0000000000E+20
 34
1.0000000000E+20
 15
-1.0000000000E+20
 25
-1.0000000000E+20
 35
-1.0000000000E+20
146
0.0
 13
0.0
 23
0.0
 33
0.0
 16
1.0
 26
0.0
 36
0.0
 17
0.0
 27
1.0
 37
0.0
 76
     0
330
1B
  0
LAYOUT
  5
26
102
{ACAD_REACTORS
330
1A
102
}
330
1A
100
AcDbPlotSettings
  1

  2
none_device
  4

  6

 40
0.0
 41
0.0
 42
0.0
 43
0.0
 44
0.0
 45
0.0
 46
0.0
 47
0.0
 48
0.0
 49
0.0
140
0.0
141
0.0
142
1.0
143
1.0
 70
   688
 72
     1
 73
     0
 74
     5
  7

 75
    16
 76
     0
 77
     2
 78
   300
147
1.0
148
0.0
149
0.0
100
AcDbLayout
  1
Layout2
 70
     1
 71
     2
 10
0.0
 20
0.0
 11
0.0
 21
0.0
 12
0.0
 22
0.0
 32
0.0
 14
0.0
 24
0.0
 34
0.0
 15
0.0
 25
0.0
 35
0.0
146
0.0
 13
0.0
 23
0.0
 33
0.0
 16
1.0
 26
0.0
 36
0.0
 17
0.0
 27
1.0
 37
0.0
 76
     0
330
23
  0
LAYOUT
  5
22
102
{ACAD_REACTORS
330
1A
102
}
330
1A
100
AcDbPlotSettings
  1

  2
none_device
  4
Letter_(8.50_x_11.00_Inches)
  6

 40
6.35
 41
6.35
 42
6.35000508
 43
6.35000508
 44
215.9
 45
279.4
 46
0.0
 47
0.0
 48
0.0
 49
0.0
140
0.0
141
0.0
142
1.0
143
1.0
 70
  1712
 72
     1
 73
     0
 74
     0
  7

 75
     0
 76
     0
 77
     2
 78
   300
147
1.0
148
0.0
149
0.0
100
AcDbLayout
  1
Model
 70
     1
 71
     0
 10
0.0
 20
0.0
 11
420.0
 21
297.0
 12
0.0
 22
0.0
 32
0.0
 14
0.0
 24
0.0
 34
0.0
 15
420.0
 25
297.0
 35
0.0
146
0.0
 13
0.0
 23
0.0
 33
0.0
 16
1.0
 26
0.0
 36
0.0
 17
0.0
 27
1.0
 37
0.0
 76
     0
330
1F
331
29
  0
MATERIAL
  5
45
102
{ACAD_REACTORS
330
43
102
}
330
43
100
AcDbMaterial
  1
ByBlock
 72
     1
 94
      127
  0
MATERIAL
  5
44
102
{ACAD_REACTORS
330
43
102
}
330
43
100
AcDbMaterial
  1
ByLayer
 72
     1
 94
      127
  0
MATERIAL
  5
46
102
{ACAD_REACTORS
330
43
102
}
330
43
100
AcDbMaterial
  1
Global
 72
     1
 94
      127
  0
MLEADERSTYLE
  5
5C
102
{ACAD_REACTORS
330
5B
102
}
330
5B
100
AcDbMLeaderStyle
179
     2
170
     2
171
     1
172
     0
 90
        2
 40
0.0
 41
0.0
173
     1
 91
-1056964608
340
14
 92
       -2
290
     1
 42
2.0
291
     1
 43
8.0
  3
Standard
341
0
 44
4.0
300

342
11
174
     1
178
     6
175
     1
176
     0
 93
-1056964608
 45
4.0
292
     0
297
     0
 46
4.0
343
0
 94
-1056964608
 47
1.0
 49
1.0
140
1.0
293
     1
141
0.0
294
     1
177
     0
142
1.0
295
     0
296
     0
143
3.75
271
     0
272
     9
273
     9
298
     0
  0
MLINESTYLE
  5
18
102
{ACAD_REACTORS
330
17
102
}
330
17
100
AcDbMlineStyle
  2
Standard
 70
     0
  3

 62
   256
 51
90.0
 52
90.0
 71
     2
 49
0.5
 62
   256
  6
BYLAYER
 49
-0.5
 62
   256
  6
BYLAYER
  0
ACDBPLACEHOLDER
  5
F
102
{ACAD_REACTORS
330
E
102
}
330
E
  0
SCALE
  5
48
102
{ACAD_REACTORS
330
47
102
}
330
47
100
AcDbScale
 70
     0
300
1:1
140
1.0
141
1.0
290
     1
  0
SCALE
  5
49
102
{ACAD_REACTORS
330
47
102
}
330
47
100
AcDbScale
 70
     0
300
1:2
140
1.0
141
2.0
290
     0
  0
SCALE
  5
4A
102
{ACAD_REACTORS
330
47
102
}
330
47
100
AcDbScale
 70
     0
300
1:4
140
1.0
141
4.0
290
     0
  0
SCALE
  5
4B
102
{ACAD_REACTORS
330
47
102
}
330
47
100
AcDbScale
 70
     0
300
1:5
140
1.0
141
5.0
290
     0
  0
SCALE
  5
4C
102
{ACAD_REACTORS
330
47
102
}
330
47
100
AcDbScale
 70
     0
300
1:8
140
1.0
141
8.0
290
     0
  0
SCALE
  5
4D
102
{ACAD_REACTORS
330
47
102
}
330
47
100
AcDbScale
 70
     0
300
1:10
140
1.0
141
10.0
290
     0
  0
SCALE
  5
4E
102
{ACAD_REACTORS
330
47
102
}
330
47
100
AcDbScale
 70
     0
300
1:16
140
1.0
141
16.0
290
     0
  0
SCALE
  5
4F
102
{ACAD_REACTORS
330
47
102
}
330
47
100
AcDbScale
 70
     0
300
1:20
140
1.0
141
20.0
290
     0
  0
SCALE
  5
50
102
{ACAD_REACTORS
330
47
102
}
330
47
100
AcDbScale
 70
     0
300
1:30
140
1.0
141
30.0
290
     0
  0
SCALE
  5
51
102
{ACAD_REACTORS
330
47
102
}
330
47
100
AcDbScale
 70
     0
300
1:40
140
1.0
141
40.0
290
     0
  0
SCALE
  5
52
102
{ACAD_REACTORS
330
47
102
}
330
47
100
AcDbScale
 70
     0
300
1:50
140
1.0
141
50.0
290
     0
  0
SCALE
  5
53
102
{ACAD_REACTORS
330
47
102
}
330
47
100
AcDbScale
 70
     0
300
1:100
140
1.0
141
100.0
290
     0
  0
SCALE
  5
54
102
{ACAD_REACTORS
330
47
102
}
330
47
100
AcDbScale
 70
     0
300
2:1
140
2.0
141
1.0
290
     0
  0
SCALE
  5
55
102
{ACAD_REACTORS
330
47
102
}
330
47
100
AcDbScale
 70
     0
300
4:1
140
4.0
141
1.0
290
     0
  0
SCALE
  5
56
102
{ACAD_REACTORS
330
47
102
}
330
47
100
AcDbScale
 70
     0
300
8:1
140
8.0
141
1.0
290
     0
  0
SCALE
  5
57
102
{ACAD_REACTORS
330
47
102
}
330
47
100
AcDbScale
 70
     0
300
10:1
140
10.0
141
1.0
290
     0
  0
SCALE
  5
58
102
{ACAD_REACTORS
330
47
102
}
330
47
100
AcDbScale
 70
     0
300
100:1
140
100.0
141
1.0
290
     0
  0
TABLESTYLE
  5
5A
102
{ACAD_REACTORS
330
59
102
}
102
{ACAD_XDICTIONARY
360
114
102
}
330
59
100
AcDbTableStyle
  3
Standard
 70
     0
 71
     0
 40
0.06
 41
0.06
280
     0
281
     0
  7
Standard
140
4.5
170
     2
 62
     0
 63
   257
283
     0
 90
        4
 91
        0
  1

274
    -2
284
     1
 64
     0
275
    -2
285
     1
 65
     0
276
    -2
286
     1
 66
     0
277
    -2
287
     1
 67
     0
278
    -2
288
     1
 68
     0
279
    -2
289
     1
 69
     0
  7
Standard
140
6.0
170
     5
 62
     0
 63
   257
283
     0
 90
        4
 91
        0
  1

274
    -2
284
     1
 64
     0
275
    -2
285
     1
 65
     0
276
    -2
286
     1
 66
     0
277
    -2
287
     1
 67
     0
278
    -2
288
     1
 68
     0
279
    -2
289
     1
 69
     0
  7
Standard
140
4.5
170
     5
 62
     0
 63
   257
283
     0
 90
        4
 91
        0
  1

274
    -2
284
     1
 64
     0
275
    -2
285
     1
 65
     0
276
    -2
286
     1
 66
     0
277
    -2
287
     1
 67
     0
278
    -2
288
     1
 68
     0
279
    -2
289
     1
 69
     0
  0
VISUALSTYLE
  5
2F
102
{ACAD_REACTORS
330
2A
102
}
330
2A
100
AcDbVisualStyle
  2
2dWireframe
 70
     4
177
     3
291
     0
 70
    58
 90
        0
176
     1
 90
        2
176
     1
 90
        0
176
     1
 90
        0
176
     1
 40
0.6
176
     1
 40
30.0
176
     1
 62
     7
420
 16777215
176
     1
 90
        1
176
     1
 90
        4
176
     1
 62
     7
176
     1
 62
   257
176
     1
 90
        1
176
     1
 90
        1
176
     1
 40
1.0
176
     1
 90
        0
176
     1
 62
   257
176
     1
 40
1.0
176
     1
 90
        1
176
     1
 90
        6
176
     1
 90
        2
176
     1
 62
     7
176
     1
 90
        5
176
     1
 90
        0
176
     1
 90
        0
176
     1
290
     0
176
     1
 90
        1
176
     1
 40
0.0
176
     1
 90
        0
176
     1
290
     1
176
     1
290
     1
176
     1
290
     0
176
     1
290
     0
176
     1
290
     0
176
     1
290
     0
176
     1
290
     0
176
     1
290
     0
176
     1
290
     0
176
     1
 90
       50
176
     1
 40
0.0
176
     1
 40
1.0
176
     1
 90
        0
176
     1
 62
    18
420
        0
176
     1
 90
       50
176
     1
 90
        3
176
     1
 62
     5
420
      255
176
     1
290
     0
176
     1
 90
       50
176
     1
 90
       50
176
     1
 90
       50
176
     1
290
     0
176
     1
 90
       50
176
     1
 62
   256
176
     0
 40
1.0
176
     0
 90
        2
176
     1
  1
strokes_ogs.tif
176
     1
290
     0
176
     1
 40
1.0
176
     1
 40
1.0
176
     1
  0
VISUALSTYLE
  5
32
102
{ACAD_REACTORS
330
2A
102
}
330
2A
100
AcDbVisualStyle
  2
Basic
 70
     7
177
     3
291
     1
 70
    58
 90
        1
176
     1
 90
        0
176
     1
 90
        1
176
     1
 90
        0
176
     1
 40
0.6
176
     1
 40
30.0
176
     1
 62
     7
420
 16777215
176
     1
 90
        0
176
     1
 90
        4
176
     1
 62
     7
176
     1
 62
   257
176
     1
 90
        1
176
     1
 90
        1
176
     1
 40
1.0
176
     1
 90
        8
176
     1
 62
     7
176
     1
 40
1.0
176
     1
 90
        1
176
     1
 90
        6
176
     1
 90
        2
176
     1
 62
     7
176
     1
 90
        5
176
     1
 90
        0
176
     1
 90
        0
176
     1
290
     0
176
     1
 90
        1
176
     1
 40
0.0
176
     1
 90
        0
176
     1
290
     0
176
     1
290
     1
176
     1
290
     1
176
     1
290
     0
176
     1
290
     0
176
     1
290
     0
176
     1
290
     0
176
     1
290
     0
176
     1
290
     0
176
     1
 90
       50
176
     1
 40
0.0
176
     1
 40
1.0
176
     1
 90
        0
176
     1
 62
    18
420
        0
176
     1
 90
       50
176
     1
 90
        3
176
     1
 62
     5
420
      255
176
     1
290
     0
176
     1
 90
       50
176
     1
 90
       50
176
     1
 90
       50
176
     1
290
     0
176
     1
 90
       50
176
     1
 62
   256
176
     0
 40
1.0
176
     0
 90
        2
176
     1
  1
strokes_ogs.tif
176
     1
290
     0
176
     1
 40
1.0
176
     1
 40
1.0
176
     1
  0
VISUALSTYLE
  5
36
102
{ACAD_REACTORS
330
2A
102
}
330
2A
100
AcDbVisualStyle
  2
Brighten
 70
    12
177
     3
291
     1
 70
    58
 90
        2
176
     1
 90
        2
176
     1
 90
        0
176
     1
 90
        0
176
     1
 40
0.6
176
     1
 40
30.0
176
     1
 62
     7
420
 16777215
176
     1
 90
        1
176
     1
 90
        4
176
     1
 62
     7
176
     1
 62
   257
176
     1
 90
        1
176
     1
 90
        1
176
     1
 40
1.0
176
     1
 90
        8
176
     1
 62
     7
176
     1
 40
1.0
176
     1
 90
        1
176
     1
 90
        6
176
     1
 90
        2
176
     1
 62
     7
176
     1
 90
        5
176
     1
 90
        0
176
     1
 90
        0
176
     1
290
     0
176
     1
 90
        1
176
     1
 40
50.0
176
     1
 90
        0
176
     1
290
     0
176
     1
290
     1
176
     1
290
     1
176
     1
290
     0
176
     1
290
     0
176
     1
290
     0
176
     1
290
     0
176
     1
290
     0
176
     1
290
     0
176
     1
 90
       50
176
     1
 40
0.0
176
     1
 40
1.0
176
     1
 90
        0
176
     1
 62
    18
420
        0
176
     1
 90
       50
176
     1
 90
        3
176
     1
 62
     5
420
      255
176
     1
290
     0
176
     1
 90
       50
176
     1
 90
       50
176
     1
 90
       50
176
     1
290
     0
176
     1
 90
       50
176
     1
 62
   256
176
     0
 40
1.0
176
     0
 90
        2
176
     1
  1
strokes_ogs.tif
176
     1
290
     0
176
     1
 40
1.0
176
     1
 40
1.0
176
     1
  0
VISUALSTYLE
  5
3A
102
{ACAD_REACTORS
330
2A
102
}
330
2A
100
AcDbVisualStyle
  2
ColorChange
 70
    16
177
     3
291
     1
 70
    58
 90
        2
176
     1
 90
        2
176
     1
 90
        3
176
     1
 90
        0
176
     1
 40
0.6
176
     1
 40
30.0
176
     1
 62
     8
420
  8421504
176
     1
 90
        1
176
     1
 90
        4
176
     1
 62
     7
176
     1
 62
   257
176
     1
 90
        1
176
     1
 90
        1
176
     1
 40
1.0
176
     1
 90
        8
176
     1
 62
     8
420
  8421504
176
     1
 40
1.0
176
     1
 90
        1
176
     1
 90
        6
176
     1
 90
        2
176
     1
 62
     7
176
     1
 90
        5
176
     1
 90
        0
176
     1
 90
        0
176
     1
290
     0
176
     1
 90
        1
176
     1
 40
0.0
176
     1
 90
        0
176
     1
290
     0
176
     1
290
     1
176
     1
290
     1
176
     1
290
     0
176
     1
290
     0
176
     1
290
     0
176
     1
290
     0
176
     1
290
     0
176
     1
290
     0
176
     1
 90
       50
176
     1
 40
0.0
176
     1
 40
1.0
176
     1
 90
        0
176
     1
 62
    18
420
        0
176
     1
 90
       50
176
     1
 90
        3
176
     1
 62
     5
420
      255
176
     1
290
     0
176
     1
 90
       50
176
     1
 90
       50
176
     1
 90
       50
176
     1
290
     0
176
     1
 90
       50
176
     1
 62
   256
176
     0
 40
1.0
176
     0
 90
        2
176
     1
  1
strokes_ogs.tif
176
     1
290
     0
176
     1
 40
1.0
176
     1
 40
1.0
176
     1
  0
VISUALSTYLE
  5
34
102
{ACAD_REACTORS
330
2A
102
}
330
2A
100
AcDbVisualStyle
  2
Conceptual
 70
     9
177
     3
291
     0
 70
    58
 90
        3
176
     1
 90
        2
176
     1
 90
        0
176
     1
 90
        0
176
     1
 40
0.6
176
     1
 40
30.0
176
     1
 62
     7
420
 16777215
176
     1
 90
        2
176
     1
 90
        2
176
     1
 62
     7
176
     1
 62
   257
176
     1
 90
        1
176
     1
 90
        1
176
     1
 40
179.0
176
     1
 90
        8
176
     1
 62
     7
176
     1
 40
1.0
176
     1
 90
        1
176
     1
 90
        6
176
     1
 90
        2
176
     1
 62
     7
176
     1
 90
        3
176
     1
 90
        0
176
     1
 90
        0
176
     1
290
     0
176
     1
 90
        1
176
     1
 40
0.0
176
     1
 90
        0
176
     1
290
     0
176
     1
290
     1
176
     1
290
     1
176
     1
290
     0
176
     1
290
     0
176
     1
290
     0
176
     1
290
     0
176
     1
290
     0
176
     1
290
     0
176
     1
 90
       50
176
     1
 40
0.0
176
     1
 40
1.0
176
     1
 90
        0
176
     1
 62
    18
420
        0
176
     1
 90
       50
176
     1
 90
        3
176
     1
 62
     5
420
      255
176
     1
290
     0
176
     1
 90
       50
176
     1
 90
       50
176
     1
 90
       50
176
     1
290
     0
176
     1
 90
       50
176
     1
 62
   256
176
     0
 40
1.0
176
     0
 90
        2
176
     1
  1
strokes_ogs.tif
176
     1
290
     0
176
     1
 40
1.0
176
     1
 40
1.0
176
     1
  0
VISUALSTYLE
  5
35
102
{ACAD_REACTORS
330
2A
102
}
330
2A
100
AcDbVisualStyle
  2
Dim
 70
    11
177
     3
291
     1
 70
    58
 90
        2
176
     1
 90
        2
176
     1
 90
        0
176
     1
 90
        0
176
     1
 40
0.6
176
     1
 40
30.0
176
     1
 62
     7
420
 16777215
176
     1
 90
        1
176
     1
 90
        4
176
     1
 62
     7
176
     1
 62
   257
176
     1
 90
        1
176
     1
 90
        1
176
     1
 40
1.0
176
     1
 90
        8
176
     1
 62
     7
176
     1
 40
1.0
176
     1
 90
        1
176
     1
 90
        6
176
     1
 90
        2
176
     1
 62
     7
176
     1
 90
        5
176
     1
 90
        0
176
     1
 90
        0
176
     1
290
     0
176
     1
 90
        1
176
     1
 40
-50.0
176
     1
 90
        0
176
     1
290
     0
176
     1
290
     1
176
     1
290
     1
176
     1
290
     0
176
     1
290
     0
176
     1
290
     0
176
     1
290
     0
176
     1
290
     0
176
     1
290
     0
176
     1
 90
       50
176
     1
 40
0.0
176
     1
 40
1.0
176
     1
 90
        0
176
     1
 62
    18
420
        0
176
     1
 90
       50
176
     1
 90
        3
176
     1
 62
     5
420
      255
176
     1
290
     0
176
     1
 90
       50
176
     1
 90
       50
176
     1
 90
       50
176
     1
290
     0
176
     1
 90
       50
176
     1
 62
   256
176
     0
 40
1.0
176
     0
 90
        2
176
     1
  1
strokes_ogs.tif
176
     1
290
     0
176
     1
 40
1.0
176
     1
 40
1.0
176
     1
  0
VISUALSTYLE
  5
3D
102
{ACAD_REACTORS
330
2A
102
}
330
2A
100
AcDbVisualStyle
  2
EdgeColorOff
 70
    22
177
     3
291
     1
 70
    58
 90
        2
176
     0
 90
        2
176
     0
 90
        0
176
     0
 90
        0
176
     0
 40
0.6
176
     0
 40
30.0
176
     0
 62
     7
420
 16777215
176
     0
 90
        1
176
     0
 90
        4
176
     0
 62
     7
176
     0
 62
   257
176
     0
 90
        1
176
     0
 90
        1
176
     0
 40
1.0
176
     0
 90
        8
176
     2
 62
     7
176
     0
 40
1.0
176
     0
 90
        1
176
     0
 90
        6
176
     0
 90
        2
176
     0
 62
     7
176
     0
 90
        5
176
     0
 90
        0
176
     0
 90
        0
176
     0
290
     0
176
     0
 90
        1
176
     0
 40
0.0
176
     0
 90
        0
176
     0
290
     0
176
     0
290
     1
176
     0
290
     1
176
     0
290
     0
176
     0
290
     0
176
     0
290
     0
176
     0
290
     0
176
     0
290
     0
176
     0
290
     0
176
     0
 90
       50
176
     0
 40
0.0
176
     0
 40
1.0
176
     0
 90
        0
176
     0
 62
    18
420
        0
176
     0
 90
       50
176
     0
 90
        3
176
     0
 62
     5
420
      255
176
     0
290
     0
176
     0
 90
       50
176
     0
 90
       50
176
     0
 90
       50
176
     0
290
     0
176
     0
 90
       50
176
     0
 62
   256
176
     0
 40
1.0
176
     0
 90
        2
176
     0
  1
strokes_ogs.tif
176
     0
290
     0
176
     0
 40
1.0
176
     0
 40
1.0
176
     0
  0
VISUALSTYLE
  5
39
102
{ACAD_REACTORS
330
2A
102
}
330
2A
100
AcDbVisualStyle
  2
Facepattern
 70
    15
177
     3
291
     1
 70
    58
 90
        2
176
     1
 90
        2
176
     1
 90
        0
176
     1
 90
        0
176
     1
 40
0.6
176
     1
 40
30.0
176
     1
 62
     7
420
 16777215
176
     1
 90
        1
176
     1
 90
        4
176
     1
 62
     7
176
     1
 62
   257
176
     1
 90
        1
176
     1
 90
        1
176
     1
 40
1.0
176
     1
 90
        8
176
     1
 62
     7
176
     1
 40
1.0
176
     1
 90
        1
176
     1
 90
        6
176
     1
 90
        2
176
     1
 62
     7
176
     1
 90
        5
176
     1
 90
        0
176
     1
 90
        0
176
     1
290
     0
176
     1
 90
        1
176
     1
 40
0.0
176
     1
 90
        0
176
     1
290
     0
176
     1
290
     1
176
     1
290
     1
176
     1
290
     0
176
     1
290
     0
176
     1
290
     0
176
     1
290
     0
176
     1
290
     0
176
     1
290
     0
176
     1
 90
       50
176
     1
 40
0.0
176
     1
 40
1.0
176
     1
 90
        0
176
     1
 62
    18
420
        0
176
     1
 90
       50
176
     1
 90
        3
176
     1
 62
     5
420
      255
176
     1
290
     0
176
     1
 90
       50
176
     1
 90
       50
176
     1
 90
       50
176
     1
290
     0
176
     1
 90
       50
176
     1
 62
   256
176
     0
 40
1.0
176
     0
 90
        2
176
     1
  1
strokes_ogs.tif
176
     1
290
     0
176
     1
 40
1.0
176
     1
 40
1.0
176
     1
  0
VISUALSTYLE
  5
2B
102
{ACAD_REACTORS
330
2A
102
}
330
2A
100
AcDbVisualStyle
  2
Flat
 70
     0
177
     3
291
     1
 70
    58
 90
        2
176
     1
 90
        1
176
     1
 90
        1
176
     1
 90
        2
176
     1
 40
0.6
176
     1
 40
30.0
176
     1
 62
     7
420
 16777215
176
     1
 90
        0
176
     1
 90
        0
176
     1
 62
     7
176
     1
 62
   257
176
     1
 90
        1
176
     1
 90
        1
176
     1
 40
1.0
176
     1
 90
        8
176
     1
 62
     7
176
     1
 40
1.0
176
     1
 90
        1
176
     1
 90
        6
176
     1
 90
        2
176
     1
 62
     7
176
     1
 90
        5
176
     1
 90
        0
176
     1
 90
        0
176
     1
290
     0
176
     1
 90
       13
176
     1
 40
0.0
176
     1
 90
        0
176
     1
290
     0
176
     1
290
     1
176
     1
290
     1
176
     1
290
     0
176
     1
290
     0
176
     1
290
     0
176
     1
290
     0
176
     1
290
     0
176
     1
290
     0
176
     1
 90
       50
176
     1
 40
0.0
176
     1
 40
1.0
176
     1
 90
        0
176
     1
 62
    18
420
        0
176
     1
 90
       50
176
     1
 90
        3
176
     1
 62
     5
420
      255
176
     1
290
     0
176
     1
 90
       50
176
     1
 90
       50
176
     1
 90
       50
176
     1
290
     0
176
     1
 90
       50
176
     1
 62
   256
176
     0
 40
1.0
176
     0
 90
        2
176
     1
  1
strokes_ogs.tif
176
     1
290
     0
176
     1
 40
1.0
176
     1
 40
1.0
176
     1
  0
VISUALSTYLE
  5
2C
102
{ACAD_REACTORS
330
2A
102
}
330
2A
100
AcDbVisualStyle
  2
FlatWithEdges
 70
     1
177
     3
291
     1
 70
    58
 90
        2
176
     1
 90
        1
176
     1
 90
        1
176
     1
 90
        2
176
     1
 40
0.6
176
     1
 40
30.0
176
     1
 62
     7
420
 16777215
176
     1
 90
        1
176
     1
 90
        0
176
     1
 62
     7
176
     1
 62
   257
176
     1
 90
        1
176
     1
 90
        1
176
     1
 40
1.0
176
     1
 90
        0
176
     1
 62
   257
176
     1
 40
1.0
176
     1
 90
        1
176
     1
 90
        6
176
     1
 90
        2
176
     1
 62
     7
176
     1
 90
        5
176
     1
 90
        0
176
     1
 90
        0
176
     1
290
     0
176
     1
 90
       13
176
     1
 40
0.0
176
     1
 90
        0
176
     1
290
     0
176
     1
290
     1
176
     1
290
     1
176
     1
290
     0
176
     1
290
     0
176
     1
290
     0
176
     1
290
     0
176
     1
290
     0
176
     1
290
     0
176
     1
 90
       50
176
     1
 40
0.0
176
     1
 40
1.0
176
     1
 90
        0
176
     1
 62
    18
420
        0
176
     1
 90
       50
176
     1
 90
        3
176
     1
 62
     5
420
      255
176
     1
290
     0
176
     1
 90
       50
176
     1
 90
       50
176
     1
 90
       50
176
     1
290
     0
176
     1
 90
       50
176
     1
 62
   256
176
     0
 40
1.0
176
     0
 90
        2
176
     1
  1
strokes_ogs.tif
176
     1
290
     0
176
     1
 40
1.0
176
     1
 40
1.0
176
     1
  0
VISUALSTYLE
  5
2D
102
{ACAD_REACTORS
330
2A
102
}
330
2A
100
AcDbVisualStyle
  2
Gouraud
 70
     2
177
     3
291
     1
 70
    58
 90
        2
176
     1
 90
        2
176
     1
 90
        1
176
     1
 90
        2
176
     1
 40
0.6
176
     1
 40
30.0
176
     1
 62
     7
420
 16777215
176
     1
 90
        0
176
     1
 90
        0
176
     1
 62
     7
176
     1
 62
   257
176
     1
 90
        1
176
     1
 90
        1
176
     1
 40
1.0
176
     1
 90
        0
176
     1
 62
     7
176
     1
 40
1.0
176
     1
 90
        1
176
     1
 90
        6
176
     1
 90
        2
176
     1
 62
     7
176
     1
 90
        5
176
     1
 90
        0
176
     1
 90
        0
176
     1
290
     0
176
     1
 90
       13
176
     1
 40
0.0
176
     1
 90
        0
176
     1
290
     0
176
     1
290
     1
176
     1
290
     1
176
     1
290
     0
176
     1
290
     0
176
     1
290
     0
176
     1
290
     0
176
     1
290
     0
176
     1
290
     0
176
     1
 90
       50
176
     1
 40
0.0
176
     1
 40
1.0
176
     1
 90
        0
176
     1
 62
    18
420
        0
176
     1
 90
       50
176
     1
 90
        3
176
     1
 62
     5
420
      255
176
     1
290
     0
176
     1
 90
       50
176
     1
 90
       50
176
     1
 90
       50
176
     1
290
     0
176
     1
 90
       50
176
     1
 62
   256
176
     0
 40
1.0
176
     0
 90
        2
176
     1
  1
strokes_ogs.tif
176
     1
290
     0
176
     1
 40
1.0
176
     1
 40
1.0
176
     1
  0
VISUALSTYLE
  5
2E
102
{ACAD_REACTORS
330
2A
102
}
330
2A
100
AcDbVisualStyle
  2
GouraudWithEdges
 70
     3
177
     3
291
     1
 70
    58
 90
        2
176
     1
 90
        2
176
     1
 90
        1
176
     1
 90
        2
176
     1
 40
0.6
176
     1
 40
30.0
176
     1
 62
     7
420
 16777215
176
     1
 90
        1
176
     1
 90
        0
176
     1
 62
     7
176
     1
 62
   257
176
     1
 90
        1
176
     1
 90
        1
176
     1
 40
1.0
176
     1
 90
        0
176
     1
 62
   257
176
     1
 40
1.0
176
     1
 90
        1
176
     1
 90
        6
176
     1
 90
        2
176
     1
 62
     7
176
     1
 90
        5
176
     1
 90
        0
176
     1
 90
        0
176
     1
290
     0
176
     1
 90
       13
176
     1
 40
0.0
176
     1
 90
        0
176
     1
290
     0
176
     1
290
     1
176
     1
290
     1
176
     1
290
     0
176
     1
290
     0
176
     1
290
     0
176
     1
290
     0
176
     1
290
     0
176
     1
290
     0
176
     1
 90
       50
176
     1
 40
0.0
176
     1
 40
1.0
176
     1
 90
        0
176
     1
 62
    18
420
        0
176
     1
 90
       50
176
     1
 90
        3
176
     1
 62
     5
420
      255
176
     1
290
     0
176
     1
 90
       50
176
     1
 90
       50
176
     1
 90
       50
176
     1
290
     0
176
     1
 90
       50
176
     1
 62
   256
176
     0
 40
1.0
176
     0
 90
        2
176
     1
  1
strokes_ogs.tif
176
     1
290
     0
176
     1
 40
1.0
176
     1
 40
1.0
176
     1
  0
VISUALSTYLE
  5
31
102
{ACAD_REACTORS
330
2A
102
}
330
2A
100
AcDbVisualStyle
  2
Hidden
 70
     6
177
     3
291
     0
 70
    58
 90
        1
176
     1
 90
        2
176
     1
 90
        2
176
     1
 90
        0
176
     1
 40
0.6
176
     1
 40
30.0
176
     1
 62
     7
420
 16777215
176
     1
 90
        2
176
     1
 90
        2
176
     1
 62
     7
176
     1
 62
   257
176
     1
 90
        2
176
     1
 90
        1
176
     1
 40
40.0
176
     1
 90
        0
176
     1
 62
   257
176
     1
 40
1.0
176
     1
 90
        1
176
     1
 90
        6
176
     1
 90
        2
176
     1
 62
     7
176
     1
 90
        3
176
     1
 90
        0
176
     1
 90
        0
176
     1
290
     0
176
     1
 90
        1
176
     1
 40
0.0
176
     1
 90
        0
176
     1
290
     0
176
     1
290
     1
176
     1
290
     1
176
     1
290
     0
176
     1
290
     0
176
     1
290
     0
176
     1
290
     0
176
     1
290
     0
176
     1
290
     0
176
     1
 90
       50
176
     1
 40
0.0
176
     1
 40
1.0
176
     1
 90
        0
176
     1
 62
    18
420
        0
176
     1
 90
       50
176
     1
 90
        3
176
     1
 62
     5
420
      255
176
     1
290
     0
176
     1
 90
       50
176
     1
 90
       50
176
     1
 90
       50
176
     1
290
     0
176
     1
 90
       50
176
     1
 62
   256
176
     0
 40
1.0
176
     0
 90
        2
176
     1
  1
strokes_ogs.tif
176
     1
290
     0
176
     1
 40
1.0
176
     1
 40
1.0
176
     1
  0
VISUALSTYLE
  5
3B
102
{ACAD_REACTORS
330
2A
102
}
330
2A
100
AcDbVisualStyle
  2
JitterOff
 70
    20
177
     3
291
     1
 70
    58
 90
        2
176
     0
 90
        2
176
     0
 90
        0
176
     0
 90
        0
176
     0
 40
0.6
176
     0
 40
30.0
176
     0
 62
     7
420
 16777215
176
     0
 90
        1
176
     0
 90
        4
176
     0
 62
     7
176
     0
 62
   257
176
     0
 90
        1
176
     0
 90
        1
176
     0
 40
1.0
176
     0
 90
       10
176
     2
 62
     7
176
     0
 40
1.0
176
     0
 90
        1
176
     0
 90
        6
176
     0
 90
        2
176
     0
 62
     7
176
     0
 90
        5
176
     0
 90
        0
176
     0
 90
        0
176
     0
290
     0
176
     0
 90
        1
176
     0
 40
0.0
176
     0
 90
        0
176
     0
290
     0
176
     0
290
     1
176
     0
290
     1
176
     0
290
     0
176
     0
290
     0
176
     0
290
     0
176
     0
290
     0
176
     0
290
     0
176
     0
290
     0
176
     0
 90
       50
176
     0
 40
0.0
176
     0
 40
1.0
176
     0
 90
        0
176
     0
 62
    18
420
        0
176
     0
 90
       50
176
     0
 90
        3
176
     0
 62
     5
420
      255
176
     0
290
     0
176
     0
 90
       50
176
     0
 90
       50
176
     0
 90
       50
176
     0
290
     0
176
     0
 90
       50
176
     0
 62
   256
176
     0
 40
1.0
176
     0
 90
        2
176
     0
  1
strokes_ogs.tif
176
     0
290
     0
176
     0
 40
1.0
176
     0
 40
1.0
176
     0
  0
VISUALSTYLE
  5
38
102
{ACAD_REACTORS
330
2A
102
}
330
2A
100
AcDbVisualStyle
  2
Linepattern
 70
    14
177
     3
291
     1
 70
    58
 90
        2
176
     1
 90
        2
176
     1
 90
        0
176
     1
 90
        0
176
     1
 40
0.6
176
     1
 40
30.0
176
     1
 62
     7
420
 16777215
176
     1
 90
        1
176
     1
 90
        4
176
     1
 62
     7
176
     1
 62
   257
176
     1
 90
        7
176
     1
 90
        7
176
     1
 40
1.0
176
     1
 90
        8
176
     1
 62
     7
176
     1
 40
1.0
176
     1
 90
        1
176
     1
 90
        6
176
     1
 90
        2
176
     1
 62
     7
176
     1
 90
        5
176
     1
 90
        0
176
     1
 90
        0
176
     1
290
     0
176
     1
 90
        1
176
     1
 40
0.0
176
     1
 90
        0
176
     1
290
     0
176
     1
290
     1
176
     1
290
     1
176
     1
290
     0
176
     1
290
     0
176
     1
290
     0
176
     1
290
     0
176
     1
290
     0
176
     1
290
     0
176
     1
 90
       50
176
     1
 40
0.0
176
     1
 40
1.0
176
     1
 90
        0
176
     1
 62
    18
420
        0
176
     1
 90
       50
176
     1
 90
        3
176
     1
 62
     5
420
      255
176
     1
290
     0
176
     1
 90
       50
176
     1
 90
       50
176
     1
 90
       50
176
     1
290
     0
176
     1
 90
       50
176
     1
 62
   256
176
     0
 40
1.0
176
     0
 90
        2
176
     1
  1
strokes_ogs.tif
176
     1
290
     0
176
     1
 40
1.0
176
     1
 40
1.0
176
     1
  0
VISUALSTYLE
  5
3C
102
{ACAD_REACTORS
330
2A
102
}
330
2A
100
AcDbVisualStyle
  2
OverhangOff
 70
    21
177
     3
291
     1
 70
    58
 90
        2
176
     0
 90
        2
176
     0
 90
        0
176
     0
 90
        0
176
     0
 40
0.6
176
     0
 40
30.0
176
     0
 62
     7
420
 16777215
176
     0
 90
        1
176
     0
 90
        4
176
     0
 62
     7
176
     0
 62
   257
176
     0
 90
        1
176
     0
 90
        1
176
     0
 40
1.0
176
     0
 90
        9
176
     2
 62
     7
176
     0
 40
1.0
176
     0
 90
        1
176
     0
 90
        6
176
     0
 90
        2
176
     0
 62
     7
176
     0
 90
        5
176
     0
 90
        0
176
     0
 90
        0
176
     0
290
     0
176
     0
 90
        1
176
     0
 40
0.0
176
     0
 90
        0
176
     0
290
     0
176
     0
290
     1
176
     0
290
     1
176
     0
290
     0
176
     0
290
     0
176
     0
290
     0
176
     0
290
     0
176
     0
290
     0
176
     0
290
     0
176
     0
 90
       50
176
     0
 40
0.0
176
     0
 40
1.0
176
     0
 90
        0
176
     0
 62
    18
420
        0
176
     0
 90
       50
176
     0
 90
        3
176
     0
 62
     5
420
      255
176
     0
290
     0
176
     0
 90
       50
176
     0
 90
       50
176
     0
 90
       50
176
     0
290
     0
176
     0
 90
       50
176
     0
 62
   256
176
     0
 40
1.0
176
     0
 90
        2
176
     0
  1
strokes_ogs.tif
176
     0
290
     0
176
     0
 40
1.0
176
     0
 40
1.0
176
     0
  0
VISUALSTYLE
  5
33
102
{ACAD_REACTORS
330
2A
102
}
330
2A
100
AcDbVisualStyle
  2
Realistic
 70
     8
177
     3
291
     0
 70
    58
 90
        2
176
     1
 90
        3
176
     1
 90
        0
176
     1
 90
        2
176
     1
 40
0.6
176
     1
 40
30.0
176
     1
 62
     7
420
 16777215
176
     1
 90
        0
176
     1
 90
        0
176
     1
 62
     7
176
     1
 62
   257
176
     1
 90
        1
176
     1
 90
        1
176
     1
 40
1.0
176
     1
 90
        8
176
     1
 62
   257
176
     1
 40
1.0
176
     1
 90
        1
176
     1
 90
        6
176
     1
 90
        2
176
     1
 62
     7
176
     1
 90
        3
176
     1
 90
        0
176
     1
 90
        0
176
     1
290
     0
176
     1
 90
       13
176
     1
 40
0.0
176
     1
 90
        0
176
     1
290
     0
176
     1
290
     1
176
     1
290
     1
176
     1
290
     0
176
     1
290
     0
176
     1
290
     0
176
     1
290
     0
176
     1
290
     0
176
     1
290
     0
176
     1
 90
       50
176
     1
 40
0.0
176
     1
 40
1.0
176
     1
 90
        0
176
     1
 62
    18
420
        0
176
     1
 90
       50
176
     1
 90
        3
176
     1
 62
     5
420
      255
176
     1
290
     0
176
     1
 90
       50
176
     1
 90
       50
176
     1
 90
       50
176
     1
290
     0
176
     1
 90
       50
176
     1
 62
   256
176
     0
 40
1.0
176
     0
 90
        2
176
     1
  1
strokes_ogs.tif
176
     1
290
     0
176
     1
 40
1.0
176
     1
 40
1.0
176
     1
  0
VISUALSTYLE
  5
42
102
{ACAD_REACTORS
330
2A
102
}
330
2A
100
AcDbVisualStyle
  2
Shaded
 70
    27
177
     3
291
     0
 70
    58
 90
        2
176
     1
 90
        2
176
     1
 90
        1
176
     1
 90
        2
176
     1
 40
0.6
176
     1
 40
30.0
176
     1
 62
     7
420
 16777215
176
     1
 90
        0
176
     1
 90
        4
176
     1
 62
     7
176
     1
 62
   257
176
     1
 90
        1
176
     1
 90
        1
176
     1
 40
1.0
176
     1
 90
        8
176
     1
 62
   257
176
     1
 40
1.0
176
     1
 90
        1
176
     1
 90
        6
176
     1
 90
        2
176
     1
 62
     8
420
  7895160
176
     1
 90
        3
176
     1
 90
        0
176
     1
 90
        0
176
     1
290
     0
176
     1
 90
        5
176
     1
 40
0.0
176
     1
 90
        0
176
     1
290
     0
176
     1
290
     1
176
     1
290
     1
176
     1
290
     0
176
     1
290
     0
176
     1
290
     0
176
     1
290
     0
176
     1
290
     0
176
     1
290
     0
176
     1
 90
       50
176
     1
 40
0.0
176
     1
 40
1.0
176
     1
 90
        0
176
     1
 62
    18
420
        0
176
     1
 90
       50
176
     1
 90
        3
176
     1
 62
     5
420
      255
176
     1
290
     0
176
     1
 90
       50
176
     1
 90
       50
176
     1
 90
       50
176
     1
290
     0
176
     1
 90
       50
176
     1
 62
   256
176
     0
 40
1.0
176
     0
 90
        2
176
     1
  1
strokes_ogs.tif
176
     1
290
     0
176
     1
 40
1.0
176
     1
 40
1.0
176
     1
  0
VISUALSTYLE
  5
41
102
{ACAD_REACTORS
330
2A
102
}
330
2A
100
AcDbVisualStyle
  2
Shaded with edges
 70
    26
177
     3
291
     0
 70
    58
 90
        2
176
     1
 90
        2
176
     1
 90
        1
176
     1
 90
        2
176
     1
 40
0.6
176
     1
 40
30.0
176
     1
 62
     7
420
 16777215
176
     1
 90
        1
176
     1
 90
       10
176
     1
 62
     7
176
     1
 62
   257
176
     1
 90
        2
176
     1
 90
        1
176
     1
 40
1.0
176
     1
 90
        8
176
     1
 62
   257
176
     1
 40
1.0
176
     1
 90
        1
176
     1
 90
        6
176
     1
 90
        2
176
     1
 62
     7
176
     1
 90
        3
176
     1
 90
        0
176
     1
 90
        0
176
     1
290
     0
176
     1
 90
        5
176
     1
 40
0.0
176
     1
 90
        0
176
     1
290
     0
176
     1
290
     1
176
     1
290
     1
176
     1
290
     0
176
     1
290
     0
176
     1
290
     0
176
     1
290
     0
176
     1
290
     0
176
     1
290
     0
176
     1
 90
       50
176
     1
 40
0.0
176
     1
 40
1.0
176
     1
 90
        0
176
     1
 62
    18
420
        0
176
     1
 90
       50
176
     1
 90
        3
176
     1
 62
     5
420
      255
176
     1
290
     0
176
     1
 90
       50
176
     1
 90
       50
176
     1
 90
       50
176
     1
290
     0
176
     1
 90
       50
176
     1
 62
   256
176
     0
 40
1.0
176
     0
 90
        2
176
     1
  1
strokes_ogs.tif
176
     1
290
     0
176
     1
 40
1.0
176
     1
 40
1.0
176
     1
  0
VISUALSTYLE
  5
3E
102
{ACAD_REACTORS
330
2A
102
}
330
2A
100
AcDbVisualStyle
  2
Shades of Gray
 70
    23
177
     3
291
     0
 70
    58
 90
        2
176
     1
 90
        2
176
     1
 90
        3
176
     1
 90
        0
176
     1
 40
0.6
176
     1
 40
30.0
176
     1
 62
     7
420
 16777215
176
     1
 90
        2
176
     1
 90
        2
176
     1
 62
     7
176
     1
 62
     7
176
     1
 90
        1
176
     1
 90
        1
176
     1
 40
40.0
176
     1
 90
        8
176
     1
 62
     7
176
     1
 40
1.0
176
     1
 90
        1
176
     1
 90
        6
176
     1
 90
        2
176
     1
 62
     7
176
     1
 90
        3
176
     1
 90
        0
176
     1
 90
        0
176
     1
290
     0
176
     1
 90
        1
176
     1
 40
0.0
176
     1
 90
        0
176
     1
290
     0
176
     1
290
     1
176
     1
290
     1
176
     1
290
     0
176
     1
290
     0
176
     1
290
     0
176
     1
290
     0
176
     1
290
     0
176
     1
290
     0
176
     1
 90
       50
176
     1
 40
0.0
176
     1
 40
1.0
176
     1
 90
        0
176
     1
 62
    18
420
        0
176
     1
 90
       50
176
     1
 90
        3
176
     1
 62
     5
420
      255
176
     1
290
     0
176
     1
 90
       50
176
     1
 90
       50
176
     1
 90
       50
176
     1
290
     0
176
     1
 90
       50
176
     1
 62
   256
176
     0
 40
1.0
176
     0
 90
        2
176
     1
  1
strokes_ogs.tif
176
     1
290
     0
176
     1
 40
1.0
176
     1
 40
1.0
176
     1
  0
VISUALSTYLE
  5
3F
102
{ACAD_REACTORS
330
2A
102
}
330
2A
100
AcDbVisualStyle
  2
Sketchy
 70
    24
177
     3
291
     0
 70
    58
 90
        1
176
     1
 90
        2
176
     1
 90
        2
176
     1
 90
        0
176
     1
 40
0.6
176
     1
 40
30.0
176
     1
 62
     7
420
 16777215
176
     1
 90
        2
176
     1
 90
        2
176
     1
 62
     7
176
     1
 62
     7
176
     1
 90
        1
176
     1
 90
        1
176
     1
 40
40.0
176
     1
 90
       11
176
     1
 62
     7
176
     1
 40
1.0
176
     1
 90
        1
176
     1
 90
        6
176
     1
 90
        2
176
     1
 62
     7
176
     1
 90
        6
176
     1
 90
        0
176
     1
 90
        0
176
     1
290
     0
176
     1
 90
        1
176
     1
 40
0.0
176
     1
 90
        0
176
     1
290
     0
176
     1
290
     1
176
     1
290
     1
176
     1
290
     0
176
     1
290
     0
176
     1
290
     0
176
     1
290
     0
176
     1
290
     0
176
     1
290
     0
176
     1
 90
       50
176
     1
 40
0.0
176
     1
 40
1.0
176
     1
 90
        0
176
     1
 62
    18
420
        0
176
     1
 90
       50
176
     1
 90
        3
176
     1
 62
     5
420
      255
176
     1
290
     0
176
     1
 90
       50
176
     1
 90
       50
176
     1
 90
       50
176
     1
290
     0
176
     1
 90
       50
176
     1
 62
   256
176
     0
 40
1.0
176
     0
 90
        2
176
     1
  1
strokes_ogs.tif
176
     1
290
     0
176
     1
 40
1.0
176
     1
 40
1.0
176
     1
  0
VISUALSTYLE
  5
37
102
{ACAD_REACTORS
330
2A
102
}
330
2A
100
AcDbVisualStyle
  2
Thicken
 70
    13
177
     3
291
     1
 70
    58
 90
        2
176
     1
 90
        2
176
     1
 90
        0
176
     1
 90
        0
176
     1
 40
0.6
176
     1
 40
30.0
176
     1
 62
     7
420
 16777215
176
     1
 90
        1
176
     1
 90
        4
176
     1
 62
     7
176
     1
 62
   257
176
     1
 90
        1
176
     1
 90
        1
176
     1
 40
1.0
176
     1
 90
       12
176
     1
 62
     7
176
     1
 40
1.0
176
     1
 90
        1
176
     1
 90
        6
176
     1
 90
        2
176
     1
 62
     7
176
     1
 90
        5
176
     1
 90
        0
176
     1
 90
        0
176
     1
290
     0
176
     1
 90
        1
176
     1
 40
0.0
176
     1
 90
        0
176
     1
290
     0
176
     1
290
     1
176
     1
290
     1
176
     1
290
     0
176
     1
290
     0
176
     1
290
     0
176
     1
290
     0
176
     1
290
     0
176
     1
290
     0
176
     1
 90
       50
176
     1
 40
0.0
176
     1
 40
1.0
176
     1
 90
        0
176
     1
 62
    18
420
        0
176
     1
 90
       50
176
     1
 90
        3
176
     1
 62
     5
420
      255
176
     1
290
     0
176
     1
 90
       50
176
     1
 90
       50
176
     1
 90
       50
176
     1
290
     0
176
     1
 90
       50
176
     1
 62
   256
176
     0
 40
1.0
176
     0
 90
        2
176
     1
  1
strokes_ogs.tif
176
     1
290
     0
176
     1
 40
1.0
176
     1
 40
1.0
176
     1
  0
VISUALSTYLE
  5
30
102
{ACAD_REACTORS
330
2A
102
}
330
2A
100
AcDbVisualStyle
  2
Wireframe
 70
     5
177
     3
291
     0
 70
    58
 90
        0
176
     1
 90
        2
176
     1
 90
        0
176
     1
 90
        0
176
     1
 40
0.6
176
     1
 40
30.0
176
     1
 62
     7
420
 16777215
176
     1
 90
        1
176
     1
 90
        4
176
     1
 62
     7
176
     1
 62
   257
176
     1
 90
        1
176
     1
 90
        1
176
     1
 40
1.0
176
     1
 90
        0
176
     1
 62
   257
176
     1
 40
1.0
176
     1
 90
        1
176
     1
 90
        6
176
     1
 90
        2
176
     1
 62
     7
176
     1
 90
        3
176
     1
 90
        0
176
     1
 90
        0
176
     1
290
     0
176
     1
 90
        1
176
     1
 40
0.0
176
     1
 90
        0
176
     1
290
     0
176
     1
290
     1
176
     1
290
     1
176
     1
290
     0
176
     1
290
     0
176
     1
290
     0
176
     1
290
     0
176
     1
290
     0
176
     1
290
     0
176
     1
 90
       50
176
     1
 40
0.0
176
     1
 40
1.0
176
     1
 90
        0
176
     1
 62
    18
420
        0
176
     1
 90
       50
176
     1
 90
        3
176
     1
 62
     5
420
      255
176
     1
290
     0
176
     1
 90
       50
176
     1
 90
       50
176
     1
 90
       50
176
     1
290
     0
176
     1
 90
       50
176
     1
 62
   256
176
     0
 40
1.0
176
     0
 90
        2
176
     1
  1
strokes_ogs.tif
176
     1
290
     0
176
     1
 40
1.0
176
     1
 40
1.0
176
     1
  0
VISUALSTYLE
  5
40
102
{ACAD_REACTORS
330
2A
102
}
330
2A
100
AcDbVisualStyle
  2
X-Ray
 70
    25
177
     3
291
     0
 70
    58
 90
        2
176
     1
 90
        2
176
     1
 90
        1
176
     1
 90
        1
176
     1
 40
0.5
176
     1
 40
30.0
176
     1
 62
     7
420
 16777215
176
     1
 90
        1
176
     1
 90
        0
176
     1
 62
     7
176
     1
 62
   257
176
     1
 90
        1
176
     1
 90
        1
176
     1
 40
1.0
176
     1
 90
        8
176
     1
 62
     7
176
     1
 40
1.0
176
     1
 90
        1
176
     1
 90
        6
176
     1
 90
        2
176
     1
 62
     7
176
     1
 90
        3
176
     1
 90
        0
176
     1
 90
        0
176
     1
290
     0
176
     1
 90
       13
176
     1
 40
0.0
176
     1
 90
        0
176
     1
290
     0
176
     1
290
     1
176
     1
290
     1
176
     1
290
     0
176
     1
290
     0
176
     1
290
     0
176
     1
290
     0
176
     1
290
     0
176
     1
290
     0
176
     1
 90
       50
176
     1
 40
0.0
176
     1
 40
1.0
176
     1
 90
        0
176
     1
 62
    18
420
        0
176
     1
 90
       50
176
     1
 90
        3
176
     1
 62
     5
420
      255
176
     1
290
     0
176
     1
 90
       50
176
     1
 90
       50
176
     1
 90
       50
176
     1
290
     0
176
     1
 90
       50
176
     1
 62
   256
176
     0
 40
1.0
176
     0
 90
        2
176
     1
  1
strokes_ogs.tif
176
     1
290
     0
176
     1
 40
1.0
176
     1
 40
1.0
176
     1
  0
DICTIONARYVAR
  5
113
102
{ACAD_REACTORS
330
112
102
}
330
112
100
DictionaryVariables
280
     0
  1
1:1
  0
DICTIONARYVAR
  5
11B
102
{ACAD_REACTORS
330
112
102
}
330
112
100
DictionaryVariables
280
     0
  1
3.500000
  0
DICTIONARYVAR
  5
11C
102
{ACAD_REACTORS
330
112
102
}
330
112
100
DictionaryVariables
280
     0
  1
acadiso.lin
  0
DICTIONARYVAR
  5
118
102
{ACAD_REACTORS
330
112
102
}
330
112
100
DictionaryVariables
280
     0
  1
Standard
  0
DICTIONARYVAR
  5
117
102
{ACAD_REACTORS
330
112
102
}
330
112
100
DictionaryVariables
280
     0
  1
Standard
  0
DICTIONARY
  5
114
330
5A
100
AcDbDictionary
280
     1
281
     1
  3
ACAD_ROUNDTRIP_2008_TABLESTYLE_CELLSTYLEMAP
360
115
  0
CELLSTYLEMAP
  5
115
102
{ACAD_REACTORS
330
114
102
}
330
114
100
AcDbCellStyleMap
 90
        3
300
CELLSTYLE
  1
TABLEFORMAT_BEGIN
 90
        5
170
     1
 91
        0
 92
    32768
 62
   257
 93
        1
300
CONTENTFORMAT
  1
CONTENTFORMAT_BEGIN
 90
        0
 91
        0
 92
        4
 93
        0
300

 40
0.0
140
1.0
 94
        5
 62
     0
340
11
144
6.0
309
CONTENTFORMAT_END
171
     1
301
MARGIN
  1
CELLMARGIN_BEGIN
 40
1.5
 40
1.5
 40
1.5
 40
1.5
 40
1.5
 40
1.5
309
CELLMARGIN_END
 94
        6
 95
        1
302
GRIDFORMAT
  1
GRIDFORMAT_BEGIN
 90
        0
 91
        1
 62
     0
 92
       -2
340
14
 93
        0
 40
0.045
309
GRIDFORMAT_END
 95
        2
302
GRIDFORMAT
  1
GRIDFORMAT_BEGIN
 90
        0
 91
        1
 62
     0
 92
       -2
340
14
 93
        0
 40
0.045
309
GRIDFORMAT_END
 95
        4
302
GRIDFORMAT
  1
GRIDFORMAT_BEGIN
 90
        0
 91
        1
 62
     0
 92
       -2
340
14
 93
        0
 40
0.045
309
GRIDFORMAT_END
 95
        8
302
GRIDFORMAT
  1
GRIDFORMAT_BEGIN
 90
        0
 91
        1
 62
     0
 92
       -2
340
14
 93
        0
 40
0.045
309
GRIDFORMAT_END
 95
       16
302
GRIDFORMAT
  1
GRIDFORMAT_BEGIN
 90
        0
 91
        1
 62
     0
 92
       -2
340
14
 93
        0
 40
0.045
309
GRIDFORMAT_END
 95
       32
302
GRIDFORMAT
  1
GRIDFORMAT_BEGIN
 90
        0
 91
        1
 62
     0
 92
       -2
340
14
 93
        0
 40
0.045
309
GRIDFORMAT_END
309
TABLEFORMAT_END
  1
CELLSTYLE_BEGIN
 90
        1
 91
        1
300
_TITLE
309
CELLSTYLE_END
300
CELLSTYLE
  1
TABLEFORMAT_BEGIN
 90
        5
170
     1
 91
        0
 92
        0
 62
   257
 93
        1
300
CONTENTFORMAT
  1
CONTENTFORMAT_BEGIN
 90
        0
 91
        0
 92
        4
 93
        0
300

 40
0.0
140
1.0
 94
        5
 62
     0
340
11
144
4.5
309
CONTENTFORMAT_END
171
     1
301
MARGIN
  1
CELLMARGIN_BEGIN
 40
1.5
 40
1.5
 40
1.5
 40
1.5
 40
1.5
 40
1.5
309
CELLMARGIN_END
 94
        6
 95
        1
302
GRIDFORMAT
  1
GRIDFORMAT_BEGIN
 90
        0
 91
        1
 62
     0
 92
       -2
340
14
 93
        0
 40
0.045
309
GRIDFORMAT_END
 95
        2
302
GRIDFORMAT
  1
GRIDFORMAT_BEGIN
 90
        0
 91
        1
 62
     0
 92
       -2
340
14
 93
        0
 40
0.045
309
GRIDFORMAT_END
 95
        4
302
GRIDFORMAT
  1
GRIDFORMAT_BEGIN
 90
        0
 91
        1
 62
     0
 92
       -2
340
14
 93
        0
 40
0.045
309
GRIDFORMAT_END
 95
        8
302
GRIDFORMAT
  1
GRIDFORMAT_BEGIN
 90
        0
 91
        1
 62
     0
 92
       -2
340
14
 93
        0
 40
0.045
309
GRIDFORMAT_END
 95
       16
302
GRIDFORMAT
  1
GRIDFORMAT_BEGIN
 90
        0
 91
        1
 62
     0
 92
       -2
340
14
 93
        0
 40
0.045
309
GRIDFORMAT_END
 95
       32
302
GRIDFORMAT
  1
GRIDFORMAT_BEGIN
 90
        0
 91
        1
 62
     0
 92
       -2
340
14
 93
        0
 40
0.045
309
GRIDFORMAT_END
309
TABLEFORMAT_END
  1
CELLSTYLE_BEGIN
 90
        2
 91
        1
300
_HEADER
309
CELLSTYLE_END
300
CELLSTYLE
  1
TABLEFORMAT_BEGIN
 90
        5
170
     1
 91
        0
 92
        0
 62
   257
 93
        1
300
CONTENTFORMAT
  1
CONTENTFORMAT_BEGIN
 90
        0
 91
        0
 92
        4
 93
        0
300

 40
0.0
140
1.0
 94
        2
 62
     0
340
11
144
4.5
309
CONTENTFORMAT_END
171
     1
301
MARGIN
  1
CELLMARGIN_BEGIN
 40
1.5
 40
1.5
 40
1.5
 40
1.5
 40
1.5
 40
1.5
309
CELLMARGIN_END
 94
        6
 95
        1
302
GRIDFORMAT
  1
GRIDFORMAT_BEGIN
 90
        0
 91
        1
 62
     0
 92
       -2
340
14
 93
        0
 40
0.045
309
GRIDFORMAT_END
 95
        2
302
GRIDFORMAT
  1
GRIDFORMAT_BEGIN
 90
        0
 91
        1
 62
     0
 92
       -2
340
14
 93
        0
 40
0.045
309
GRIDFORMAT_END
 95
        4
302
GRIDFORMAT
  1
GRIDFORMAT_BEGIN
 90
        0
 91
        1
 62
     0
 92
       -2
340
14
 93
        0
 40
0.045
309
GRIDFORMAT_END
 95
        8
302
GRIDFORMAT
  1
GRIDFORMAT_BEGIN
 90
        0
 91
        1
 62
     0
 92
       -2
340
14
 93
        0
 40
0.045
309
GRIDFORMAT_END
 95
       16
302
GRIDFORMAT
  1
GRIDFORMAT_BEGIN
 90
        0
 91
        1
 62
     0
 92
       -2
340
14
 93
        0
 40
0.045
309
GRIDFORMAT_END
 95
       32
302
GRIDFORMAT
  1
GRIDFORMAT_BEGIN
 90
        0
 91
        1
 62
     0
 92
       -2
340
14
 93
        0
 40
0.045
309
GRIDFORMAT_END
309
TABLEFORMAT_END
  1
CELLSTYLE_BEGIN
 90
        3
 91
        2
300
_DATA
309
CELLSTYLE_END
  0
ENDSEC
  0
EOF
