  0
SECTION
  2
HEADER
  9
$ACADVER
  1
AC1027
  9
$ACADMAINTVER
 70
   105
  9
$DWGCODEPAGE
  3
ANSI_1252
  9
$LASTSAVEDBY
  1
Nick
  9
$REQUIREDVERSIONS
160
                 0
  9
$INSBASE
 10
0.0
 20
0.0
 30
0.0
  9
$EXTMIN
 10
0.0
 20
0.0
 30
0.0
  9
$EXTMAX
 10
420.0
 20
297.0
 30
0.0
  9
$LIMMIN
 10
0.0
 20
0.0
  9
$LIMMAX
 10
420.0
 20
297.0
  9
$ORTHOMODE
 70
     0
  9
$REGENMODE
 70
     1
  9
$FILLMODE
 70
     1
  9
$QTEXTMODE
 70
     0
  9
$MIRRTEXT
 70
     1
  9
$LTSCALE
 40
1.0
  9
$ATTMODE
 70
     1
  9
$TEXTSIZE
 40
4.2333333333
  9
$TRACEWID
 40
1.0
  9
$TEXTSTYLE
  7
Standard
  9
$CLAYER
  8
0
  9
$CELTYPE
  6
ByLayer
  9
$CECOLOR
 62
   256
  9
$CELTSCALE
 40
1.0
  9
$DISPSILH
 70
     0
  9
$DIMSCALE
 40
1.0
  9
$DIMASZ
 40
3.302
  9
$DIMEXO
 40
1.0
  9
$DIMDLI
 40
3.75
  9
$DIMRND
 40
0.0
  9
$DIMDLE
 40
0.0
  9
$DIMEXE
 40
1.0
  9
$DIMTP
 40
0.0
  9
$DIMTM
 40
0.0
  9
$DIMTXT
 40
4.2333333333
  9
$DIMCEN
 40
2.5
  9
$DIMTSZ
 40
0.0
  9
$DIMTOL
 70
     0
  9
$DIMLIM
 70
     0
  9
$DIMTIH
 70
     1
  9
$DIMTOH
 70
     1
  9
$DIMSE1
 70
     0
  9
$DIMSE2
 70
     0
  9
$DIMTAD
 70
     1
  9
$DIMZIN
 70
     1
  9
$DIMBLK
  1

  9
$DIMASO
 70
     1
  9
$DIMSHO
 70
     1
  9
$DIMPOST
  1

  9
$DIMAPOST
  1

  9
$DIMALT
 70
     0
  9
$DIMALTD
 70
     3
  9
$DIMALTF
 40
0.0393700787
  9
$DIMLFAC
 40
1.0
  9
$DIMTOFL
 70
     1
  9
$DIMTVP
 40
0.0
  9
$DIMTIX
 70
     0
  9
$DIMSOXD
 70
     0
  9
$DIMSAH
 70
     0
  9
$DIMBLK1
  1

  9
$DIMBLK2
  1

  9
$DIMSTYLE
  2
ISO-25
  9
$DIMCLRD
 70
     0
  9
$DIMCLRE
 70
     0
  9
$DIMCLRT
 70
     0
  9
$DIMTFAC
 40
1.0
  9
$DIMGAP
 40
1.524
  9
$DIMJUST
 70
     0
  9
$DIMSD1
 70
     0
  9
$DIMSD2
 70
     0
  9
$DIMTOLJ
 70
     0
  9
$DIMTZIN
 70
     1
  9
$DIMALTZ
 70
     0
  9
$DIMALTTZ
 70
     0
  9
$DIMUPT
 70
     0
  9
$DIMDEC
 70
     0
  9
$DIMTDEC
 70
     0
  9
$DIMALTU
 70
     2
  9
$DIMALTTD
 70
     3
  9
$DIMTXSTY
  7
Standard
  9
$DIMAUNIT
 70
     0
  9
$DIMADEC
 70
     2
  9
$DIMALTRND
 40
0.0
  9
$DIMAZIN
 70
     0
  9
$DIMDSEP
 70
    44
  9
$DIMATFIT
 70
     3
  9
$DIMFRAC
 70
     0
  9
$DIMLDRBLK
  1

  9
$DIMLUNIT
 70
     2
  9
$DIMLWD
 70
    -2
  9
$DIMLWE
 70
    -2
  9
$DIMTMOVE
 70
     0
  9
$DIMFXL
 40
1.0
  9
$DIMFXLON
 70
     0
  9
$DIMJOGANG
 40
0.7853981634
  9
$DIMTFILL
 70
     0
  9
$DIMTFILLCLR
 70
     0
  9
$DIMARCSYM
 70
     0
  9
$DIMLTYPE
  6

  9
$DIMLTEX1
  6

  9
$DIMLTEX2
  6

  9
$DIMTXTDIRECTION
 70
     0
  9
$LUNITS
 70
     2
  9
$LUPREC
 70
     0
  9
$SKETCHINC
 40
1.0
  9
$FILLETRAD
 40
0.0
  9
$AUNITS
 70
     0
  9
$AUPREC
 70
     2
  9
$MENU
  1
.
  9
$ELEVATION
 40
0.0
  9
$PELEVATION
 40
0.0
  9
$THICKNESS
 40
0.0
  9
$LIMCHECK
 70
     0
  9
$CHAMFERA
 40
0.0
  9
$CHAMFERB
 40
0.0
  9
$CHAMFERC
 40
0.0
  9
$CHAMFERD
 40
0.0
  9
$SKPOLY
 70
     0
  9
$TDCREATE
 40
2460934.514929595
  9
$TDUCREATE
 40
2460934.098262929
  9
$TDUPDATE
 40
2460934.514929862
  9
$TDUUPDATE
 40
2460934.098263195
  9
$TDINDWG
 40
0.0000000116
  9
$TDUSRTIMER
 40
0.0000000116
  9
$USRTIMER
 70
     1
  9
$ANGBASE
 50
0.0
  9
$ANGDIR
 70
     0
  9
$PDMODE
 70
     0
  9
$PDSIZE
 40
-1.0
  9
$PLINEWID
 40
0.0
  9
$SPLFRAME
 70
     0
  9
$SPLINETYPE
 70
     6
  9
$SPLINESEGS
 70
     8
  9
$HANDSEED
  5
123
  9
$SURFTAB1
 70
     6
  9
$SURFTAB2
 70
     6
  9
$SURFTYPE
 70
     6
  9
$SURFU
 70
     6
  9
$SURFV
 70
     6
  9
$UCSBASE
  2

  9
$UCSNAME
  2

  9
$UCSORG
 10
0.0
 20
0.0
 30
0.0
  9
$UCSXDIR
 10
1.0
 20
0.0
 30
0.0
  9
$UCSYDIR
 10
0.0
 20
1.0
 30
0.0
  9
$UCSORTHOREF
  2

  9
$UCSORTHOVIEW
 70
     0
  9
$UCSORGTOP
 10
0.0
 20
0.0
 30
0.0
  9
$UCSORGBOTTOM
 10
0.0
 20
0.0
 30
0.0
  9
$UCSORGLEFT
 10
0.0
 20
0.0
 30
0.0
  9
$UCSORGRIGHT
 10
0.0
 20
0.0
 30
0.0
  9
$UCSORGFRONT
 10
0.0
 20
0.0
 30
0.0
  9
$UCSORGBACK
 10
0.0
 20
0.0
 30
0.0
  9
$PUCSBASE
  2

  9
$PUCSNAME
  2

  9
$PUCSORG
 10
0.0
 20
0.0
 30
0.0
  9
$PUCSXDIR
 10
1.0
 20
0.0
 30
0.0
  9
$PUCSYDIR
 10
0.0
 20
1.0
 30
0.0
  9
$PUCSORTHOREF
  2

  9
$PUCSORTHOVIEW
 70
     0
  9
$PUCSORGTOP
 10
0.0
 20
0.0
 30
0.0
  9
$PUCSORGBOTTOM
 10
0.0
 20
0.0
 30
0.0
  9
$PUCSORGLEFT
 10
0.0
 20
0.0
 30
0.0
  9
$PUCSORGRIGHT
 10
0.0
 20
0.0
 30
0.0
  9
$PUCSORGFRONT
 10
0.0
 20
0.0
 30
0.0
  9
$PUCSORGBACK
 10
0.0
 20
0.0
 30
0.0
  9
$USERI1
 70
     0
  9
$USERI2
 70
     0
  9
$USERI3
 70
     0
  9
$USERI4
 70
     0
  9
$USERI5
 70
     0
  9
$USERR1
 40
0.0
  9
$USERR2
 40
0.0
  9
$USERR3
 40
0.0
  9
$USERR4
 40
0.0
  9
$USERR5
 40
0.0
  9
$WORLDVIEW
 70
     1
  9
$SHADEDGE
 70
     3
  9
$SHADEDIF
 70
    70
  9
$TILEMODE
 70
     1
  9
$MAXACTVP
 70
    64
  9
$PINSBASE
 10
0.0
 20
0.0
 30
0.0
  9
$PLIMCHECK
 70
     0
  9
$PEXTMIN
 10
1.0000000000E+20
 20
1.0000000000E+20
 30
1.0000000000E+20
  9
$PEXTMAX
 10
-1.0000000000E+20
 20
-1.0000000000E+20
 30
-1.0000000000E+20
  9
$PLIMMIN
 10
0.0
 20
0.0
  9
$PLIMMAX
 10
420.0
 20
297.0
  9
$UNITMODE
 70
     0
  9
$VISRETAIN
 70
     1
  9
$PLINEGEN
 70
     0
  9
$PSLTSCALE
 70
     1
  9
$TREEDEPTH
 70
  3020
  9
$CMLSTYLE
  2
Standard
  9
$CMLJUST
 70
     0
  9
$CMLSCALE
 40
20.0
  9
$PROXYGRAPHICS
 70
     1
  9
$MEASUREMENT
 70
     1
  9
$CELWEIGHT
370
    -1
  9
$ENDCAPS
280
     0
  9
$JOINSTYLE
280
     0
  9
$LWDISPLAY
290
     1
  9
$INSUNITS
 70
     4
  9
$HYPERLINKBASE
  1

  9
$STYLESHEET
  1

  9
$XEDIT
290
     1
  9
$CEPSNTYPE
380
     0
  9
$PSTYLEMODE
290
     1
  9
$FINGERPRINTGUID
  2
{c9ea93e1-6e7b-4489-871f-d5fc5e62ccc9}
  9
$VERSIONGUID
  2
{FAEB1C32-E019-11D5-929B-00C0DF256EC4}
  9
$EXTNAMES
290
     1
  9
$PSVPSCALE
 40
0.0
  9
$OLESTARTUP
290
     0
  9
$SORTENTS
280
   127
  9
$INDEXCTL
280
     0
  9
$HIDETEXT
280
     1
  9
$XCLIPFRAME
280
     2
  9
$HALOGAP
280
     0
  9
$OBSCOLOR
 70
   257
  9
$OBSLTYPE
280
     0
  9
$INTERSECTIONDISPLAY
280
     0
  9
$INTERSECTIONCOLOR
 70
   257
  9
$DIMASSOC
280
     2
  9
$PROJECTNAME
  1

  9
$CAMERADISPLAY
290
     0
  9
$LENSLENGTH
 40
50.0
  9
$CAMERAHEIGHT
 40
0.0
  9
$STEPSPERSEC
 40
2.0
  9
$STEPSIZE
 40
6.0
  9
$3DDWFPREC
 40
2.0
  9
$PSOLWIDTH
 40
5.0
  9
$PSOLHEIGHT
 40
80.0
  9
$LOFTANG1
 40
1.5707963268
  9
$LOFTANG2
 40
1.5707963268
  9
$LOFTMAG1
 40
0.0
  9
$LOFTMAG2
 40
0.0
  9
$LOFTPARAM
 70
     7
  9
$LOFTNORMALS
280
     1
  9
$LATITUDE
 40
37.795
  9
$LONGITUDE
 40
-122.394
  9
$NORTHDIRECTION
 40
0.0
  9
$TIMEZONE
 70
 -8000
  9
$LIGHTGLYPHDISPLAY
280
     1
  9
$TILEMODELIGHTSYNCH
280
     1
  9
$CMATERIAL
347
44
  9
$SOLIDHIST
280
     0
  9
$SHOWHIST
280
     1
  9
$DWFFRAME
280
     2
  9
$DGNFRAME
280
     2
  9
$REALWORLDSCALE
290
     1
  9
$INTERFERECOLOR
 62
   256
  9
$CSHADOW
280
     0
  9
$SHADOWPLANELOCATION
 40
0.0
  0
ENDSEC
  0
SECTION
  2
CLASSES
  0
CLASS
  1
ACDBDICTIONARYWDFLT
  2
AcDbDictionaryWithDefault
  3
ObjectDBX Classes
 90
        0
 91
        3
280
     0
281
     0
  0
CLASS
  1
VISUALSTYLE
  2
AcDbVisualStyle
  3
ObjectDBX Classes
 90
     4095
 91
        3
280
     0
281
     0
  0
CLASS
  1
MATERIAL
  2
AcDbMaterial
  3
ObjectDBX Classes
 90
     1153
 91
        3
280
     0
281
     0
  0
CLASS
  1
SCALE
  2
AcDbScale
  3
ObjectDBX Classes
 90
     1153
 91
        3
280
     0
281
     0
  0
CLASS
  1
TABLESTYLE
  2
AcDbTableStyle
  3
ObjectDBX Classes
 90
     4095
 91
        3
280
     0
281
     0
  0
CLASS
  1
MLEADERSTYLE
  2
AcDbMLeaderStyle
  3
ACDB_MLEADERSTYLE_CLASS
 90
     4095
 91
        3
280
     0
281
     0
  0
CLASS
  1
SUN
  2
AcDbSun
  3
SCENEOE
 90
     1153
 91
        3
280
     0
281
     0
  0
CLASS
  1
DICTIONARYVAR
  2
AcDbDictionaryVar
  3
ObjectDBX Classes
 90
        0
 91
        3
280
     0
281
     0
  0
CLASS
  1
CELLSTYLEMAP
  2
AcDbCellStyleMap
  3
ObjectDBX Classes
 90
     1152
 91
        3
280
     0
281
     0
  0
ENDSEC
  0
SECTION
  2
TABLES
  0
TABLE
  2
VPORT
  5
8
330
0
100
AcDbSymbolTable
 70
     1
  0
VPORT
  5
29
330
8
100
AcDbSymbolTableRecord
100
AcDbViewportTableRecord
  2
*Active
 70
     0
 10
0.0
 20
0.0
 11
1.0
 21
1.0
 12
210.0
 22
148.5
 13
0.0
 23
0.0
 14
10.0
 24
10.0
 15
10.0
 25
10.0
 16
0.0
 26
0.0
 36
1.0
 17
0.0
 27
0.0
 37
0.0
 40
297.0
 41
1.4141414141
 42
50.0
 43
0.0
 44
0.0
 50
0.0
 51
0.0
 71
     0
 72
  2000
 73
     1
 74
     3
 75
     0
 76
     0
 77
     0
 78
     0
281
     0
 65
     1
110
0.0
120
0.0
130
0.0
111
1.0
121
0.0
131
0.0
112
0.0
122
1.0
132
0.0
 79
     0
146
0.0
348
2F
 60
     3
 61
     5
292
     1
282
     1
141
0.0
142
0.0
 63
   250
361
5D
  0
ENDTAB
  0
TABLE
  2
LTYPE
  5
5
330
0
100
AcDbSymbolTable
 70
     6
  0
LTYPE
  5
14
330
5
100
AcDbSymbolTableRecord
100
AcDbLinetypeTableRecord
  2
ByBlock
 70
     0
  3

 72
    65
 73
     0
 40
0.0
  0
LTYPE
  5
15
330
5
100
AcDbSymbolTableRecord
100
AcDbLinetypeTableRecord
  2
ByLayer
 70
     0
  3

 72
    65
 73
     0
 40
0.0
  0
LTYPE
  5
16
330
5
100
AcDbSymbolTableRecord
100
AcDbLinetypeTableRecord
  2
Continuous
 70
     0
  3
Solid line
 72
    65
 73
     0
 40
0.0
  0
LTYPE
  5
5E
330
5
100
AcDbSymbolTableRecord
100
AcDbLinetypeTableRecord
  2
HIDDEN
 70
     0
  3
Hidden __ __ __ __ __ __ __ __ __ __ __ __ __ __
 72
    65
 73
     2
 40
1.905
 49
1.27
 74
     0
 49
-0.635
 74
     0
  0
LTYPE
  5
5F
330
5
100
AcDbSymbolTableRecord
100
AcDbLinetypeTableRecord
  2
PHANTOM
 70
     0
  3
Phantom ______  __  __  ______  __  __  ______
 72
    65
 73
     6
 40
12.7
 49
6.35
 74
     0
 49
-1.27
 74
     0
 49
1.27
 74
     0
 49
-1.27
 74
     0
 49
1.27
 74
     0
 49
-1.27
 74
     0
  0
LTYPE
  5
60
330
5
100
AcDbSymbolTableRecord
100
AcDbLinetypeTableRecord
  2
CENTER
 70
     0
  3
Center ____ _ ____ _ ____ _ ____ _ ____ _ ____
 72
    65
 73
     4
 40
10.16
 49
6.35
 74
     0
 49
-1.27
 74
     0
 49
1.27
 74
     0
 49
-1.27
 74
     0
  0
LTYPE
  5
61
330
5
100
AcDbSymbolTableRecord
100
AcDbLinetypeTableRecord
  2
CENTERX2
 70
     0
  3
Center (2x) ________  __  ________  __  _____
 72
    65
 73
     4
 40
20.32
 49
12.7
 74
     0
 49
-2.54
 74
     0
 49
2.54
 74
     0
 49
-2.54
 74
     0
  0
LTYPE
  5
62
330
5
100
AcDbSymbolTableRecord
100
AcDbLinetypeTableRecord
  2
DOT2
 70
     0
  3
Dot (.5x) ........................................
 72
    65
 73
     2
 40
0.635
 49
0.0
 74
     0
 49
-0.635
 74
     0
  0
ENDTAB
  0
TABLE
  2
LAYER
  5
2
330
0
100
AcDbSymbolTable
 70
    13
  0
LAYER
  5
10
330
2
100
AcDbSymbolTableRecord
100
AcDbLayerTableRecord
  2
0
 70
     0
 62
     7
  6
Continuous
370
    -3
390
F
347
46
348
0
  0
LAYER
  5
63
330
2
100
AcDbSymbolTableRecord
100
AcDbLayerTableRecord
  2
DRAWING-SHEET
 70
     0
 62
   179
  6
Continuous
370
    -3
390
F
347
46
348
0
  0
LAYER
  5
64
330
2
100
AcDbSymbolTableRecord
100
AcDbLayerTableRecord
  2
BORDER
 70
     0
 62
   179
  6
Continuous
370
    -3
390
F
347
46
348
0
  0
LAYER
  5
65
330
2
100
AcDbSymbolTableRecord
100
AcDbLayerTableRecord
  2
DIMENSIONS
 70
     0
 62
     7
  6
Continuous
370
    -3
390
F
347
46
348
0
  0
LAYER
  5
66
330
2
100
AcDbSymbolTableRecord
100
AcDbLayerTableRecord
  2
CENTRE_LINES
 70
     0
 62
     7
  6
Continuous
370
    -3
390
F
347
46
348
0
  0
LAYER
  5
67
330
2
100
AcDbSymbolTableRecord
100
AcDbLayerTableRecord
  2
FORMAT
 70
     0
 62
     7
  6
Continuous
370
    -3
390
F
347
46
348
0
  0
LAYER
  5
68
330
2
100
AcDbSymbolTableRecord
100
AcDbLayerTableRecord
  2
SLD-0
 70
     0
 62
   179
  6
Continuous
370
    -3
390
F
347
46
348
0
  0
LAYER
  5
69
330
2
100
AcDbSymbolTableRecord
100
AcDbLayerTableRecord
  2
OUTLINE
 70
     0
 62
     4
  6
Continuous
370
    -3
390
F
347
46
348
0
  0
LAYER
  5
6A
330
2
100
AcDbSymbolTableRecord
100
AcDbLayerTableRecord
  2
4
 70
     0
 62
     7
  6
Continuous
370
    70
390
F
347
46
348
0
  0
LAYER
  5
6B
330
2
100
AcDbSymbolTableRecord
100
AcDbLayerTableRecord
  2
TEXT25
 70
     0
 62
   179
  6
Continuous
370
    -3
390
F
347
46
348
0
  0
LAYER
  5
6C
330
2
100
AcDbSymbolTableRecord
100
AcDbLayerTableRecord
  2
TEXT35
 70
     0
 62
     7
  6
Continuous
370
    -3
390
F
347
46
348
0
  0
LAYER
  5
6D
330
2
100
AcDbSymbolTableRecord
100
AcDbLayerTableRecord
  2
TEXT5
 70
     0
 62
     7
  6
Continuous
370
    -3
390
F
347
46
348
0
  0
LAYER
  5
6E
330
2
100
AcDbSymbolTableRecord
100
AcDbLayerTableRecord
  2
5
 70
     0
 62
     7
  6
Continuous
370
    35
390
F
347
46
348
0
  0
ENDTAB
  0
TABLE
  2
STYLE
  5
3
330
0
100
AcDbSymbolTable
 70
     3
  0
STYLE
  5
11
330
3
100
AcDbSymbolTableRecord
100
AcDbTextStyleTableRecord
  2
Standard
 70
     0
 40
0.0
 41
1.0
 50
0.0
 71
     0
 42
4.2333333333
  3
txt
  4

  0
STYLE
  5
75
330
3
100
AcDbSymbolTableRecord
100
AcDbTextStyleTableRecord
  2
SLDTEXTSTYLE0
 70
     0
 40
0.0
 41
0.75
 50
0.0
 71
     0
 42
4.2333333333
  3
TXT
  4

  0
STYLE
  5
7B
330
3
100
AcDbSymbolTableRecord
100
AcDbTextStyleTableRecord
  2
SLDTEXTSTYLE1
 70
     0
 40
0.0
 41
0.6
 50
0.0
 71
     0
 42
4.2333333333
  3
TXT
  4

  0
ENDTAB
  0
TABLE
  2
VIEW
  5
6
330
0
100
AcDbSymbolTable
 70
     0
  0
ENDTAB
  0
TABLE
  2
UCS
  5
7
330
0
100
AcDbSymbolTable
 70
     0
  0
ENDTAB
  0
TABLE
  2
APPID
  5
9
330
0
100
AcDbSymbolTable
 70
     1
  0
APPID
  5
12
330
9
100
AcDbSymbolTableRecord
100
AcDbRegAppTableRecord
  2
ACAD
 70
     0
  0
ENDTAB
  0
TABLE
  2
DIMSTYLE
  5
A
330
0
100
AcDbSymbolTable
 70
     1
100
AcDbDimStyleTable
  0
DIMSTYLE
105
27
330
A
100
AcDbSymbolTableRecord
100
AcDbDimStyleTableRecord
  2
ISO-25
 70
     0
 41
2.5
 42
0.625
 43
3.75
 44
1.25
 73
     0
 74
     0
 77
     1
 78
     8
140
2.5
141
2.5
143
0.0393700787
147
0.625
171
     3
172
     1
178
     0
271
     2
272
     2
274
     3
278
    44
283
     0
284
     8
340
11
  0
ENDTAB
  0
TABLE
  2
BLOCK_RECORD
  5
1
330
0
100
AcDbSymbolTable
 70
     6
  0
BLOCK_RECORD
  5
1F
330
1
100
AcDbSymbolTableRecord
100
AcDbBlockTableRecord
  2
*Model_Space
340
22
 70
     0
280
     1
281
     0
  0
BLOCK_RECORD
  5
1B
330
1
100
AcDbSymbolTableRecord
100
AcDbBlockTableRecord
  2
*Paper_Space
340
1E
 70
     0
280
     1
281
     0
  0
BLOCK_RECORD
  5
23
330
1
100
AcDbSymbolTableRecord
100
AcDbBlockTableRecord
  2
*Paper_Space0
340
26
 70
     0
280
     1
281
     0
  0
BLOCK_RECORD
  5
6F
330
1
100
AcDbSymbolTableRecord
100
AcDbBlockTableRecord
  2
Block1
340
0
 70
     0
280
     1
281
     0
  0
BLOCK_RECORD
  5
72
330
1
100
AcDbSymbolTableRecord
100
AcDbBlockTableRecord
  2
SW_NOTE_0
340
0
102
{BLKREFS
331
77
102
}
 70
     0
280
     1
281
     0
  0
BLOCK_RECORD
  5
78
330
1
100
AcDbSymbolTableRecord
100
AcDbBlockTableRecord
  2
SW_NOTE_0_1
340
0
102
{BLKREFS
331
7D
102
}
 70
     0
280
     1
281
     0
  0
BLOCK_RECORD
  5
7E
330
1
100
AcDbSymbolTableRecord
100
AcDbBlockTableRecord
  2
SW_NOTE_0_2
340
0
102
{BLKREFS
331
82
102
}
 70
     0
280
     1
281
     0
  0
BLOCK_RECORD
  5
83
330
1
100
AcDbSymbolTableRecord
100
AcDbBlockTableRecord
  2
SW_NOTE_0_3
340
0
102
{BLKREFS
331
87
102
}
 70
     0
280
     1
281
     0
  0
ENDTAB
  0
ENDSEC
  0
SECTION
  2
BLOCKS
  0
BLOCK
  5
20
330
1F
100
AcDbEntity
  8
0
100
AcDbBlockBegin
  2
*Model_Space
 70
     0
 10
0.0
 20
0.0
 30
0.0
  3
*Model_Space
  1

  0
ENDBLK
  5
21
330
1F
100
AcDbEntity
  8
0
100
AcDbBlockEnd
  0
BLOCK
  5
1C
330
1B
100
AcDbEntity
 67
     1
  8
0
100
AcDbBlockBegin
  2
*Paper_Space
 70
     0
 10
0.0
 20
0.0
 30
0.0
  3
*Paper_Space
  1

  0
ENDBLK
  5
1D
330
1B
100
AcDbEntity
 67
     1
  8
0
100
AcDbBlockEnd
  0
BLOCK
  5
24
330
23
100
AcDbEntity
  8
0
100
AcDbBlockBegin
  2
*Paper_Space0
 70
     0
 10
0.0
 20
0.0
 30
0.0
  3
*Paper_Space0
  1

  0
ENDBLK
  5
25
330
23
100
AcDbEntity
  8
0
100
AcDbBlockEnd
  0
BLOCK
  5
70
330
6F
100
AcDbEntity
  8
0
100
AcDbBlockBegin
  2
Block1
 70
     0
 10
0.0
 20
0.0
 30
0.0
  3
Block1
  1

  0
INSERT
  5
77
330
6F
100
AcDbEntity
  8
0
  6
Continuous
 62
     7
370
     0
100
AcDbBlockReference
  2
SW_NOTE_0
 10
40.5248655077
 20
20.5912386523
 30
0.0
  0
INSERT
  5
7D
330
6F
100
AcDbEntity
  8
DRAWING-SHEET
 62
     7
100
AcDbBlockReference
  2
SW_NOTE_0_1
 10
3.556761253
 20
-0.3611706024
 30
0.0
  0
INSERT
  5
82
330
6F
100
AcDbEntity
  8
DRAWING-SHEET
 62
     7
100
AcDbBlockReference
  2
SW_NOTE_0_2
 10
7.9590819428
 20
3.0109637777
 30
0.0
  0
INSERT
  5
87
330
6F
100
AcDbEntity
  8
DRAWING-SHEET
 62
     7
100
AcDbBlockReference
  2
SW_NOTE_0_3
 10
0.0721004934
 20
6.5234823937
 30
0.0
  0
ENDBLK
  5
71
330
6F
100
AcDbEntity
  8
0
100
AcDbBlockEnd
  0
BLOCK
  5
73
330
72
100
AcDbEntity
  8
0
100
AcDbBlockBegin
  2
SW_NOTE_0
 70
     0
 10
0.0
 20
0.0
 30
0.0
  3
SW_NOTE_0
  1

  0
MTEXT
  5
76
330
72
100
AcDbEntity
  8
0
  6
Continuous
 62
     0
370
     0
100
AcDbMText
 10
0.0
 20
1.9336016097
 30
0.0
 40
1.5
 41
0.0
 46
0.0
 71
     1
 72
     1
  1
TITLE:
  7
SLDTEXTSTYLE0
 73
     1
 44
1.0
  0
ENDBLK
  5
74
330
72
100
AcDbEntity
  8
0
100
AcDbBlockEnd
  0
BLOCK
  5
79
330
78
100
AcDbEntity
  8
0
100
AcDbBlockBegin
  2
SW_NOTE_0_1
 70
     0
 10
0.0
 20
0.0
 30
0.0
  3
SW_NOTE_0_1
  1

  0
MTEXT
  5
7C
330
78
100
AcDbEntity
  8
DRAWING-SHEET
 62
     0
100
AcDbMText
 10
0.0
 20
2.7285267159
 30
0.0
 40
2.1166666667
 41
0.0
 46
0.0
 71
     1
 72
     1
  1
Email: roddyeng.com.au
  7
SLDTEXTSTYLE1
 73
     1
 44
1.0
  0
ENDBLK
  5
7A
330
78
100
AcDbEntity
  8
0
100
AcDbBlockEnd
  0
BLOCK
  5
7F
330
7E
100
AcDbEntity
  8
0
100
AcDbBlockBegin
  2
SW_NOTE_0_2
 70
     0
 10
0.0
 20
0.0
 30
0.0
  3
SW_NOTE_0_2
  1

  0
MTEXT
  5
81
330
7E
100
AcDbEntity
  8
DRAWING-SHEET
 62
     0
100
AcDbMText
 10
0.0
 20
2.7285267159
 30
0.0
 40
2.1166666667
 41
0.0
 46
0.0
 71
     1
 72
     1
  1
Ph: - 02 6947 4039
  7
SLDTEXTSTYLE1
 73
     1
 44
1.0
  0
ENDBLK
  5
80
330
7E
100
AcDbEntity
  8
0
100
AcDbBlockEnd
  0
BLOCK
  5
84
330
83
100
AcDbEntity
  8
0
100
AcDbBlockBegin
  2
SW_NOTE_0_3
 70
     0
 10
0.0
 20
0.0
 30
0.0
  3
SW_NOTE_0_3
  1

  0
MTEXT
  5
86
330
83
100
AcDbEntity
  8
DRAWING-SHEET
 62
     0
100
AcDbMText
 10
0.0
 20
2.7285267159
 30
0.0
 40
2.1166666667
 41
0.0
 46
0.0
 71
     1
 72
     1
  1
14 Waratah St TUMUT NSW 2720
  7
SLDTEXTSTYLE1
 73
     1
 44
1.0
  0
ENDBLK
  5
85
330
83
100
AcDbEntity
  8
0
100
AcDbBlockEnd
  0
ENDSEC
  0
SECTION
  2
ENTITIES
  0
SPLINE
  5
88
330
1F
100
AcDbEntity
  8
0
  6
Continuous
 62
     7
370
    25
100
AcDbSpline
210
0.0
220
0.0
230
1.0
 70
     8
 71
     3
 72
    31
 73
    27
 74
     0
 42
0.00000001
 43
0.00000001
 40
0.0
 40
0.0
 40
0.0
 40
0.0
 40
0.0337881161627101
 40
0.0671939323738785
 40
0.0998624108568231
 40
0.1325666121262573
 40
0.1651511732547859
 40
0.1979131873557908
 40
0.2313190035669602
 40
0.2650832782673721
 40
0.2992553087581151
 40
0.3343985665049788
 40
0.3699428235093068
 40
0.4062835607000605
 40
0.4440638196985093
 40
0.4829977068727743
 40
0.5233544466133033
 40
0.5655365896041498
 40
0.6096129240658184
 40
0.6563908113764167
 40
0.7058854949364557
 40
0.758324500261731
 40
0.8138317829411497
 40
0.8727945590393887
 40
0.9347222295400733
 40
1.0
 40
1.0
 40
1.0
 40
1.0
 10
868.964305999486
 20
589.7203626938488
 30
0.0
 10
869.0279299503072
 20
589.719247687733
 30
0.0
 10
869.1544579706401
 20
589.7170302913803
 30
0.0
 10
869.341521685488
 20
589.6957184227298
 30
0.0
 10
869.5242638151213
 20
589.6603558556511
 30
0.0
 10
869.701905275015
 20
589.6102507708907
 30
0.0
 10
869.8759052440843
 20
589.5480892242406
 30
0.0
 10
870.0449027472744
 20
589.4701758137054
 30
0.0
 10
870.2099475053133
 20
589.3794812597752
 30
0.0
 10
870.3684167339303
 20
589.27291239736
 30
0.0
 10
870.5220501404356
 20
589.154095766053
 30
0.0
 10
870.6670740558003
 20
589.0197810945026
 30
0.0
 10
870.8035016807089
 20
588.8713245933171
 30
0.0
 10
870.9330452358773
 20
588.7103146187192
 30
0.0
 10
871.0520294580471
 20
588.5336629962424
 30
0.0
 10
871.1653401602995
 20
588.3444421738101
 30
0.0
 10
871.2667619566461
 20
588.1393430542814
 30
0.0
 10
871.3644412141972
 20
587.9217876992161
 30
0.0
 10
871.448754326744
 20
587.6857564790866
 30
0.0
 10
871.524791458795
 20
587.4325798836167
 30
0.0
 10
871.586229101252
 20
587.1592674565234
 30
0.0
 10
871.637404580882
 20
586.8672531815631
 30
0.0
 10
871.6770500573292
 20
586.5554646484428
 30
0.0
 10
871.7059246677944
 20
586.2245702129873
 30
0.0
 10
871.7211774336032
 20
585.8743521772369
 30
0.0
 10
871.7240498935041
 20
585.634905664832
 30
0.0
 10
871.7255239482038
 20
585.5120293605154
 30
0.0
  0
SPLINE
  5
89
330
1F
100
AcDbEntity
  8
0
  6
Continuous
 62
     7
370
    25
100
AcDbSpline
210
0.0
220
0.0
230
1.0
 70
     8
 71
     3
 72
    31
 73
    27
 74
     0
 42
0.00000001
 43
0.00000001
 40
0.0
 40
0.0
 40
0.0
 40
0.0
 40
0.0685946222587426
 40
0.1332460424433
 40
0.1943125864682571
 40
0.2512792231169659
 40
0.3045134392563464
 40
0.3542349066533258
 40
0.40048058877399
 40
0.4434107549384919
 40
0.4840148686163445
 40
0.5232523007732021
 40
0.5610423727283596
 40
0.5979002393643985
 40
0.6335184888561959
 40
0.6683143511696515
 40
0.7024956712863799
 40
0.7366853535134568
 40
0.7702931693607888
 40
0.8034372550192478
 40
0.8359129516660281
 40
0.8684602457892914
 40
0.900846538243181
 40
0.9334665246307063
 40
0.9662575752981226
 40
1.0
 40
1.0
 40
1.0
 40
1.0
 10
866.2896265123063
 20
585.5120293605154
 30
0.0
 10
866.2903762680949
 20
585.6402519610508
 30
0.0
 10
866.2918326795208
 20
585.8893262107594
 30
0.0
 10
866.3080347845316
 20
586.2522625354835
 30
0.0
 10
866.334949852676
 20
586.5927431960438
 30
0.0
 10
866.3718352763339
 20
586.910784489846
 30
0.0
 10
866.4167220882734
 20
587.2064685230293
 30
0.0
 10
866.4766432005051
 20
587.4790051107694
 30
0.0
 10
866.5447867493392
 20
587.7296556401707
 30
0.0
 10
866.6237637683347
 20
587.9592374652586
 30
0.0
 10
866.7128787146623
 20
588.1708436435952
 30
0.0
 10
866.8098713105985
 20
588.368386960838
 30
0.0
 10
866.9185908407094
 20
588.5515685204717
 30
0.0
 10
867.032823784543
 20
588.7233120414317
 30
0.0
 10
867.1571942339779
 20
588.8808062009571
 30
0.0
 10
867.288162897903
 20
589.0262751438565
 30
0.0
 10
867.4308414722279
 20
589.1563568592023
 30
0.0
 10
867.5803797768529
 20
589.2748626932254
 30
0.0
 10
867.7381316954626
 20
589.3787471999042
 30
0.0
 10
867.8996006466471
 20
589.4702506024544
 30
0.0
 10
868.0658980314606
 20
589.5484217276147
 30
0.0
 10
868.2374778780845
 20
589.6098855810079
 30
0.0
 10
868.4127980104038
 20
589.6606532307738
 30
0.0
 10
868.592471305698
 20
589.6953708253945
 30
0.0
 10
868.7767944232668
 20
589.717215187656
 30
0.0
 10
868.901209131377
 20
589.7193035710621
 30
0.0
 10
868.964305999486
 20
589.7203626938488
 30
0.0
  0
SPLINE
  5
8A
330
1F
100
AcDbEntity
  8
0
  6
Continuous
 62
     7
370
    25
100
AcDbSpline
210
0.0
220
0.0
230
1.0
 70
     8
 71
     3
 72
    31
 73
    27
 74
     0
 42
0.00000001
 43
0.00000001
 40
0.0
 40
0.0
 40
0.0
 40
0.0
 40
0.0337871463469915
 40
0.0666216577242954
 40
0.099284878095974
 40
0.1313611650426511
 40
0.1635851875953436
 40
0.196103926987069
 40
0.2289022543238178
 40
0.2621580559050075
 40
0.2959912222583161
 40
0.3302178457247993
 40
0.3650598258919532
 40
0.400950737340108
 40
0.4376203820767379
 40
0.4757075294370932
 40
0.5153806916250503
 40
0.5564135414931655
 40
0.5997648298727326
 40
0.646424155584088
 40
0.6964314445175677
 40
0.7497815178015588
 40
0.8065733069755331
 40
0.8674355315654004
 40
0.9318867532508747
 40
0.9999999999999999
 40
0.9999999999999999
 40
0.9999999999999999
 40
0.9999999999999999
 10
868.964305999486
 20
581.3101062835924
 30
0.0
 10
868.9012108818052
 20
581.3111722389268
 30
0.0
 10
868.7767996251984
 20
581.3132740947838
 30
0.0
 10
868.5924512241941
 20
581.3350197667568
 30
0.0
 10
868.4135199249025
 20
581.3699809169564
 30
0.0
 10
868.2391227728167
 20
581.4189331548789
 30
0.0
 10
868.068365024054
 20
581.4788527807427
 30
0.0
 10
867.9035735116979
 20
581.5569183432639
 30
0.0
 10
867.7429159489764
 20
581.6468247865917
 30
0.0
 10
867.5868209637921
 20
581.7492143213079
 30
0.0
 10
867.4382217385582
 20
581.8665210256013
 30
0.0
 10
867.2962820692694
 20
581.9962679711704
 30
0.0
 10
867.164567739905
 20
582.1416929112788
 30
0.0
 10
867.0419755213511
 20
582.3004995926678
 30
0.0
 10
866.9254633197609
 20
582.4712270037143
 30
0.0
 10
866.8182876093168
 20
582.6562061421037
 30
0.0
 10
866.7191542285899
 20
582.8547035375086
 30
0.0
 10
866.6285405356332
 20
583.0680016190516
 30
0.0
 10
866.5482007333134
 20
583.2992128827311
 30
0.0
 10
866.4772345433399
 20
583.550982433594
 30
0.0
 10
866.4212021834082
 20
583.8255324589974
 30
0.0
 10
866.3732411426474
 20
584.120657869524
 30
0.0
 10
866.334556838548
 20
584.4376268532632
 30
0.0
 10
866.308146952106
 20
584.7766114891189
 30
0.0
 10
866.29182394631
 20
585.137400538093
 30
0.0
 10
866.2903723567783
 20
585.3848743079595
 30
0.0
 10
866.2896265123063
 20
585.5120293605154
 30
0.0
  0
SPLINE
  5
8B
330
1F
100
AcDbEntity
  8
0
  6
Continuous
 62
     7
370
    25
100
AcDbSpline
210
0.0
220
0.0
230
1.0
 70
     8
 71
     3
 72
    31
 73
    27
 74
     0
 42
0.00000001
 43
0.00000001
 40
0.0
 40
0.0
 40
0.0
 40
0.0
 40
0.0650632896172783
 40
0.1267731664665234
 40
0.1855157632260798
 40
0.2407646791677159
 40
0.2929797960235989
 40
0.3422503727797683
 40
0.3889192861856595
 40
0.4327756640583108
 40
0.4746284326311178
 40
0.5147746906379532
 40
0.5536058934984426
 40
0.5914264064311747
 40
0.6280281199460673
 40
0.6638036341103206
 40
0.6989843361316638
 40
0.7335914893067057
 40
0.7676284691511399
 40
0.8012083477865927
 40
0.8342638397266237
 40
0.8669806947287778
 40
0.8997197415181607
 40
0.9327019124985396
 40
0.9661758834327498
 40
1.0
 40
1.0
 40
1.0
 40
1.0
 10
871.7255239482038
 20
585.5120293605154
 30
0.0
 10
871.7240346121034
 20
585.3896889995076
 30
0.0
 10
871.7211327014486
 20
585.1513137952588
 30
0.0
 10
871.7060956574081
 20
584.8026715659565
 30
0.0
 10
871.6764759289996
 20
584.4735331812741
 30
0.0
 10
871.6394245271509
 20
584.1631092670827
 30
0.0
 10
871.5881080403545
 20
583.8726918526073
 30
0.0
 10
871.5250105174946
 20
583.601275970395
 30
0.0
 10
871.454952636759
 20
583.347689520874
 30
0.0
 10
871.3684731073652
 20
583.1140099514798
 30
0.0
 10
871.273820055143
 20
582.8969774420747
 30
0.0
 10
871.1708367495992
 20
582.6943096744639
 30
0.0
 10
871.0605057185462
 20
582.5042152911963
 30
0.0
 10
870.940302872825
 20
582.3282158696393
 30
0.0
 10
870.8121807855189
 20
582.1650646534727
 30
0.0
 10
870.6733972682778
 20
582.0176415159834
 30
0.0
 10
870.5278645023303
 20
581.8823942657821
 30
0.0
 10
870.3737789804243
 20
581.7620476887256
 30
0.0
 10
870.2128382918936
 20
581.656710992414
 30
0.0
 10
870.0483604017795
 20
581.5625079058132
 30
0.0
 10
869.8774269541286
 20
581.486547459985
 30
0.0
 10
869.7039116336041
 20
581.4213245091787
 30
0.0
 10
869.5253325110556
 20
581.3714949048675
 30
0.0
 10
869.3419121894797
 20
581.3370403779633
 30
0.0
 10
869.1545836502141
 20
581.3128761529238
 30
0.0
 10
869.027951501457
 20
581.3110327703516
 30
0.0
 10
868.964305999486
 20
581.3101062835924
 30
0.0
  0
LINE
  5
8C
330
1F
100
AcDbEntity
  8
0
  6
Continuous
 62
     7
370
    25
100
AcDbLine
 10
885.3056521533
 20
581.5152344887
 30
0.0
 11
880.0332162559
 21
587.7972857708
 31
0.0
  0
LINE
  5
8D
330
1F
100
AcDbEntity
  8
0
  6
Continuous
 62
     7
370
    25
100
AcDbLine
 10
885.4691136918
 20
581.5152344887
 30
0.0
 11
885.3056521533
 21
581.5152344887
 31
0.0
  0
LINE
  5
8E
330
1F
100
AcDbEntity
  8
0
  6
Continuous
 62
     7
370
    25
100
AcDbLine
 10
885.4691136918
 20
589.5152344887
 30
0.0
 11
885.4691136918
 21
581.5152344887
 31
0.0
  0
LINE
  5
8F
330
1F
100
AcDbEntity
  8
0
  6
Continuous
 62
     7
370
    25
100
AcDbLine
 10
884.7511649738
 20
589.5152344887
 30
0.0
 11
885.4691136918
 21
589.5152344887
 31
0.0
  0
LINE
  5
90
330
1F
100
AcDbEntity
  8
0
  6
Continuous
 62
     7
370
    25
100
AcDbLine
 10
884.7511649738
 20
583.2187601297
 30
0.0
 11
884.7511649738
 21
589.5152344887
 31
0.0
  0
LINE
  5
91
330
1F
100
AcDbEntity
  8
0
  6
Continuous
 62
     7
370
    25
100
AcDbLine
 10
879.4659085636
 20
589.5152344887
 30
0.0
 11
884.7511649738
 21
583.2187601297
 31
0.0
  0
LINE
  5
92
330
1F
100
AcDbEntity
  8
0
  6
Continuous
 62
     7
370
    25
100
AcDbLine
 10
879.3152675379
 20
589.5152344887
 30
0.0
 11
879.4659085636
 21
589.5152344887
 31
0.0
  0
LINE
  5
93
330
1F
100
AcDbEntity
  8
0
  6
Continuous
 62
     7
370
    25
100
AcDbLine
 10
879.3152675379
 20
581.5152344887
 30
0.0
 11
879.3152675379
 21
589.5152344887
 31
0.0
  0
LINE
  5
94
330
1F
100
AcDbEntity
  8
0
  6
Continuous
 62
     7
370
    25
100
AcDbLine
 10
880.0332162559
 20
581.5152344887
 30
0.0
 11
879.3152675379
 21
581.5152344887
 31
0.0
  0
LINE
  5
95
330
1F
100
AcDbEntity
  8
0
  6
Continuous
 62
     7
370
    25
100
AcDbLine
 10
880.0332162559
 20
587.7972857708
 30
0.0
 11
880.0332162559
 21
581.5152344887
 31
0.0
  0
SPLINE
  5
96
330
1F
100
AcDbEntity
  8
0
  6
Continuous
 62
     7
370
    25
100
AcDbSpline
210
0.0
220
0.0
230
1.0
 70
     8
 71
     3
 72
    23
 73
    19
 74
     0
 42
0.00000001
 43
0.00000001
 40
0.0
 40
0.0
 40
0.0
 40
0.0
 40
0.0611602766365183
 40
0.1203345577262035
 40
0.1781802550631265
 40
0.2352351259863656
 40
0.2926829614441807
 40
0.3511862482150805
 40
0.4104566095096924
 40
0.4717198544629949
 40
0.5337612027725894
 40
0.5957390238870951
 40
0.6578875151248846
 40
0.7212951802914623
 40
0.78682251454189
 40
0.8546861538286853
 40
0.9254779862699962
 40
1.0
 40
1.0
 40
1.0
 40
1.0
 10
892.2383444610243
 20
583.7860678220538
 30
0.0
 10
892.2361116701138
 20
583.7079721143467
 30
0.0
 10
892.2317185914444
 20
583.5543166215323
 30
0.0
 10
892.1993072273376
 20
583.3285905997025
 30
0.0
 10
892.1444292685012
 20
583.1128764360161
 30
0.0
 10
892.0688380768106
 20
582.9057788755492
 30
0.0
 10
891.9701813577286
 20
582.7076985681878
 30
0.0
 10
891.8501174392568
 20
582.5184111076471
 30
0.0
 10
891.7069595795475
 20
582.3398183519602
 30
0.0
 10
891.5468158790859
 20
582.1699357848674
 30
0.0
 10
891.3656452608261
 20
582.0171865566623
 30
0.0
 10
891.170180678146
 20
581.8811506556765
 30
0.0
 10
890.9579605183891
 20
581.7692739422697
 30
0.0
 10
890.7324702463515
 20
581.6752944645489
 30
0.0
 10
890.4911803809475
 20
581.603506582343
 30
0.0
 10
890.235174421268
 20
581.5532835562875
 30
0.0
 10
889.9646731599308
 20
581.5194434717192
 30
0.0
 10
889.779050871676
 20
581.5166612891023
 30
0.0
 10
889.6838572815373
 20
581.5152344887206
 30
0.0
  0
SPLINE
  5
97
330
1F
100
AcDbEntity
  8
0
  6
Continuous
 62
     7
370
    25
100
AcDbSpline
210
0.0
220
0.0
230
1.0
 70
     8
 71
     3
 72
    19
 73
    15
 74
     0
 42
0.00000001
 43
0.00000001
 40
0.0
 40
0.0
 40
0.0
 40
0.0
 40
0.1060574933033982
 40
0.2029142570846112
 40
0.2903001653958381
 40
0.3702225656250411
 40
0.4463837207709717
 40
0.5213968999648273
 40
0.5982910828464569
 40
0.6761424688569261
 40
0.7555286995560203
 40
0.8348871724576592
 40
0.9166460487466405
 40
1.0
 40
1.0
 40
1.0
 40
1.0
 10
890.6982803584602
 20
585.8309396169257
 30
0.0
 10
890.7891613358198
 20
585.7960481907757
 30
0.0
 10
890.9630391584011
 20
585.7292922493016
 30
0.0
 10
891.2023214725314
 20
585.6112683315941
 30
0.0
 10
891.4084811182368
 20
585.4828977935565
 30
0.0
 10
891.5831031662029
 20
585.3427107075139
 30
0.0
 10
891.732446377441
 20
585.1916048542794
 30
0.0
 10
891.8628531010361
 20
585.0273645931402
 30
0.0
 10
891.9741248134039
 20
584.8478474322776
 30
0.0
 10
892.0694686386967
 20
584.654925065735
 30
0.0
 10
892.143865795328
 20
584.4505674237764
 30
0.0
 10
892.1995821481731
 20
584.2366913641252
 30
0.0
 10
892.2315077461978
 20
584.0140638093953
 30
0.0
 10
892.2360509262624
 20
583.8625543709074
 30
0.0
 10
892.2383444610243
 20
583.7860678220538
 30
0.0
  0
SPLINE
  5
98
330
1F
100
AcDbEntity
  8
0
  6
Continuous
 62
     7
370
    25
100
AcDbSpline
210
0.0
220
0.0
230
1.0
 70
     8
 71
     3
 72
    15
 73
    11
 74
     0
 42
0.00000001
 43
0.00000001
 40
0.0
 40
0.0
 40
0.0
 40
0.0
 40
0.1305691070873111
 40
0.2565806086940813
 40
0.3805516168036825
 40
0.5036229172007103
 40
0.6257393231697906
 40
0.747548581959627
 40
0.8717661185648694
 40
1.0
 40
1.0
 40
1.0
 40
1.0
 10
891.6229598456398
 20
587.5328626938488
 30
0.0
 10
891.6204610606281
 20
587.4445139951563
 30
0.0
 10
891.6155507124334
 20
587.2709004705367
 30
0.0
 10
891.5685958339586
 20
587.0169710778886
 30
0.0
 10
891.4950857346682
 20
586.775254006283
 30
0.0
 10
891.3929023080078
 20
586.5466314110445
 30
0.0
 10
891.2600977452694
 20
586.3362688667115
 30
0.0
 10
891.1027073026062
 20
586.1424694014657
 30
0.0
 10
890.9128174683411
 20
585.9734384140487
 30
0.0
 10
890.7705472055117
 20
585.8789403510757
 30
0.0
 10
890.6982803584602
 20
585.8309396169257
 30
0.0
  0
SPLINE
  5
99
330
1F
100
AcDbEntity
  8
0
  6
Continuous
 62
     7
370
    25
100
AcDbSpline
210
0.0
220
0.0
230
1.0
 70
     8
 71
     3
 72
    23
 73
    19
 74
     0
 42
0.00000001
 43
0.00000001
 40
0.0
 40
0.0
 40
0.0
 40
0.0
 40
0.0625940971873324
 40
0.1213229386347502
 40
0.1766801421977652
 40
0.2283650957096748
 40
0.2768684458368067
 40
0.3218791276660453
 40
0.3640986251098912
 40
0.4033556962427007
 40
0.4779679481633716
 40
0.550535461364775
 40
0.6235844567403224
 40
0.698174882264205
 40
0.7733536703408738
 40
0.8472811254977323
 40
0.9228183395566674
 40
1.0
 40
1.0
 40
1.0
 40
1.0
 10
889.081293178973
 20
589.5152344887206
 30
0.0
 10
889.1577011291166
 20
589.5148327735166
 30
0.0
 10
889.3057987527427
 20
589.514054149473
 30
0.0
 10
889.5211574769228
 20
589.5019784211372
 30
0.0
 10
889.722869044101
 20
589.485512889986
 30
0.0
 10
889.910991952331
 20
589.459386963942
 30
0.0
 10
890.085439272082
 20
589.4278629018955
 30
0.0
 10
890.2467367286255
 20
589.3896873222604
 30
0.0
 10
890.3943714080959
 20
589.3439122053256
 30
0.0
 10
890.57062909131
 20
589.2711207053657
 30
0.0
 10
890.7715906018902
 20
589.1629534634235
 30
0.0
 10
890.9891869280684
 20
589.003116743083
 30
0.0
 10
891.1752537608897
 20
588.8076139702364
 30
0.0
 10
891.3356796288691
 20
588.5870821864094
 30
0.0
 10
891.4632250451233
 20
588.3444861366927
 30
0.0
 10
891.5554977247021
 20
588.0856079909156
 30
0.0
 10
891.6139157255218
 20
587.813786866528
 30
0.0
 10
891.6199235751582
 20
587.627173888519
 30
0.0
 10
891.6229598456398
 20
587.5328626938488
 30
0.0
  0
LINE
  5
9A
330
1F
100
AcDbEntity
  8
0
  6
Continuous
 62
     7
370
    25
100
AcDbLine
 10
887.5203957431
 20
589.5152344887
 30
0.0
 11
889.081293179
 21
589.5152344887
 31
0.0
  0
LINE
  5
9B
330
1F
100
AcDbEntity
  8
0
  6
Continuous
 62
     7
370
    25
100
AcDbLine
 10
887.5203957431
 20
581.5152344887
 30
0.0
 11
887.5203957431
 21
589.5152344887
 31
0.0
  0
LINE
  5
9C
330
1F
100
AcDbEntity
  8
0
  6
Continuous
 62
     7
370
    25
100
AcDbLine
 10
889.6838572815
 20
581.5152344887
 30
0.0
 11
887.5203957431
 21
581.5152344887
 31
0.0
  0
SPLINE
  5
9D
330
1F
100
AcDbEntity
  8
0
  6
Continuous
 62
     7
370
    25
100
AcDbSpline
210
0.0
220
0.0
230
1.0
 70
     8
 71
     3
 72
    31
 73
    27
 74
     0
 42
0.00000001
 43
0.00000001
 40
0.0
 40
0.0
 40
0.0
 40
0.0
 40
0.03378811616271
 40
0.0671939323738809
 40
0.0998624108568261
 40
0.1325666121262603
 40
0.1651511732547866
 40
0.1979131873557938
 40
0.2313190035669632
 40
0.2650832782673745
 40
0.2992553087581146
 40
0.33439856650498
 40
0.3699428235093097
 40
0.4062835607000635
 40
0.4440638196985083
 40
0.4829977068727767
 40
0.5233544466133035
 40
0.565536589604149
 40
0.6096129240658222
 40
0.6563908113764184
 40
0.7058854949364578
 40
0.7583245002617308
 40
0.8138317829411496
 40
0.8727945590393935
 40
0.9347222295400731
 40
1.0
 40
1.0
 40
1.0
 40
1.0
 10
882.6053316405116
 20
575.3870293605155
 30
0.0
 10
882.6689555913329
 20
575.3859143543996
 30
0.0
 10
882.7954836116659
 20
575.383696958047
 30
0.0
 10
882.9825473265137
 20
575.3623850893965
 30
0.0
 10
883.165289456147
 20
575.3270225223177
 30
0.0
 10
883.3429309160408
 20
575.2769174375574
 30
0.0
 10
883.51693088511
 20
575.2147558909073
 30
0.0
 10
883.6859283883
 20
575.136842480372
 30
0.0
 10
883.850973146339
 20
575.0461479264418
 30
0.0
 10
884.0094423749558
 20
574.9395790640266
 30
0.0
 10
884.1630757814611
 20
574.8207624327198
 30
0.0
 10
884.308099696826
 20
574.6864477611692
 30
0.0
 10
884.4445273217345
 20
574.5379912599838
 30
0.0
 10
884.574070876903
 20
574.3769812853858
 30
0.0
 10
884.6930550990727
 20
574.2003296629091
 30
0.0
 10
884.8063658013251
 20
574.0111088404767
 30
0.0
 10
884.9077875976717
 20
573.806009720948
 30
0.0
 10
885.0054668552228
 20
573.5884543658827
 30
0.0
 10
885.0897799677697
 20
573.3524231457532
 30
0.0
 10
885.1658170998206
 20
573.0992465502833
 30
0.0
 10
885.2272547422778
 20
572.82593412319
 30
0.0
 10
885.2784302219077
 20
572.5339198482297
 30
0.0
 10
885.3180756983548
 20
572.2221313151094
 30
0.0
 10
885.34695030882
 20
571.8912368796539
 30
0.0
 10
885.3622030746288
 20
571.5410188439037
 30
0.0
 10
885.3650755345299
 20
571.3015723314987
 30
0.0
 10
885.3665495892294
 20
571.1786960271821
 30
0.0
  0
SPLINE
  5
9E
330
1F
100
AcDbEntity
  8
0
  6
Continuous
 62
     7
370
    25
100
AcDbSpline
210
0.0
220
0.0
230
1.0
 70
     8
 71
     3
 72
    31
 73
    27
 74
     0
 42
0.00000001
 43
0.00000001
 40
0.0
 40
0.0
 40
0.0
 40
0.0
 40
0.0685946222587404
 40
0.133246042443298
 40
0.1943125864682526
 40
0.251279223116964
 40
0.3045134392563475
 40
0.3542349066533247
 40
0.4004805887739883
 40
0.4434107549384927
 40
0.4840148686163455
 40
0.523252300773201
 40
0.5610423727283619
 40
0.597900239364401
 40
0.6335184888561929
 40
0.6683143511696522
 40
0.7024956712863822
 40
0.7366853535134592
 40
0.7702931693607877
 40
0.803437255019249
 40
0.8359129516660294
 40
0.8684602457892905
 40
0.9008465382431826
 40
0.9334665246307086
 40
0.9662575752981225
 40
1.0
 40
1.0
 40
1.0
 40
1.0
 10
879.930652153332
 20
571.1786960271821
 30
0.0
 10
879.9314019091206
 20
571.3069186277176
 30
0.0
 10
879.9328583205464
 20
571.555992877426
 30
0.0
 10
879.9490604255573
 20
571.9189292021501
 30
0.0
 10
879.9759754937016
 20
572.2594098627105
 30
0.0
 10
880.0128609173594
 20
572.5774511565127
 30
0.0
 10
880.0577477292991
 20
572.873135189696
 30
0.0
 10
880.1176688415306
 20
573.1456717774362
 30
0.0
 10
880.1858123903648
 20
573.3963223068374
 30
0.0
 10
880.2647894093603
 20
573.6259041319254
 30
0.0
 10
880.353904355688
 20
573.8375103102619
 30
0.0
 10
880.4508969516241
 20
574.0350536275047
 30
0.0
 10
880.5596164817352
 20
574.2182351871386
 30
0.0
 10
880.6738494255686
 20
574.3899787080984
 30
0.0
 10
880.7982198750035
 20
574.5474728676237
 30
0.0
 10
880.9291885389287
 20
574.692941810523
 30
0.0
 10
881.0718671132536
 20
574.823023525869
 30
0.0
 10
881.2214054178785
 20
574.9415293598921
 30
0.0
 10
881.3791573364882
 20
575.0454138665708
 30
0.0
 10
881.5406262876726
 20
575.1369172691211
 30
0.0
 10
881.7069236724861
 20
575.2150883942812
 30
0.0
 10
881.8785035191102
 20
575.2765522476745
 30
0.0
 10
882.0538236514294
 20
575.3273198974405
 30
0.0
 10
882.2334969467237
 20
575.3620374920613
 30
0.0
 10
882.4178200642925
 20
575.3838818543227
 30
0.0
 10
882.5422347724026
 20
575.3859702377289
 30
0.0
 10
882.6053316405116
 20
575.3870293605155
 30
0.0
  0
SPLINE
  5
9F
330
1F
100
AcDbEntity
  8
0
  6
Continuous
 62
     7
370
    25
100
AcDbSpline
210
0.0
220
0.0
230
1.0
 70
     8
 71
     3
 72
    31
 73
    27
 74
     0
 42
0.00000001
 43
0.00000001
 40
0.0
 40
0.0
 40
0.0
 40
0.0
 40
0.0337871463469914
 40
0.0666216577242928
 40
0.0992848780959719
 40
0.1313611650426514
 40
0.1635851875953439
 40
0.1961039269870672
 40
0.228902254323816
 40
0.2621580559050084
 40
0.2959912222583135
 40
0.3302178457247986
 40
0.3650598258919543
 40
0.400950737340109
 40
0.437620382076739
 40
0.4757075294370908
 40
0.5153806916250478
 40
0.5564135414931631
 40
0.5997648298727302
 40
0.6464241555840855
 40
0.6964314445175633
 40
0.7497815178015563
 40
0.8065733069755332
 40
0.8674355315654004
 40
0.9318867532508699
 40
1.0
 40
1.0
 40
1.0
 40
1.0
 10
882.6053316405116
 20
566.976772950259
 30
0.0
 10
882.5422365228309
 20
566.9778389055934
 30
0.0
 10
882.417825266224
 20
566.9799407614504
 30
0.0
 10
882.2334768652196
 20
567.0016864334233
 30
0.0
 10
882.0545455659284
 20
567.0366475836231
 30
0.0
 10
881.8801484138423
 20
567.0855998215455
 30
0.0
 10
881.7093906650797
 20
567.1455194474095
 30
0.0
 10
881.5445991527235
 20
567.2235850099304
 30
0.0
 10
881.383941590002
 20
567.3134914532585
 30
0.0
 10
881.2278466048178
 20
567.4158809879746
 30
0.0
 10
881.0792473795839
 20
567.5331876922679
 30
0.0
 10
880.9373077102952
 20
567.662934637837
 30
0.0
 10
880.8055933809306
 20
567.8083595779456
 30
0.0
 10
880.6830011623767
 20
567.9671662593345
 30
0.0
 10
880.5664889607865
 20
568.1378936703808
 30
0.0
 10
880.4593132503425
 20
568.3228728087704
 30
0.0
 10
880.3601798696154
 20
568.5213702041751
 30
0.0
 10
880.2695661766588
 20
568.7346682857182
 30
0.0
 10
880.189226374339
 20
568.9658795493979
 30
0.0
 10
880.1182601843655
 20
569.2176491002605
 30
0.0
 10
880.0622278244339
 20
569.4921991256641
 30
0.0
 10
880.0142667836731
 20
569.7873245361908
 30
0.0
 10
879.9755824795736
 20
570.1042935199298
 30
0.0
 10
879.9491725931316
 20
570.4432781557855
 30
0.0
 10
879.9328495873357
 20
570.8040672047596
 30
0.0
 10
879.931397997804
 20
571.051540974626
 30
0.0
 10
879.930652153332
 20
571.1786960271821
 30
0.0
  0
SPLINE
  5
A0
330
1F
100
AcDbEntity
  8
0
  6
Continuous
 62
     7
370
    25
100
AcDbSpline
210
0.0
220
0.0
230
1.0
 70
     8
 71
     3
 72
    31
 73
    27
 74
     0
 42
0.00000001
 43
0.00000001
 40
0.0
 40
0.0
 40
0.0
 40
0.0
 40
0.0650632896172805
 40
0.1267731664665252
 40
0.1855157632260813
 40
0.2407646791677175
 40
0.2929797960236004
 40
0.342250372779769
 40
0.3889192861856607
 40
0.4327756640583095
 40
0.4746284326311185
 40
0.5147746906379528
 40
0.5536058934984431
 40
0.5914264064311752
 40
0.6280281199460677
 40
0.6638036341103225
 40
0.6989843361316639
 40
0.7335914893067038
 40
0.7676284691511391
 40
0.8012083477865928
 40
0.8342638397266247
 40
0.8669806947287756
 40
0.8997197415181608
 40
0.9327019124985377
 40
0.9661758834327501
 40
1.0
 40
1.0
 40
1.0
 40
1.0
 10
885.3665495892294
 20
571.1786960271821
 30
0.0
 10
885.3650602531291
 20
571.0563556661743
 30
0.0
 10
885.3621583424742
 20
570.8179804619256
 30
0.0
 10
885.3471212984338
 20
570.4693382326233
 30
0.0
 10
885.3175015700252
 20
570.1401998479407
 30
0.0
 10
885.2804501681766
 20
569.8297759337494
 30
0.0
 10
885.2291336813802
 20
569.5393585192741
 30
0.0
 10
885.1660361585201
 20
569.2679426370617
 30
0.0
 10
885.0959782777846
 20
569.0143561875407
 30
0.0
 10
885.0094987483908
 20
568.7806766181466
 30
0.0
 10
884.9148456961686
 20
568.5636441087414
 30
0.0
 10
884.8118623906248
 20
568.3609763411306
 30
0.0
 10
884.7015313595718
 20
568.1708819578628
 30
0.0
 10
884.5813285138506
 20
567.9948825363059
 30
0.0
 10
884.4532064265446
 20
567.8317313201393
 30
0.0
 10
884.3144229093034
 20
567.6843081826502
 30
0.0
 10
884.168890143356
 20
567.5490609324486
 30
0.0
 10
884.0148046214499
 20
567.4287143553923
 30
0.0
 10
883.8538639329192
 20
567.3233776590806
 30
0.0
 10
883.6893860428052
 20
567.2291745724799
 30
0.0
 10
883.5184525951543
 20
567.1532141266516
 30
0.0
 10
883.3449372746297
 20
567.0879911758453
 30
0.0
 10
883.1663581520812
 20
567.0381615715341
 30
0.0
 10
882.9829378305053
 20
567.0037070446299
 30
0.0
 10
882.7956092912398
 20
566.9795428195905
 30
0.0
 10
882.6689771424826
 20
566.9776994370184
 30
0.0
 10
882.6053316405116
 20
566.976772950259
 30
0.0
  0
CIRCLE
  5
A1
330
1F
100
AcDbEntity
  8
0
  6
Continuous
 62
     7
370
    25
100
AcDbCircle
 10
949.7638876862
 20
700.6153280681
 30
0.0
 40
120.2
  0
CIRCLE
  5
A2
330
1F
100
AcDbEntity
  8
0
  6
Continuous
 62
     7
370
    25
100
AcDbCircle
 10
905.117602406
 20
867.2375331029
 30
0.0
 40
16.49999999999998
  0
CIRCLE
  5
A3
330
1F
100
AcDbEntity
  8
0
  6
Continuous
 62
     7
370
    25
100
AcDbCircle
 10
1071.7398074408
 20
822.5912478227
 30
0.0
 40
16.49999999999986
  0
CIRCLE
  5
A4
330
1F
100
AcDbEntity
  8
0
  6
Continuous
 62
     7
370
    25
100
AcDbCircle
 10
1116.386092721
 20
745.2616133482
 30
0.0
 40
16.5000000000002
  0
CIRCLE
  5
A5
330
1F
100
AcDbEntity
  8
0
  6
Continuous
 62
     7
370
    25
100
AcDbCircle
 10
1116.386092721
 20
655.9690427879
 30
0.0
 40
16.49999999999989
  0
CIRCLE
  5
A6
330
1F
100
AcDbEntity
  8
0
  6
Continuous
 62
     7
370
    25
100
AcDbCircle
 10
1071.7398074408
 20
578.6394083134
 30
0.0
 40
16.49999999999998
  0
CIRCLE
  5
A7
330
1F
100
AcDbEntity
  8
0
  6
Continuous
 62
     7
370
    25
100
AcDbCircle
 10
994.4101729663
 20
533.9931230332
 30
0.0
 40
16.49999999999999
  0
CIRCLE
  5
A8
330
1F
100
AcDbEntity
  8
0
  6
Continuous
 62
     7
370
    25
100
AcDbCircle
 10
905.117602406
 20
533.9931230332
 30
0.0
 40
16.5
  0
CIRCLE
  5
A9
330
1F
100
AcDbEntity
  8
0
  6
Continuous
 62
     7
370
    25
100
AcDbCircle
 10
827.7879679315
 20
578.6394083134
 30
0.0
 40
16.49999999999992
  0
CIRCLE
  5
AA
330
1F
100
AcDbEntity
  8
0
  6
Continuous
 62
     7
370
    25
100
AcDbCircle
 10
783.1416826513
 20
655.9690427879
 30
0.0
 40
16.50000000000013
  0
CIRCLE
  5
AB
330
1F
100
AcDbEntity
  8
0
  6
Continuous
 62
     7
370
    25
100
AcDbCircle
 10
783.1416826513
 20
745.2616133482
 30
0.0
 40
16.5
  0
CIRCLE
  5
AC
330
1F
100
AcDbEntity
  8
0
  6
Continuous
 62
     7
370
    25
100
AcDbCircle
 10
827.7879679315
 20
822.5912478227
 30
0.0
 40
16.49999999999996
  0
CIRCLE
  5
AD
330
1F
100
AcDbEntity
  8
0
  6
Continuous
 62
     7
370
    25
100
AcDbCircle
 10
994.4101729663
 20
867.2375331029
 30
0.0
 40
16.5
  0
ARC
  5
AE
330
1F
100
AcDbEntity
  8
0
  6
Continuous
 62
     7
370
    25
100
AcDbCircle
 10
804.7638876862
 20
486.6153280681
 30
0.0
 40
5.000000000000114
100
AcDbArc
 50
180.0
 51
270.0
  0
LINE
  5
AF
330
1F
100
AcDbEntity
  8
0
  6
Continuous
 62
     7
370
    25
100
AcDbLine
 10
799.7638876862
 20
562.6615314548
 30
0.0
 11
799.7638876862
 21
486.6153280681
 31
0.0
  0
ARC
  5
B0
330
1F
100
AcDbEntity
  8
0
  6
Continuous
 62
     7
370
    25
100
AcDbCircle
 10
794.7638876862
 20
562.6615314548
 30
0.0
 40
4.999999999999961
100
AcDbArc
 50
0.0
 51
41.6698657241
  0
ARC
  5
B1
330
1F
100
AcDbEntity
  8
0
  6
Continuous
 62
     7
370
    25
100
AcDbCircle
 10
949.7638876862
 20
700.6153280681
 30
0.0
 40
202.5000000000001
100
AcDbArc
 50
318.3301342759
 51
221.6698657241
  0
ARC
  5
B2
330
1F
100
AcDbEntity
  8
0
  6
Continuous
 62
     7
370
    25
100
AcDbCircle
 10
1104.7638876862
 20
562.6615314548
 30
0.0
 40
5.000000000000121
100
AcDbArc
 50
138.3301342759
 51
180.0
  0
LINE
  5
B3
330
1F
100
AcDbEntity
  8
0
  6
Continuous
 62
     7
370
    25
100
AcDbLine
 10
1099.7638876862
 20
486.6153280681
 30
0.0
 11
1099.7638876862
 21
562.6615314548
 31
0.0
  0
ARC
  5
B4
330
1F
100
AcDbEntity
  8
0
  6
Continuous
 62
     7
370
    25
100
AcDbCircle
 10
1094.7638876862
 20
486.6153280681
 30
0.0
 40
5.000000000000227
100
AcDbArc
 50
270.0
 51
0.0
  0
LINE
  5
B5
330
1F
100
AcDbEntity
  8
0
  6
Continuous
 62
     7
370
    25
100
AcDbLine
 10
804.7638876862
 20
481.6153280681
 30
0.0
 11
1094.7638876862
 21
481.6153280681
 31
0.0
  0
SPLINE
  5
B6
330
1F
100
AcDbEntity
  8
0
  6
Continuous
 62
     7
370
    25
100
AcDbSpline
210
0.0
220
0.0
230
1.0
 70
     8
 71
     3
 72
    19
 73
    15
 74
     0
 42
0.00000001
 43
0.00000001
 40
0.0
 40
0.0
 40
0.0
 40
0.0
 40
0.110802643801317
 40
0.2128292023477714
 40
0.3061013098231129
 40
0.3906473211160104
 40
0.4669244693608506
 40
0.5344810392840328
 40
0.5935869409656724
 40
0.6445570045087194
 40
0.736200452629375
 40
0.8250240256188648
 40
0.911985584829758
 40
1.0
 40
1.0
 40
1.0
 40
1.0
 10
863.2383444610243
 20
584.8261319246179
 30
0.0
 10
863.3138824880136
 20
584.9049851967291
 30
0.0
 10
863.4589755785712
 20
585.0564461946816
 30
0.0
 10
863.6641928969923
 20
585.2775729607022
 30
0.0
 10
863.8485105845634
 20
585.4827147681357
 30
0.0
 10
864.0131217680419
 20
585.671484021723
 30
0.0
 10
864.1544554945924
 20
585.8466418909699
 30
0.0
 10
864.2798777390444
 20
586.0025154991705
 30
0.0
 10
864.3803705184321
 20
586.1459542427314
 30
0.0
 10
864.4894342800038
 20
586.3122185031029
 30
0.0
 10
864.5950662374855
 20
586.515218085215
 30
0.0
 10
864.6858373370064
 20
586.7632950892403
 30
0.0
 10
864.7411855620319
 20
587.0186716667854
 30
0.0
 10
864.7478251860451
 20
587.1912477514649
 30
0.0
 10
864.7511649738449
 20
587.278055001541
 30
0.0
  0
LINE
  5
B7
330
1F
100
AcDbEntity
  8
0
  6
Continuous
 62
     7
370
    25
100
AcDbLine
 10
860.1357803585
 20
581.5152344887
 30
0.0
 11
863.238344461
 21
584.8261319246
 31
0.0
  0
LINE
  5
B8
330
1F
100
AcDbEntity
  8
0
  6
Continuous
 62
     7
370
    25
100
AcDbLine
 10
865.5716777944
 20
581.5152344887
 30
0.0
 11
860.1357803585
 21
581.5152344887
 31
0.0
  0
LINE
  5
B9
330
1F
100
AcDbEntity
  8
0
  6
Continuous
 62
     7
370
    25
100
AcDbLine
 10
865.5716777944
 20
582.3357473092
 30
0.0
 11
865.5716777944
 21
581.5152344887
 31
0.0
  0
LINE
  5
BA
330
1F
100
AcDbEntity
  8
0
  6
Continuous
 62
     7
370
    25
100
AcDbLine
 10
861.8489213841
 20
582.3357473092
 30
0.0
 11
865.5716777944
 21
582.3357473092
 31
0.0
  0
LINE
  5
BB
330
1F
100
AcDbEntity
  8
0
  6
Continuous
 62
     7
370
    25
100
AcDbLine
 10
863.8505239482
 20
584.471965258
 30
0.0
 11
861.8489213841
 21
582.3357473092
 31
0.0
  0
SPLINE
  5
BC
330
1F
100
AcDbEntity
  8
0
  6
Continuous
 62
     7
370
    25
100
AcDbSpline
210
0.0
220
0.0
230
1.0
 70
     8
 71
     3
 72
    19
 73
    15
 74
     0
 42
0.00000001
 43
0.00000001
 40
0.0
 40
0.0
 40
0.0
 40
0.0
 40
0.0987021963061537
 40
0.1956723088106639
 40
0.2924224265079526
 40
0.3913425437998219
 40
0.4444624406718907
 40
0.504228775449315
 40
0.5703523379946781
 40
0.6425457530977459
 40
0.7222875053440166
 40
0.8079211226827109
 40
0.9004695379850124
 40
1.0
 40
1.0
 40
1.0
 40
1.0
 10
865.4691136917936
 20
587.3421575656437
 30
0.0
 10
865.465243376693
 20
587.2307339437583
 30
0.0
 10
865.4575706650423
 20
587.0098420267972
 30
0.0
 10
865.3919378043167
 20
586.6852366262275
 30
0.0
 10
865.2894314932415
 20
586.3707373826009
 30
0.0
 10
865.1660089633002
 20
586.117623549265
 30
0.0
 10
865.0415005197306
 20
585.9136612778204
 30
0.0
 10
864.9293005023737
 20
585.7457328094323
 30
0.0
 10
864.7979523628952
 20
585.5649203102566
 30
0.0
 10
864.645544367552
 20
585.3718292534019
 30
0.0
 10
864.4752292312074
 20
585.1649471846051
 30
0.0
 10
864.2854642863923
 20
584.9443990808373
 30
0.0
 10
864.0748963274863
 20
584.712463606963
 30
0.0
 10
863.9271054686192
 20
584.5540508037908
 30
0.0
 10
863.8505239482039
 20
584.4719652579513
 30
0.0
  0
SPLINE
  5
BD
330
1F
100
AcDbEntity
  8
0
  6
Continuous
 62
     7
370
    25
100
AcDbSpline
210
0.0
220
0.0
230
1.0
 70
     8
 71
     3
 72
    23
 73
    19
 74
     0
 42
0.00000001
 43
0.00000001
 40
0.0
 40
0.0
 40
0.0
 40
0.0
 40
0.0694754602496684
 40
0.1365167976177992
 40
0.2007888236092597
 40
0.2638296728558249
 40
0.3257350229654176
 40
0.3872906922152889
 40
0.4495092187626031
 40
0.5129678195454394
 40
0.5762752154930599
 40
0.637580100263924
 40
0.6979026059171003
 40
0.7571720884269847
 40
0.8165985284886557
 40
0.8766531708928194
 40
0.9372896424102416
 40
1.0
 40
1.0
 40
1.0
 40
1.0
 10
863.052447025127
 20
589.7203626938488
 30
0.0
 10
863.1401683373265
 20
589.7183090791164
 30
0.0
 10
863.3125375822555
 20
589.7142737995256
 30
0.0
 10
863.564107901005
 20
589.6796200183433
 30
0.0
 10
863.8035988597784
 20
589.6253443803198
 30
0.0
 10
864.0305423261142
 20
589.549194857318
 30
0.0
 10
864.2431276165628
 20
589.4468304518493
 30
0.0
 10
864.4429517184058
 20
589.323864649202
 30
0.0
 10
864.6323935716423
 20
589.18164789178
 30
0.0
 10
864.8029233627559
 20
589.014210603898
 30
0.0
 10
864.9595132581532
 20
588.8354622965371
 30
0.0
 10
865.0946041270543
 20
588.6446328025665
 30
0.0
 10
865.2102913578505
 20
588.4475372923607
 30
0.0
 10
865.306720340436
 20
588.242672831603
 30
0.0
 10
865.3777058008683
 20
588.0281104809455
 30
0.0
 10
865.4315988477925
 20
587.8069740174217
 30
0.0
 10
865.462061507651
 20
587.5769744494067
 30
0.0
 10
865.4667367613604
 20
587.4213023222118
 30
0.0
 10
865.4691136917936
 20
587.3421575656437
 30
0.0
  0
SPLINE
  5
BE
330
1F
100
AcDbEntity
  8
0
  6
Continuous
 62
     7
370
    25
100
AcDbSpline
210
0.0
220
0.0
230
1.0
 70
     8
 71
     3
 72
    23
 73
    19
 74
     0
 42
0.00000001
 43
0.00000001
 40
0.0
 40
0.0
 40
0.0
 40
0.0
 40
0.0687907943906178
 40
0.1351032894311288
 40
0.1989786743106509
 40
0.2619042997808573
 40
0.3234949693679683
 40
0.3851953779660495
 40
0.4469692387407753
 40
0.5097647767031338
 40
0.5722505688473689
 40
0.6334051756611534
 40
0.6932511629217519
 40
0.7525831627856705
 40
0.8125792661534208
 40
0.8732750849201913
 40
0.9355499428950277
 40
1.0
 40
1.0
 40
1.0
 40
1.0
 10
860.4434726661525
 20
587.053696027182
 30
0.0
 10
860.4481518730278
 20
587.1489437706513
 30
0.0
 10
860.4573417108015
 20
587.3360078039655
 30
0.0
 10
860.5003778005427
 20
587.6087481614491
 30
0.0
 10
860.5619569484395
 20
587.8694448442487
 30
0.0
 10
860.6490231290447
 20
588.116004647608
 30
0.0
 10
860.757151763947
 20
588.3506076355629
 30
0.0
 10
860.8868203979606
 20
588.572321957143
 30
0.0
 10
861.0404063419912
 20
588.7803018170621
 30
0.0
 10
861.2145931626666
 20
588.9726191731661
 30
0.0
 10
861.4037786233637
 20
589.1490479064216
 30
0.0
 10
861.6079064850118
 20
589.3014027471215
 30
0.0
 10
861.8224094045233
 20
589.4301288530918
 30
0.0
 10
862.0466366021585
 20
589.5377431201176
 30
0.0
 10
862.2831178902944
 20
589.6185199107978
 30
0.0
 10
862.5297072796417
 20
589.6784550870369
 30
0.0
 10
862.7874881628633
 20
589.714515305829
 30
0.0
 10
862.9631224989705
 20
589.7183913872103
 30
0.0
 10
863.052447025127
 20
589.7203626938488
 30
0.0
  0
LINE
  5
BF
330
1F
100
AcDbEntity
  8
0
  6
Continuous
 62
     7
370
    25
100
AcDbLine
 10
861.1614213841
 20
587.0536960272
 30
0.0
 11
860.4434726662
 21
587.0536960272
 31
0.0
  0
SPLINE
  5
C0
330
1F
100
AcDbEntity
  8
0
  6
Continuous
 62
     7
370
    25
100
AcDbSpline
210
0.0
220
0.0
230
1.0
 70
     8
 71
     3
 72
    23
 73
    19
 74
     0
 42
0.00000001
 43
0.00000001
 40
0.0
 40
0.0
 40
0.0
 40
0.0
 40
0.0644386715952403
 40
0.1265469112716759
 40
0.1868871534365666
 40
0.2458775355894536
 40
0.3040408846912637
 40
0.3621912180726604
 40
0.4209759327916414
 40
0.4806602832796661
 40
0.5406002749537567
 40
0.6006890983494523
 40
0.6619357897571938
 40
0.724442505913982
 40
0.7890383938817418
 40
0.8563137570509931
 40
0.9263520282058622
 40
1.0
 40
1.0
 40
1.0
 40
1.0
 10
863.015588050768
 20
588.8998498733359
 30
0.0
 10
862.953026147325
 20
588.8982155138756
 30
0.0
 10
862.830164898823
 20
588.8950059017512
 30
0.0
 10
862.6497785378252
 20
588.8725540983409
 30
0.0
 10
862.477696760628
 20
588.8338207488623
 30
0.0
 10
862.3134866967355
 20
588.7808454931204
 30
0.0
 10
862.156870500592
 20
588.7135116672408
 30
0.0
 10
862.0086098285068
 20
588.6296448222607
 30
0.0
 10
861.8690375101984
 20
588.5295682664835
 30
0.0
 10
861.737891171123
 20
588.4161041377429
 30
0.0
 10
861.6170592189778
 20
588.2897781921065
 30
0.0
 10
861.5108949312865
 20
588.1489554193821
 30
0.0
 10
861.4181314703868
 20
587.996207041391
 30
0.0
 10
861.3371960795758
 20
587.8319452115181
 30
0.0
 10
861.271468787958
 20
587.6546794286965
 30
0.0
 10
861.2212444441155
 20
587.4650389604715
 30
0.0
 10
861.1815030801804
 20
587.263847231469
 30
0.0
 10
861.1682264616551
 20
587.1249098946539
 30
0.0
 10
861.1614213841012
 20
587.053696027182
 30
0.0
  0
SPLINE
  5
C1
330
1F
100
AcDbEntity
  8
0
  6
Continuous
 62
     7
370
    25
100
AcDbSpline
210
0.0
220
0.0
230
1.0
 70
     8
 71
     3
 72
    23
 73
    19
 74
     0
 42
0.00000001
 43
0.00000001
 40
0.0
 40
0.0
 40
0.0
 40
0.0
 40
0.0619654006870637
 40
0.1221219056382949
 40
0.1809884968498405
 40
0.2399332164519058
 40
0.2999058311065251
 40
0.3599888474769846
 40
0.4217757417416476
 40
0.4865758264211263
 40
0.5515348046197398
 40
0.6150175427599828
 40
0.6772586166616567
 40
0.7397299623627113
 40
0.8030501026629508
 40
0.866495132015694
 40
0.9319734741771484
 40
1.0
 40
1.0
 40
1.0
 40
1.0
 10
864.7511649738449
 20
587.278055001541
 30
0.0
 10
864.7497118485891
 20
587.3326410550515
 30
0.0
 10
864.7468480177512
 20
587.4402196844487
 30
0.0
 10
864.7215732806224
 20
587.5979471336341
 30
0.0
 10
864.6833778381207
 20
587.7500952794989
 30
0.0
 10
864.6286458197254
 20
587.8971321231967
 30
0.0
 10
864.5564018423875
 20
588.0375793279195
 30
0.0
 10
864.4684626882902
 20
588.1716078540991
 30
0.0
 10
864.3669996861921
 20
588.3011826316992
 30
0.0
 10
864.249625356293
 20
588.4226758844036
 30
0.0
 10
864.1206847395923
 20
588.5339472112205
 30
0.0
 10
863.984469311969
 20
588.6325165493105
 30
0.0
 10
863.8403547879464
 20
588.7148916597079
 30
0.0
 10
863.6889487944015
 20
588.7824196532631
 30
0.0
 10
863.5306734357539
 20
588.8353919531404
 30
0.0
 10
863.3652225897598
 20
588.8720972775361
 30
0.0
 10
863.1930534096855
 20
588.8951429551283
 30
0.0
 10
863.0754911338212
 20
588.8982610623475
 30
0.0
 10
863.015588050768
 20
588.8998498733359
 30
0.0
  0
LINE
  5
C2
330
1F
100
AcDbEntity
  8
0
  6
Continuous
 62
     7
370
    25
100
AcDbLine
 10
887.5203957431
 20
571.0424780785
 30
0.0
 11
887.5203957431
 21
567.1819011554
 31
0.0
  0
LINE
  5
C3
330
1F
100
AcDbEntity
  8
0
  6
Continuous
 62
     7
370
    25
100
AcDbLine
 10
891.2303316405
 20
567.1819011554
 30
0.0
 11
887.5203957431
 21
571.0424780785
 31
0.0
  0
LINE
  5
C4
330
1F
100
AcDbEntity
  8
0
  6
Continuous
 62
     7
370
    25
100
AcDbLine
 10
892.1870624097
 20
567.1819011554
 30
0.0
 11
891.2303316405
 21
567.1819011554
 31
0.0
  0
LINE
  5
C5
330
1F
100
AcDbEntity
  8
0
  6
Continuous
 62
     7
370
    25
100
AcDbLine
 10
887.9482803585
 20
571.5921575656
 30
0.0
 11
892.1870624097
 21
567.1819011554
 31
0.0
  0
LINE
  5
C6
330
1F
100
AcDbEntity
  8
0
  6
Continuous
 62
     7
370
    25
100
AcDbLine
 10
891.8793701021
 20
575.1819011554
 30
0.0
 11
887.9482803585
 21
571.5921575656
 31
0.0
  0
LINE
  5
C7
330
1F
100
AcDbEntity
  8
0
  6
Continuous
 62
     7
370
    25
100
AcDbLine
 10
890.8553316405
 20
575.1819011554
 30
0.0
 11
891.8793701021
 21
575.1819011554
 31
0.0
  0
LINE
  5
C8
330
1F
100
AcDbEntity
  8
0
  6
Continuous
 62
     7
370
    25
100
AcDbLine
 10
887.5203957431
 20
572.1354267964
 30
0.0
 11
890.8553316405
 21
575.1819011554
 31
0.0
  0
LINE
  5
C9
330
1F
100
AcDbEntity
  8
0
  6
Continuous
 62
     7
370
    25
100
AcDbLine
 10
887.5203957431
 20
575.1819011554
 30
0.0
 11
887.5203957431
 21
572.1354267964
 31
0.0
  0
LINE
  5
CA
330
1F
100
AcDbEntity
  8
0
  6
Continuous
 62
     7
370
    25
100
AcDbLine
 10
886.8024470251
 20
575.1819011554
 30
0.0
 11
887.5203957431
 21
575.1819011554
 31
0.0
  0
LINE
  5
CB
330
1F
100
AcDbEntity
  8
0
  6
Continuous
 62
     7
370
    25
100
AcDbLine
 10
886.8024470251
 20
567.1819011554
 30
0.0
 11
886.8024470251
 21
575.1819011554
 31
0.0
  0
LINE
  5
CC
330
1F
100
AcDbEntity
  8
0
  6
Continuous
 62
     7
370
    25
100
AcDbLine
 10
887.5203957431
 20
567.1819011554
 30
0.0
 11
886.8024470251
 21
567.1819011554
 31
0.0
  0
LINE
  5
CD
330
1F
100
AcDbEntity
  8
0
  6
Continuous
 62
     7
370
    25
100
AcDbLine
 10
877.5716777944
 20
567.1819011554
 30
0.0
 11
877.5716777944
 21
569.0280550015
 31
0.0
  0
LINE
  5
CE
330
1F
100
AcDbEntity
  8
0
  6
Continuous
 62
     7
370
    25
100
AcDbLine
 10
878.2896265123
 20
567.1819011554
 30
0.0
 11
877.5716777944
 21
567.1819011554
 31
0.0
  0
LINE
  5
CF
330
1F
100
AcDbEntity
  8
0
  6
Continuous
 62
     7
370
    25
100
AcDbLine
 10
878.2896265123
 20
569.0280550015
 30
0.0
 11
878.2896265123
 21
567.1819011554
 31
0.0
  0
LINE
  5
D0
330
1F
100
AcDbEntity
  8
0
  6
Continuous
 62
     7
370
    25
100
AcDbLine
 10
879.2127034354
 20
569.0280550015
 30
0.0
 11
878.2896265123
 21
569.0280550015
 31
0.0
  0
LINE
  5
D1
330
1F
100
AcDbEntity
  8
0
  6
Continuous
 62
     7
370
    25
100
AcDbLine
 10
879.2127034354
 20
569.8485678221
 30
0.0
 11
879.2127034354
 21
569.0280550015
 31
0.0
  0
LINE
  5
D2
330
1F
100
AcDbEntity
  8
0
  6
Continuous
 62
     7
370
    25
100
AcDbLine
 10
878.2896265123
 20
569.8485678221
 30
0.0
 11
879.2127034354
 21
569.8485678221
 31
0.0
  0
LINE
  5
D3
330
1F
100
AcDbEntity
  8
0
  6
Continuous
 62
     7
370
    25
100
AcDbLine
 10
878.2896265123
 20
575.3870293605
 30
0.0
 11
878.2896265123
 21
569.8485678221
 31
0.0
  0
LINE
  5
D4
330
1F
100
AcDbEntity
  8
0
  6
Continuous
 62
     7
370
    25
100
AcDbLine
 10
878.143793179
 20
575.3870293605
 30
0.0
 11
878.2896265123
 21
575.3870293605
 31
0.0
  0
LINE
  5
D5
330
1F
100
AcDbEntity
  8
0
  6
Continuous
 62
     7
370
    25
100
AcDbLine
 10
873.7768059995
 20
569.0280550015
 30
0.0
 11
878.143793179
 21
575.3870293605
 31
0.0
  0
LINE
  5
D6
330
1F
100
AcDbEntity
  8
0
  6
Continuous
 62
     7
370
    25
100
AcDbLine
 10
877.5716777944
 20
569.0280550015
 30
0.0
 11
873.7768059995
 21
569.0280550015
 31
0.0
  0
SPLINE
  5
D7
330
1F
100
AcDbEntity
  8
0
  6
Continuous
 62
     7
370
    25
100
AcDbSpline
210
0.0
220
0.0
230
1.0
 70
     8
 71
     3
 72
    19
 73
    15
 74
     0
 42
0.00000001
 43
0.00000001
 40
0.0
 40
0.0
 40
0.0
 40
0.0
 40
0.0969723103815162
 40
0.1877734389628641
 40
0.2723961390136888
 40
0.3513209973752904
 40
0.424334774451467
 40
0.4919087840005256
 40
0.5542332197968011
 40
0.611267658244153
 40
0.7163478449915506
 40
0.814540085821612
 40
0.9084954561491877
 40
0.9999999999999999
 40
0.9999999999999999
 40
0.9999999999999999
 40
0.9999999999999999
 10
870.9691136917936
 20
571.723567822054
 30
0.0
 10
871.0559386364962
 20
571.6603875716546
 30
0.0
 10
871.2240631082185
 20
571.5380477733621
 30
0.0
 10
871.4632804337306
 20
571.354240504728
 30
0.0
 10
871.6801805665187
 20
571.1744741765582
 30
0.0
 10
871.875525031822
 20
570.99989678891
 30
0.0
 10
872.0512436796844
 20
570.8318325763302
 30
0.0
 10
872.2053870412267
 20
570.6682595927184
 30
0.0
 10
872.339525739163
 20
570.5103497123018
 30
0.0
 10
872.4839353813577
 20
570.307898110722
 30
0.0
 10
872.6314961116904
 20
570.0592556323807
 30
0.0
 10
872.7582195572357
 20
569.7546196585629
 30
0.0
 10
872.8381243514176
 20
569.448799497427
 30
0.0
 10
872.8485735295478
 20
569.2432524426268
 30
0.0
 10
872.8537290764089
 20
569.1418370528231
 30
0.0
  0
SPLINE
  5
D8
330
1F
100
AcDbEntity
  8
0
  6
Continuous
 62
     7
370
    25
100
AcDbSpline
210
0.0
220
0.0
230
1.0
 70
     8
 71
     3
 72
    15
 73
    11
 74
     0
 42
0.00000001
 43
0.00000001
 40
0.0
 40
0.0
 40
0.0
 40
0.0
 40
0.0525942815291441
 40
0.124951973975044
 40
0.2180938989285921
 40
0.3335024107325271
 40
0.4687891785044554
 40
0.6249375859646016
 40
0.8016830479282282
 40
0.9999999999999999
 40
0.9999999999999999
 40
0.9999999999999999
 40
0.9999999999999999
 10
869.893793178973
 20
572.5200421810282
 30
0.0
 10
869.9113048873335
 20
572.5044146934492
 30
0.0
 10
869.9529086979322
 20
572.4672873601252
 30
0.0
 10
870.0289679567657
 20
572.4065050043681
 30
0.0
 10
870.1294086384341
 20
572.3315272391219
 30
0.0
 10
870.2516079554098
 20
572.2387562300365
 30
0.0
 10
870.3978190679288
 20
572.1311414594827
 30
0.0
 10
870.5680580534021
 20
572.0100589173941
 30
0.0
 10
870.7604272713105
 20
571.8715778682355
 30
0.0
 10
870.8969345076525
 20
571.7747606325556
 30
0.0
 10
870.9691136917936
 20
571.723567822054
 30
0.0
  0
SPLINE
  5
D9
330
1F
100
AcDbEntity
  8
0
  6
Continuous
 62
     7
370
    25
100
AcDbSpline
210
0.0
220
0.0
230
1.0
 70
     8
 71
     3
 72
    15
 73
    11
 74
     0
 42
0.00000001
 43
0.00000001
 40
0.0
 40
0.0
 40
0.0
 40
0.0
 40
0.1072852142689612
 40
0.2147458609696324
 40
0.3229385595552922
 40
0.4341161625174662
 40
0.5534123109628017
 40
0.6860729848107442
 40
0.8342559920595912
 40
1.0
 40
1.0
 40
1.0
 40
1.0
 10
869.3665495892294
 20
573.5536960271821
 30
0.0
 10
869.3674481643949
 20
573.5108355048038
 30
0.0
 10
869.3692467840731
 20
573.4250443746613
 30
0.0
 10
869.3943320359277
 20
573.298298267338
 30
0.0
 10
869.4265590735457
 20
573.171872348667
 30
0.0
 10
869.4776279461249
 20
573.0463350164745
 30
0.0
 10
869.5481314972467
 20
572.9194907672122
 30
0.0
 10
869.6407147564612
 20
572.7891553670783
 30
0.0
 10
869.7573166125754
 20
572.6541800329708
 30
0.0
 10
869.8466354979502
 20
572.5663917500566
 30
0.0
 10
869.893793178973
 20
572.5200421810282
 30
0.0
  0
SPLINE
  5
DA
330
1F
100
AcDbEntity
  8
0
  6
Continuous
 62
     7
370
    25
100
AcDbSpline
210
0.0
220
0.0
230
1.0
 70
     8
 71
     3
 72
    15
 73
    11
 74
     0
 42
0.00000001
 43
0.00000001
 40
0.0
 40
0.0
 40
0.0
 40
0.0
 40
0.1430730837303668
 40
0.2759029640930096
 40
0.4023708562739969
 40
0.5284136450935947
 40
0.6503563791869462
 40
0.765895086124684
 40
0.8807741308440145
 40
1.0
 40
1.0
 40
1.0
 40
1.0
 10
870.5396265123064
 20
574.5665165400026
 30
0.0
 10
870.4569830325225
 20
574.5637469401125
 30
0.0
 10
870.2976128670039
 20
574.5584060276286
 30
0.0
 10
870.0713494701868
 20
574.5000746326763
 30
0.0
 10
869.8677062128992
 20
574.4082303805486
 30
0.0
 10
869.6927289213422
 20
574.2795104306157
 30
0.0
 10
869.5470444023867
 20
574.1270053044783
 30
0.0
 10
869.4416604966384
 20
573.9515107785927
 30
0.0
 10
869.3782315490907
 20
573.7577224297823
 30
0.0
 10
869.370491481317
 20
573.6225415010242
 30
0.0
 10
869.3665495892294
 20
573.5536960271821
 30
0.0
  0
SPLINE
  5
DB
330
1F
100
AcDbEntity
  8
0
  6
Continuous
 62
     7
370
    25
100
AcDbSpline
210
0.0
220
0.0
230
1.0
 70
     8
 71
     3
 72
    19
 73
    15
 74
     0
 42
0.00000001
 43
0.00000001
 40
0.0
 40
0.0
 40
0.0
 40
0.0
 40
0.098469431025559
 40
0.1896291011376237
 40
0.2741840894379706
 40
0.3521831609671553
 40
0.423198873183466
 40
0.4885509460005343
 40
0.5484733460279415
 40
0.6014401636178698
 40
0.7011980824257679
 40
0.7995918021381843
 40
0.8985450984822303
 40
0.9999999999999999
 40
0.9999999999999999
 40
0.9999999999999999
 40
0.9999999999999999
 10
872.1021265123063
 20
573.5408755143616
 30
0.0
 10
872.0629358095125
 20
573.5913639496133
 30
0.0
 10
871.987463679062
 20
573.6885928712686
 30
0.0
 10
871.8728819948094
 20
573.8247558783686
 30
0.0
 10
871.7648850852772
 20
573.9491364030131
 30
0.0
 10
871.6584841714848
 20
574.0571709813674
 30
0.0
 10
871.5592987281341
 20
574.1547758575682
 30
0.0
 10
871.4630312029983
 20
574.2383410160243
 30
0.0
 10
871.3710669715983
 20
574.3086852341502
 30
0.0
 10
871.2551426044075
 20
574.3837562283425
 30
0.0
 10
871.1095021053831
 20
574.4581710936105
 30
0.0
 10
870.9266803082647
 20
574.5211404149311
 30
0.0
 10
870.7356259653275
 20
574.5589805564597
 30
0.0
 10
870.6055010933487
 20
574.5639837280432
 30
0.0
 10
870.5396265123064
 20
574.5665165400026
 30
0.0
  0
LINE
  5
DC
330
1F
100
AcDbEntity
  8
0
  6
Continuous
 62
     7
370
    25
100
AcDbLine
 10
872.7511649738
 20
574.0328626938
 30
0.0
 11
872.1021265123
 21
573.5408755144
 31
0.0
  0
SPLINE
  5
DD
330
1F
100
AcDbEntity
  8
0
  6
Continuous
 62
     7
370
    25
100
AcDbSpline
210
0.0
220
0.0
230
1.0
 70
     8
 71
     3
 72
    19
 73
    15
 74
     0
 42
0.00000001
 43
0.00000001
 40
0.0
 40
0.0
 40
0.0
 40
0.0
 40
0.1072327993600864
 40
0.2132518127818491
 40
0.3188304473075893
 40
0.4267935306342746
 40
0.4836459507827209
 40
0.5436038220211405
 40
0.6083076495640816
 40
0.6771267602600416
 40
0.7506856360204978
 40
0.8287134184432856
 40
0.9121903482234479
 40
1.0
 40
1.0
 40
1.0
 40
1.0
 10
870.6197547174346
 20
575.3870293605155
 30
0.0
 10
870.7140269466872
 20
575.383777814003
 30
0.0
 10
870.9015043221084
 20
575.3773115257754
 30
0.0
 10
871.177273957696
 20
575.3210885970445
 30
0.0
 10
871.4427841666117
 20
575.2280584901006
 30
0.0
 10
871.6563687719133
 20
575.1224844147233
 30
0.0
 10
871.8235293695403
 20
575.0170411788073
 30
0.0
 10
871.9510099014008
 20
574.9209958661698
 30
0.0
 10
872.0801926460558
 20
574.8104241893603
 30
0.0
 10
872.2121196285216
 20
574.6850316268899
 30
0.0
 10
872.3445554215253
 20
574.5436676243993
 30
0.0
 10
872.479466169512
 20
574.3873003354639
 30
0.0
 10
872.617167355365
 20
574.2168853506311
 30
0.0
 10
872.7057521785053
 20
574.0952293489065
 30
0.0
 10
872.7511649738449
 20
574.0328626938488
 30
0.0
  0
SPLINE
  5
DE
330
1F
100
AcDbEntity
  8
0
  6
Continuous
 62
     7
370
    25
100
AcDbSpline
210
0.0
220
0.0
230
1.0
 70
     8
 71
     3
 72
    19
 73
    15
 74
     0
 42
0.00000001
 43
0.00000001
 40
0.0
 40
0.0
 40
0.0
 40
0.0
 40
0.0837853706537072
 40
0.1657798879221353
 40
0.246280007893256
 40
0.3274609277363836
 40
0.4087969540320674
 40
0.4897152412309871
 40
0.5713760321300503
 40
0.6555233211112763
 40
0.7410194827999693
 40
0.8265467605037604
 40
0.9119888516548296
 40
1.0
 40
1.0
 40
1.0
 40
1.0
 10
868.6486008712808
 20
573.5200421810282
 30
0.0
 10
868.6515842061227
 20
573.6046816657476
 30
0.0
 10
868.6574871091221
 20
573.7721515257134
 30
0.0
 10
868.7074082914545
 20
574.0167934238667
 30
0.0
 10
868.7862034769505
 20
574.2503623775068
 30
0.0
 10
868.8965917920627
 20
574.4705459974491
 30
0.0
 10
869.0388943130187
 20
574.6716110966221
 30
0.0
 10
869.2035708258534
 20
574.8558704954381
 30
0.0
 10
869.3997113658248
 20
575.0107701119431
 30
0.0
 10
869.6149173618554
 20
575.1461119596898
 30
0.0
 10
869.8504747837587
 20
575.2520455030203
 30
0.0
 10
870.0973111343819
 20
575.3319563148157
 30
0.0
 10
870.3558187275822
 20
575.3772346181094
 30
0.0
 10
870.5309116067215
 20
575.383732366481
 30
0.0
 10
870.6197547174346
 20
575.3870293605155
 30
0.0
  0
SPLINE
  5
DF
330
1F
100
AcDbEntity
  8
0
  6
Continuous
 62
     7
370
    25
100
AcDbSpline
210
0.0
220
0.0
230
1.0
 70
     8
 71
     3
 72
    15
 73
    11
 74
     0
 42
0.00000001
 43
0.00000001
 40
0.0
 40
0.0
 40
0.0
 40
0.0
 40
0.1335067689985141
 40
0.2625589787303739
 40
0.3882644471488712
 40
0.5126673546814328
 40
0.6337222699657602
 40
0.7553938601370795
 40
0.8775529450912827
 40
1.0
 40
1.0
 40
1.0
 40
1.0
 10
869.0957162558961
 20
572.3020934630796
 30
0.0
 10
869.060350438225
 20
572.3491815473176
 30
0.0
 10
868.9907988114469
 20
572.4417865845055
 30
0.0
 10
868.8989907989554
 20
572.5865291165462
 30
0.0
 10
868.8209584268448
 20
572.7346965803386
 30
0.0
 10
868.7597873819619
 20
572.8866871279148
 30
0.0
 10
868.7082760246143
 20
573.040366965356
 30
0.0
 10
868.6736293258308
 20
573.197741241241
 30
0.0
 10
868.651934704309
 20
573.3581037977311
 30
0.0
 10
868.6497130208048
 20
573.4660203705827
 30
0.0
 10
868.6486008712808
 20
573.5200421810282
 30
0.0
  0
SPLINE
  5
E0
330
1F
100
AcDbEntity
  8
0
  6
Continuous
 62
     7
370
    25
100
AcDbSpline
210
0.0
220
0.0
230
1.0
 70
     8
 71
     3
 72
    15
 73
    11
 74
     0
 42
0.00000001
 43
0.00000001
 40
0.0
 40
0.0
 40
0.0
 40
0.0
 40
0.1815353013762817
 40
0.3470816724816242
 40
0.4955678164315535
 40
0.6283573018772154
 40
0.7455196699921548
 40
0.8458307507576595
 40
0.9307818073847598
 40
1.0
 40
1.0
 40
1.0
 40
1.0
 10
870.4066136917936
 20
571.2139524374385
 30
0.0
 10
870.32244455767
 20
571.273903494854
 30
0.0
 10
870.1615195826296
 20
571.3885253514136
 30
0.0
 10
869.9364713944093
 20
571.5586380005877
 30
0.0
 10
869.7352269075295
 20
571.7141668452549
 30
0.0
 10
869.5586805840476
 20
571.8565760157749
 30
0.0
 10
869.406910076971
 20
571.9858848265862
 30
0.0
 10
869.2787194232243
 20
572.1008515446254
 30
0.0
 10
869.1773741498631
 20
572.2045853980387
 30
0.0
 10
869.1210185369292
 20
572.2718798934563
 30
0.0
 10
869.0957162558961
 20
572.3020934630796
 30
0.0
  0
SPLINE
  5
E1
330
1F
100
AcDbEntity
  8
0
  6
Continuous
 62
     7
370
    25
100
AcDbSpline
210
0.0
220
0.0
230
1.0
 70
     8
 71
     3
 72
    15
 73
    11
 74
     0
 42
0.00000001
 43
0.00000001
 40
0.0
 40
0.0
 40
0.0
 40
0.0
 40
0.0902792146500096
 40
0.1895299184469523
 40
0.2991978724002825
 40
0.4189258867738174
 40
0.5483762854012438
 40
0.6881363695386776
 40
0.8390835016589233
 40
1.0
 40
1.0
 40
1.0
 40
1.0
 10
871.8489213841013
 20
569.9383114117975
 30
0.0
 10
871.8131028374028
 20
569.9841327228909
 30
0.0
 10
871.7379062790258
 20
570.080328833904
 30
0.0
 10
871.6086319645275
 20
570.2235179435622
 30
0.0
 10
871.4569379889723
 20
570.3712171868812
 30
0.0
 10
871.2880155777456
 20
570.5290664599081
 30
0.0
 10
871.0957113746813
 20
570.6897242809094
 30
0.0
 10
870.886048484617
 20
570.8608517733413
 30
0.0
 10
870.6536739498373
 20
571.0359410923052
 30
0.0
 10
870.4907036718533
 20
571.1533640992687
 30
0.0
 10
870.4066136917936
 20
571.2139524374385
 30
0.0
  0
SPLINE
  5
E2
330
1F
100
AcDbEntity
  8
0
  6
Continuous
 62
     7
370
    25
100
AcDbSpline
210
0.0
220
0.0
230
1.0
 70
     8
 71
     3
 72
    11
 73
     7
 74
     0
 42
0.00000001
 43
0.00000001
 40
0.0
 40
0.0
 40
0.0
 40
0.0
 40
0.2347233736739053
 40
0.4771583189289941
 40
0.7285562842030481
 40
1.0
 40
1.0
 40
1.0
 40
1.0
 10
872.1357803584602
 20
569.1530550015411
 30
0.0
 10
872.1324105054333
 20
569.2196626580153
 30
0.0
 10
872.1255600866607
 20
569.3550662903574
 30
0.0
 10
872.0676595607807
 20
569.5548369256807
 30
0.0
 10
871.9765755679957
 20
569.7525342285933
 30
0.0
 10
871.8925466680987
 20
569.874822835628
 30
0.0
 10
871.8489213841013
 20
569.9383114117975
 30
0.0
  0
SPLINE
  5
E3
330
1F
100
AcDbEntity
  8
0
  6
Continuous
 62
     7
370
    25
100
AcDbSpline
210
0.0
220
0.0
230
1.0
 70
     8
 71
     3
 72
    19
 73
    15
 74
     0
 42
0.00000001
 43
0.00000001
 40
0.0
 40
0.0
 40
0.0
 40
0.0
 40
0.0912636048966207
 40
0.1809303110850773
 40
0.2700882198317227
 40
0.3601561333877255
 40
0.4483425324981507
 40
0.53266584213833
 40
0.6138337041070441
 40
0.6939815272835567
 40
0.7727159770890023
 40
0.8493351720622495
 40
0.9239673265752373
 40
1.0
 40
1.0
 40
1.0
 40
1.0
 10
870.5684726661526
 20
567.7972857707719
 30
0.0
 10
870.6386140616073
 20
567.7992393079426
 30
0.0
 10
870.7776695428582
 20
567.8031121999725
 30
0.0
 10
870.982383241055
 20
567.8403254617997
 30
0.0
 10
871.1811987890917
 20
567.8974960421733
 30
0.0
 10
871.3700185324759
 20
567.9793724570499
 30
0.0
 10
871.5462370799764
 20
568.0784318529928
 30
0.0
 10
871.7007666693174
 20
568.1980802587236
 30
0.0
 10
871.8343577851562
 20
568.332037300355
 30
0.0
 10
871.9436357613096
 20
568.481483368108
 30
0.0
 10
872.0274758419687
 20
568.6422082792103
 30
0.0
 10
872.0919148554847
 20
568.8071818822693
 30
0.0
 10
872.1276750238421
 20
568.9789957526212
 30
0.0
 10
872.133061888886
 20
569.0946768105591
 30
0.0
 10
872.1357803584602
 20
569.1530550015411
 30
0.0
  0
SPLINE
  5
E4
330
1F
100
AcDbEntity
  8
0
  6
Continuous
 62
     7
370
    25
100
AcDbSpline
210
0.0
220
0.0
230
1.0
 70
     8
 71
     3
 72
    15
 73
    11
 74
     0
 42
0.00000001
 43
0.00000001
 40
0.0
 40
0.0
 40
0.0
 40
0.0
 40
0.1590042985173752
 40
0.3046460998968106
 40
0.4385469045795899
 40
0.5623222987759259
 40
0.6774325425257289
 40
0.7868973929387545
 40
0.8936108891042616
 40
1.0
 40
1.0
 40
1.0
 40
1.0
 10
868.8120624097423
 20
569.1306191041052
 30
0.0
 10
868.8749612377435
 20
569.0253290813689
 30
0.0
 10
868.9954729648939
 20
568.8235974610056
 30
0.0
 10
869.1965046429566
 20
568.5510076543112
 30
0.0
 10
869.4048084399074
 20
568.3193227245764
 30
0.0
 10
869.6219269165917
 20
568.129890478771
 30
0.0
 10
869.8465347980143
 20
567.9807501662051
 30
0.0
 10
870.0800983494124
 20
567.8751450651341
 30
0.0
 10
870.3218304881815
 20
567.809279978571
 30
0.0
 10
870.4863420801346
 20
567.8012797807319
 30
0.0
 10
870.5684726661526
 20
567.7972857707719
 30
0.0
  0
LINE
  5
E5
330
1F
100
AcDbEntity
  8
0
  6
Continuous
 62
     7
370
    25
100
AcDbLine
 10
868.1357803585
 20
568.7251703862
 30
0.0
 11
868.8120624097
 21
569.1306191041
 31
0.0
  0
SPLINE
  5
E6
330
1F
100
AcDbEntity
  8
0
  6
Continuous
 62
     7
370
    25
100
AcDbSpline
210
0.0
220
0.0
230
1.0
 70
     8
 71
     3
 72
    23
 73
    19
 74
     0
 42
0.00000001
 43
0.00000001
 40
0.0
 40
0.0
 40
0.0
 40
0.0
 40
0.0572082694335126
 40
0.1136960596574915
 40
0.1691779164171976
 40
0.2241592165805481
 40
0.2787198783810444
 40
0.3337942174469899
 40
0.3892414593400029
 40
0.4458220733936261
 40
0.5037042811090238
 40
0.5642938918193638
 40
0.6279754158952303
 40
0.695038259684058
 40
0.7653727258510143
 40
0.83961144309074
 40
0.9175377500777939
 40
1.0
 40
1.0
 40
1.0
 40
1.0
 10
870.5684726661526
 20
566.976772950259
 30
0.0
 10
870.5080490250532
 20
566.9779413653389
 30
0.0
 10
870.3879627163572
 20
566.9802634805143
 30
0.0
 10
870.2103410435043
 20
567.0007921214793
 30
0.0
 10
870.0363076967658
 20
567.0298369296878
 30
0.0
 10
869.8680464806877
 20
567.075949089635
 30
0.0
 10
869.7033895397923
 20
567.1318964657313
 30
0.0
 10
869.543053003733
 20
567.2007840830985
 30
0.0
 10
869.3869591663481
 20
567.2833376864069
 30
0.0
 10
869.234233262649
 20
567.3777263141293
 30
0.0
 10
869.0852637207379
 20
567.4875725874176
 30
0.0
 10
868.9414477940434
 20
567.6155120078478
 30
0.0
 10
868.7980667985844
 20
567.7580160192565
 30
0.0
 10
868.6593527498494
 20
567.9189544497975
 30
0.0
 10
868.522499848579
 20
568.0957272106153
 30
0.0
 10
868.390206341067
 20
568.289988201238
 30
0.0
 10
868.2597338435149
 20
568.5006792955442
 30
0.0
 10
868.1778699170525
 20
568.6489423486181
 30
0.0
 10
868.1357803584602
 20
568.7251703861565
 30
0.0
  0
SPLINE
  5
E7
330
1F
100
AcDbEntity
  8
0
  6
Continuous
 62
     7
370
    25
100
AcDbSpline
210
0.0
220
0.0
230
1.0
 70
     8
 71
     3
 72
    23
 73
    19
 74
     0
 42
0.00000001
 43
0.00000001
 40
0.0
 40
0.0
 40
0.0
 40
0.0
 40
0.0614842551968871
 40
0.1217745277022083
 40
0.1809195598139297
 40
0.2402561150782742
 40
0.3001144444023502
 40
0.3611459476126108
 40
0.4235005824125908
 40
0.4886693612807205
 40
0.5539541046535627
 40
0.6175812610152625
 40
0.6802384268167407
 40
0.7421873887724537
 40
0.804663211769296
 40
0.8682589893126647
 40
0.9330202571803785
 40
0.9999999999999999
 40
0.9999999999999999
 40
0.9999999999999999
 40
0.9999999999999999
 10
872.8537290764089
 20
569.1418370528231
 30
0.0
 10
872.8522270464113
 20
569.0701150754618
 30
0.0
 10
872.8492521548238
 20
568.9280639130776
 30
0.0
 10
872.8150557804726
 20
568.7194808802042
 30
0.0
 10
872.7649536886724
 20
568.5168960352123
 30
0.0
 10
872.6894400110712
 20
568.3228134924808
 30
0.0
 10
872.5972727921915
 20
568.1336826063472
 30
0.0
 10
872.4803213684976
 20
567.954464548265
 30
0.0
 10
872.3447609462401
 20
567.7811927800664
 30
0.0
 10
872.1892551978873
 20
567.6184876569689
 30
0.0
 10
872.0190931354495
 20
567.469124923288
 30
0.0
 10
871.839244690506
 20
567.3362584970652
 30
0.0
 10
871.6494154952279
 20
567.2254737578758
 30
0.0
 10
871.450635342809
 20
567.1350718331903
 30
0.0
 10
871.2428585731931
 20
567.0643666502732
 30
0.0
 10
871.0261550672856
 20
567.0131372351168
 30
0.0
 10
870.8001676130694
 20
566.9816956101718
 30
0.0
 10
870.6465665123322
 20
566.9784321553955
 30
0.0
 10
870.5684726661526
 20
566.976772950259
 30
0.0
  0
LINE
  5
E8
330
1F
100
AcDbEntity
  8
0
  6
Continuous
 62
     7
370
    25
100
AcDbLine
 10
866.9050111277
 20
575.1819011554
 30
0.0
 11
866.9050111277
 21
567.1819011554
 31
0.0
  0
LINE
  5
E9
330
1F
100
AcDbEntity
  8
0
  6
Continuous
 62
     7
370
    25
100
AcDbLine
 10
866.1870624097
 20
575.1819011554
 30
0.0
 11
866.9050111277
 21
575.1819011554
 31
0.0
  0
LINE
  5
EA
330
1F
100
AcDbEntity
  8
0
  6
Continuous
 62
     7
370
    25
100
AcDbLine
 10
866.1870624097
 20
567.1819011554
 30
0.0
 11
866.1870624097
 21
575.1819011554
 31
0.0
  0
LINE
  5
EB
330
1F
100
AcDbEntity
  8
0
  6
Continuous
 62
     7
370
    25
100
AcDbLine
 10
866.9050111277
 20
567.1819011554
 30
0.0
 11
866.1870624097
 21
567.1819011554
 31
0.0
  0
SPLINE
  5
EC
330
1F
100
AcDbEntity
  8
0
  6
Continuous
 62
     7
370
    25
100
AcDbSpline
210
0.0
220
0.0
230
1.0
 70
     8
 71
     3
 72
    11
 73
     7
 74
     0
 42
0.00000001
 43
0.00000001
 40
0.0
 40
0.0
 40
0.0
 40
0.0
 40
0.2629516255674805
 40
0.5157066923583438
 40
0.7621092269531214
 40
1.0
 40
1.0
 40
1.0
 40
1.0
 10
861.7864213841013
 20
567.9126703861565
 30
0.0
 10
861.8304998105222
 20
567.8953916265227
 30
0.0
 10
861.91694742021
 20
567.8615041312103
 30
0.0
 10
862.0491190308786
 20
567.8236849350709
 30
0.0
 10
862.1805362582187
 20
567.8030165695391
 30
0.0
 10
862.2676624156284
 20
567.7991735223651
 30
0.0
 10
862.3104598456397
 20
567.7972857707719
 30
0.0
  0
SPLINE
  5
ED
330
1F
100
AcDbEntity
  8
0
  6
Continuous
 62
     7
370
    25
100
AcDbSpline
210
0.0
220
0.0
230
1.0
 70
     8
 71
     3
 72
    11
 73
     7
 74
     0
 42
0.00000001
 43
0.00000001
 40
0.0
 40
0.0
 40
0.0
 40
0.0
 40
0.2991842876765383
 40
0.5648989463568046
 40
0.798547868842615
 40
1.0
 40
1.0
 40
1.0
 40
1.0
 10
860.7639854866653
 20
568.5152344887206
 30
0.0
 10
860.8615916101454
 20
568.4479261545703
 30
0.0
 10
861.0458846983288
 20
568.3208392432293
 30
0.0
 10
861.3167519917827
 20
568.1573498707927
 30
0.0
 10
861.5567454843678
 20
568.0171780638044
 30
0.0
 10
861.7137350782566
 20
567.9457442830235
 30
0.0
 10
861.7864213841013
 20
567.9126703861565
 30
0.0
  0
LINE
  5
EE
330
1F
100
AcDbEntity
  8
0
  6
Continuous
 62
     7
370
    25
100
AcDbLine
 10
860.3409085636
 20
567.8998498733
 30
0.0
 11
860.7639854867
 21
568.5152344887
 31
0.0
  0
SPLINE
  5
EF
330
1F
100
AcDbEntity
  8
0
  6
Continuous
 62
     7
370
    25
100
AcDbSpline
210
0.0
220
0.0
230
1.0
 70
     8
 71
     3
 72
    15
 73
    11
 74
     0
 42
0.00000001
 43
0.00000001
 40
0.0
 40
0.0
 40
0.0
 40
0.0
 40
0.1060709021051267
 40
0.2134216804124524
 40
0.3216854881303211
 40
0.4338579390981555
 40
0.5540812827743535
 40
0.6875870439665603
 40
0.8364658500651145
 40
1.0
 40
1.0
 40
1.0
 40
1.0
 10
862.2703957430756
 20
566.976772950259
 30
0.0
 10
862.1927766384732
 20
566.9792429139826
 30
0.0
 10
862.03660185908
 20
566.9842126445873
 30
0.0
 10
861.8041659533377
 20
567.0247194172723
 30
0.0
 10
861.572390008522
 20
567.0871560877783
 30
0.0
 10
861.3400438397442
 20
567.1785905915468
 30
0.0
 10
861.1025370023774
 20
567.3029462452258
 30
0.0
 10
860.8566527813634
 20
567.4656543974066
 30
0.0
 10
860.599228344886
 20
567.6664121720289
 30
0.0
 10
860.4296665480706
 20
567.8196413048473
 30
0.0
 10
860.3409085635884
 20
567.8998498733359
 30
0.0
  0
SPLINE
  5
F0
330
1F
100
AcDbEntity
  8
0
  6
Continuous
 62
     7
370
    25
100
AcDbSpline
210
0.0
220
0.0
230
1.0
 70
     8
 71
     3
 72
    23
 73
    19
 74
     0
 42
0.00000001
 43
0.00000001
 40
0.0
 40
0.0
 40
0.0
 40
0.0
 40
0.0773606839426995
 40
0.1485419530250462
 40
0.2140077372521345
 40
0.2729945033606897
 40
0.3264091957674661
 40
0.373880400729806
 40
0.4160199382657583
 40
0.4521255195126357
 40
0.5180017107054588
 40
0.5823669297335127
 40
0.6470437823418086
 40
0.713330421064473
 40
0.780911970350966
 40
0.8503949591306434
 40
0.9229229735922757
 40
0.9999999999999999
 40
0.9999999999999999
 40
0.9999999999999999
 40
0.9999999999999999
 10
864.1357803584602
 20
569.7796575656437
 30
0.0
 10
864.135062830159
 20
569.6797600321676
 30
0.0
 10
864.1336850882648
 20
569.4879445780034
 30
0.0
 10
864.1261092927551
 20
569.211661387394
 30
0.0
 10
864.1120899146831
 20
568.9593855332147
 30
0.0
 10
864.091667028993
 20
568.7305433686598
 30
0.0
 10
864.064420782539
 20
568.5258518137163
 30
0.0
 10
864.0332412896933
 20
568.343729258711
 30
0.0
 10
863.9954977496342
 20
568.1856956991045
 30
0.0
 10
863.938660112306
 20
568.0082434574178
 30
0.0
 10
863.8454625156292
 20
567.8136290465987
 30
0.0
 10
863.7051949998691
 20
567.603445845214
 30
0.0
 10
863.5309486080185
 20
567.4195980494419
 30
0.0
 10
863.3291176750491
 20
567.2599346782059
 30
0.0
 10
863.0979381914383
 20
567.1327181498029
 30
0.0
 10
862.8421708334402
 20
567.0413920277234
 30
0.0
 10
862.5633900621305
 20
566.9856872125821
 30
0.0
 10
862.3700204338965
 20
566.9798040009316
 30
0.0
 10
862.2703957430756
 20
566.976772950259
 30
0.0
  0
LINE
  5
F1
330
1F
100
AcDbEntity
  8
0
  6
Continuous
 62
     7
370
    25
100
AcDbLine
 10
864.1357803585
 20
575.1819011554
 30
0.0
 11
864.1357803585
 21
569.7796575656
 31
0.0
  0
LINE
  5
F2
330
1F
100
AcDbEntity
  8
0
  6
Continuous
 62
     7
370
    25
100
AcDbLine
 10
863.4178316405
 20
575.1819011554
 30
0.0
 11
864.1357803585
 21
575.1819011554
 31
0.0
  0
LINE
  5
F3
330
1F
100
AcDbEntity
  8
0
  6
Continuous
 62
     7
370
    25
100
AcDbLine
 10
863.4178316405
 20
569.8597857708
 30
0.0
 11
863.4178316405
 21
575.1819011554
 31
0.0
  0
SPLINE
  5
F4
330
1F
100
AcDbEntity
  8
0
  6
Continuous
 62
     7
370
    25
100
AcDbSpline
210
0.0
220
0.0
230
1.0
 70
     8
 71
     3
 72
    23
 73
    19
 74
     0
 42
0.00000001
 43
0.00000001
 40
0.0
 40
0.0
 40
0.0
 40
0.0
 40
0.0623263659914396
 40
0.1231962451944494
 40
0.1840362202545539
 40
0.2469640854288938
 40
0.3106993957895692
 40
0.3732676370734455
 40
0.4365875799673862
 40
0.5021247910366445
 40
0.539004722034164
 40
0.5832553755259802
 40
0.6344465152828123
 40
0.6926760461021119
 40
0.75857048628653
 40
0.8316586747921118
 40
0.9119171022748284
 40
0.9999999999999999
 40
0.9999999999999999
 40
0.9999999999999999
 40
0.9999999999999999
 10
862.3104598456397
 20
567.7972857707719
 30
0.0
 10
862.3657347906168
 20
567.799623450621
 30
0.0
 10
862.4749929763968
 20
567.804244181756
 30
0.0
 10
862.633767819844
 20
567.8450425252332
 30
0.0
 10
862.7856718911806
 20
567.9073154464076
 30
0.0
 10
862.9252596801657
 20
567.9984955464453
 30
0.0
 10
863.0539119934958
 20
568.10691022233
 30
0.0
 10
863.1600670234097
 20
568.2380096707102
 30
0.0
 10
863.2485635822326
 20
568.3833033484392
 30
0.0
 10
863.3018200241765
 20
568.5208381000782
 30
0.0
 10
863.3357509316304
 20
568.6462703978455
 30
0.0
 10
863.3572860787323
 20
568.7615461369932
 30
0.0
 10
863.3761173024839
 20
568.8963152307097
 30
0.0
 10
863.3925322782586
 20
569.0507385457041
 30
0.0
 10
863.40214249668
 20
569.2251252477197
 30
0.0
 10
863.4129248345654
 20
569.4189632887013
 30
0.0
 10
863.4168225737419
 20
569.632741373721
 30
0.0
 10
863.4174850214439
 20
569.781794978109
 30
0.0
 10
863.4178316405115
 20
569.8597857707719
 30
0.0
  0
SPLINE
  5
F5
330
1F
100
AcDbEntity
  8
0
  6
Continuous
 62
     7
370
    25
100
AcDbSpline
210
0.0
220
0.0
230
1.0
 70
     8
 71
     3
 72
    31
 73
    27
 74
     0
 42
0.00000001
 43
0.00000001
 40
0.0
 40
0.0
 40
0.0
 40
0.0
 40
0.03378811616271
 40
0.0671939323738809
 40
0.0998624108568255
 40
0.1325666121262573
 40
0.1651511732547858
 40
0.197913187355793
 40
0.2313190035669623
 40
0.2650832782673742
 40
0.2992553087581152
 40
0.3343985665049789
 40
0.3699428235093068
 40
0.4062835607000605
 40
0.4440638196985093
 40
0.4829977068727742
 40
0.5233544466133043
 40
0.5655365896041497
 40
0.6096129240658182
 40
0.6563908113764166
 40
0.705885494936456
 40
0.7583245002617314
 40
0.81383178294115
 40
0.872794559039389
 40
0.9347222295400733
 40
1.0
 40
1.0
 40
1.0
 40
1.0
 10
875.118152153332
 20
589.7203626938488
 30
0.0
 10
875.1817761041534
 20
589.719247687733
 30
0.0
 10
875.3083041244864
 20
589.7170302913803
 30
0.0
 10
875.4953678393342
 20
589.6957184227298
 30
0.0
 10
875.6781099689675
 20
589.6603558556511
 30
0.0
 10
875.8557514288611
 20
589.6102507708907
 30
0.0
 10
876.0297513979305
 20
589.5480892242406
 30
0.0
 10
876.1987489011204
 20
589.4701758137054
 30
0.0
 10
876.3637936591593
 20
589.3794812597752
 30
0.0
 10
876.5222628877764
 20
589.27291239736
 30
0.0
 10
876.6758962942816
 20
589.1540957660532
 30
0.0
 10
876.8209202096465
 20
589.0197810945026
 30
0.0
 10
876.9573478345549
 20
588.8713245933171
 30
0.0
 10
877.0868913897235
 20
588.7103146187192
 30
0.0
 10
877.2058756118932
 20
588.5336629962425
 30
0.0
 10
877.3191863141457
 20
588.3444421738101
 30
0.0
 10
877.4206081104923
 20
588.1393430542814
 30
0.0
 10
877.5182873680434
 20
587.9217876992161
 30
0.0
 10
877.6026004805902
 20
587.6857564790866
 30
0.0
 10
877.6786376126412
 20
587.4325798836167
 30
0.0
 10
877.7400752550982
 20
587.1592674565234
 30
0.0
 10
877.7912507347282
 20
586.8672531815631
 30
0.0
 10
877.8308962111754
 20
586.5554646484428
 30
0.0
 10
877.8597708216406
 20
586.2245702129873
 30
0.0
 10
877.8750235874493
 20
585.8743521772369
 30
0.0
 10
877.8778960473503
 20
585.634905664832
 30
0.0
 10
877.87937010205
 20
585.5120293605154
 30
0.0
  0
SPLINE
  5
F6
330
1F
100
AcDbEntity
  8
0
  6
Continuous
 62
     7
370
    25
100
AcDbSpline
210
0.0
220
0.0
230
1.0
 70
     8
 71
     3
 72
    31
 73
    27
 74
     0
 42
0.00000001
 43
0.00000001
 40
0.0
 40
0.0
 40
0.0
 40
0.0
 40
0.0685946222587427
 40
0.1332460424433002
 40
0.1943125864682574
 40
0.2512792231169662
 40
0.3045134392563472
 40
0.3542349066533261
 40
0.4004805887739903
 40
0.4434107549384923
 40
0.4840148686163459
 40
0.5232523007732025
 40
0.5610423727283612
 40
0.5979002393644003
 40
0.6335184888561961
 40
0.6683143511696535
 40
0.7024956712863818
 40
0.7366853535134588
 40
0.7702931693607887
 40
0.8034372550192499
 40
0.8359129516660303
 40
0.8684602457892913
 40
0.9008465382431833
 40
0.9334665246307088
 40
0.9662575752981226
 40
1.0
 40
1.0
 40
1.0
 40
1.0
 10
872.4434726661525
 20
585.5120293605154
 30
0.0
 10
872.444222421941
 20
585.6402519610508
 30
0.0
 10
872.445678833367
 20
585.8893262107594
 30
0.0
 10
872.4618809383777
 20
586.2522625354835
 30
0.0
 10
872.4887960065222
 20
586.5927431960438
 30
0.0
 10
872.5256814301799
 20
586.9107844898459
 30
0.0
 10
872.5705682421196
 20
587.2064685230292
 30
0.0
 10
872.6304893543512
 20
587.4790051107694
 30
0.0
 10
872.6986329031854
 20
587.7296556401707
 30
0.0
 10
872.7776099221809
 20
587.9592374652588
 30
0.0
 10
872.8667248685085
 20
588.1708436435952
 30
0.0
 10
872.9637174644447
 20
588.368386960838
 30
0.0
 10
873.0724369945557
 20
588.5515685204718
 30
0.0
 10
873.1866699383891
 20
588.7233120414317
 30
0.0
 10
873.311040387824
 20
588.8808062009571
 30
0.0
 10
873.4420090517492
 20
589.0262751438565
 30
0.0
 10
873.5846876260741
 20
589.1563568592023
 30
0.0
 10
873.734225930699
 20
589.2748626932254
 30
0.0
 10
873.8919778493088
 20
589.3787471999042
 30
0.0
 10
874.0534468004931
 20
589.4702506024544
 30
0.0
 10
874.2197441853068
 20
589.5484217276147
 30
0.0
 10
874.3913240319306
 20
589.6098855810079
 30
0.0
 10
874.5666441642499
 20
589.6606532307738
 30
0.0
 10
874.7463174595442
 20
589.6953708253945
 30
0.0
 10
874.930640577113
 20
589.717215187656
 30
0.0
 10
875.0550552852231
 20
589.7193035710621
 30
0.0
 10
875.118152153332
 20
589.7203626938488
 30
0.0
  0
SPLINE
  5
F7
330
1F
100
AcDbEntity
  8
0
  6
Continuous
 62
     7
370
    25
100
AcDbSpline
210
0.0
220
0.0
230
1.0
 70
     8
 71
     3
 72
    31
 73
    27
 74
     0
 42
0.00000001
 43
0.00000001
 40
0.0
 40
0.0
 40
0.0
 40
0.0
 40
0.0337871463469916
 40
0.066621657724293
 40
0.0992848780959716
 40
0.1313611650426511
 40
0.1635851875953437
 40
0.1961039269870691
 40
0.2289022543238179
 40
0.2621580559050077
 40
0.2959912222583163
 40
0.3302178457247996
 40
0.3650598258919535
 40
0.4009507373401083
 40
0.4376203820767383
 40
0.4757075294370924
 40
0.5153806916250494
 40
0.5564135414931647
 40
0.5997648298727319
 40
0.6464241555840873
 40
0.6964314445175676
 40
0.7497815178015582
 40
0.8065733069755329
 40
0.8674355315654003
 40
0.9318867532508747
 40
0.9999999999999999
 40
0.9999999999999999
 40
0.9999999999999999
 40
0.9999999999999999
 10
875.118152153332
 20
581.3101062835924
 30
0.0
 10
875.0550570356514
 20
581.3111722389268
 30
0.0
 10
874.9306457790445
 20
581.3132740947838
 30
0.0
 10
874.7462973780401
 20
581.3350197667568
 30
0.0
 10
874.5673660787487
 20
581.3699809169564
 30
0.0
 10
874.3929689266629
 20
581.4189331548789
 30
0.0
 10
874.2222111779001
 20
581.4788527807427
 30
0.0
 10
874.0574196655441
 20
581.5569183432639
 30
0.0
 10
873.8967621028225
 20
581.6468247865918
 30
0.0
 10
873.7406671176383
 20
581.7492143213079
 30
0.0
 10
873.5920678924044
 20
581.8665210256013
 30
0.0
 10
873.4501282231156
 20
581.9962679711705
 30
0.0
 10
873.3184138937511
 20
582.1416929112788
 30
0.0
 10
873.1958216751973
 20
582.3004995926678
 30
0.0
 10
873.079309473607
 20
582.4712270037141
 30
0.0
 10
872.972133763163
 20
582.6562061421037
 30
0.0
 10
872.873000382436
 20
582.8547035375086
 30
0.0
 10
872.7823866894794
 20
583.0680016190516
 30
0.0
 10
872.7020468871596
 20
583.2992128827311
 30
0.0
 10
872.631080697186
 20
583.550982433594
 30
0.0
 10
872.5750483372544
 20
583.8255324589974
 30
0.0
 10
872.5270872964936
 20
584.1206578695242
 30
0.0
 10
872.4884029923942
 20
584.437626853263
 30
0.0
 10
872.4619931059522
 20
584.7766114891189
 30
0.0
 10
872.4456701001561
 20
585.137400538093
 30
0.0
 10
872.4442185106245
 20
585.3848743079595
 30
0.0
 10
872.4434726661525
 20
585.5120293605154
 30
0.0
  0
SPLINE
  5
F8
330
1F
100
AcDbEntity
  8
0
  6
Continuous
 62
     7
370
    25
100
AcDbSpline
210
0.0
220
0.0
230
1.0
 70
     8
 71
     3
 72
    31
 73
    27
 74
     0
 42
0.00000001
 43
0.00000001
 40
0.0
 40
0.0
 40
0.0
 40
0.0
 40
0.0650632896172782
 40
0.1267731664665232
 40
0.1855157632260794
 40
0.2407646791677158
 40
0.2929797960235989
 40
0.3422503727797681
 40
0.3889192861856592
 40
0.4327756640583105
 40
0.4746284326311174
 40
0.5147746906379519
 40
0.5536058934984411
 40
0.5914264064311732
 40
0.6280281199460673
 40
0.6638036341103205
 40
0.6989843361316638
 40
0.7335914893067057
 40
0.7676284691511398
 40
0.8012083477865903
 40
0.8342638397266213
 40
0.8669806947287755
 40
0.8997197415181608
 40
0.9327019124985372
 40
0.9661758834327498
 40
0.9999999999999999
 40
0.9999999999999999
 40
0.9999999999999999
 40
0.9999999999999999
 10
877.87937010205
 20
585.5120293605154
 30
0.0
 10
877.8778807659495
 20
585.3896889995076
 30
0.0
 10
877.8749788552948
 20
585.1513137952588
 30
0.0
 10
877.8599418112543
 20
584.8026715659565
 30
0.0
 10
877.8303220828458
 20
584.4735331812741
 30
0.0
 10
877.7932706809971
 20
584.1631092670827
 30
0.0
 10
877.7419541942006
 20
583.8726918526073
 30
0.0
 10
877.6788566713406
 20
583.601275970395
 30
0.0
 10
877.6087987906052
 20
583.3476895208742
 30
0.0
 10
877.5223192612114
 20
583.1140099514798
 30
0.0
 10
877.4276662089891
 20
582.8969774420747
 30
0.0
 10
877.3246829034454
 20
582.6943096744639
 30
0.0
 10
877.2143518723924
 20
582.5042152911963
 30
0.0
 10
877.0941490266712
 20
582.3282158696393
 30
0.0
 10
876.9660269393651
 20
582.1650646534728
 30
0.0
 10
876.827243422124
 20
582.0176415159834
 30
0.0
 10
876.6817106561765
 20
581.882394265782
 30
0.0
 10
876.5276251342704
 20
581.7620476887256
 30
0.0
 10
876.3666844457397
 20
581.656710992414
 30
0.0
 10
876.2022065556257
 20
581.5625079058132
 30
0.0
 10
876.0312731079748
 20
581.486547459985
 30
0.0
 10
875.8577577874502
 20
581.4213245091787
 30
0.0
 10
875.6791786649018
 20
581.3714949048675
 30
0.0
 10
875.4957583433259
 20
581.3370403779633
 30
0.0
 10
875.3084298040602
 20
581.3128761529238
 30
0.0
 10
875.1817976553032
 20
581.3110327703516
 30
0.0
 10
875.118152153332
 20
581.3101062835924
 30
0.0
  0
SPLINE
  5
F9
330
1F
100
AcDbEntity
  8
0
  6
Continuous
 62
     7
370
    25
100
AcDbSpline
210
0.0
220
0.0
230
1.0
 70
     8
 71
     3
 72
    19
 73
    15
 74
     0
 42
0.00000001
 43
0.00000001
 40
0.0
 40
0.0
 40
0.0
 40
0.0
 40
0.0602873979279692
 40
0.1196023547075218
 40
0.1775033710185432
 40
0.2351426637323311
 40
0.2921325932269361
 40
0.3508712086415666
 40
0.4100978625665969
 40
0.4707315215304486
 40
0.5948287040804153
 40
0.7225788240942895
 40
0.8566913895440182
 40
1.0
 40
1.0
 40
1.0
 40
1.0
 10
891.5203957430756
 20
583.7860678220538
 30
0.0
 10
891.5197646474472
 20
583.8283383146597
 30
0.0
 10
891.5185126358197
 20
583.9121974730257
 30
0.0
 10
891.4996312302799
 20
584.0354336311696
 30
0.0
 10
891.4721709564656
 20
584.1548070558763
 30
0.0
 10
891.4366705361626
 20
584.2706418912701
 30
0.0
 10
891.3849688970975
 20
584.3808438943508
 30
0.0
 10
891.3246110799155
 20
584.4875926018633
 30
0.0
 10
891.2538421618706
 20
584.5910291262608
 30
0.0
 10
891.1435697827445
 20
584.7217999912878
 30
0.0
 10
890.9831766752702
 20
584.8724674493526
 30
0.0
 10
890.7552754742579
 20
585.0199817402479
 30
0.0
 10
890.4961387931853
 20
585.1389481564479
 30
0.0
 10
890.3081902379944
 20
585.1894612452214
 30
0.0
 10
890.2111008712808
 20
585.2155550015411
 30
0.0
  0
SPLINE
  5
FA
330
1F
100
AcDbEntity
  8
0
  6
Continuous
 62
     7
370
    25
100
AcDbSpline
210
0.0
220
0.0
230
1.0
 70
     8
 71
     3
 72
    23
 73
    19
 74
     0
 42
0.00000001
 43
0.00000001
 40
0.0
 40
0.0
 40
0.0
 40
0.0
 40
0.0725024889330346
 40
0.139738989267894
 40
0.2017951348259223
 40
0.2598219344148623
 40
0.3122059893845957
 40
0.3607734341243374
 40
0.4045403426007493
 40
0.4436980985527619
 40
0.5168407942439687
 40
0.5878743359442814
 40
0.6579654175616314
 40
0.7289693886473123
 40
0.7993077199548835
 40
0.8666357778344734
 40
0.9331163290572758
 40
1.0
 40
1.0
 40
1.0
 40
1.0
 10
889.2607803584602
 20
582.3357473092334
 30
0.0
 10
889.3339664748329
 20
582.3366244461401
 30
0.0
 10
889.4750230658666
 20
582.3383150118934
 30
0.0
 10
889.6786830204286
 20
582.3438339937467
 30
0.0
 10
889.8674444005454
 20
582.3563877667732
 30
0.0
 10
890.0404458536412
 20
582.3761497088617
 30
0.0
 10
890.1995554596543
 20
582.3975861641125
 30
0.0
 10
890.3428644951489
 20
582.4264119490762
 30
0.0
 10
890.4715346516323
 20
582.4594381445629
 30
0.0
 10
890.6207330693222
 20
582.5104876811001
 30
0.0
 10
890.7887410882502
 20
582.5897939003396
 30
0.0
 10
890.9697944742744
 20
582.7093692750099
 30
0.0
 10
891.130768687175
 20
582.8518225499192
 30
0.0
 10
891.2674664225044
 20
583.0166932108874
 30
0.0
 10
891.3794961106095
 20
583.195964815295
 30
0.0
 10
891.4609942936577
 20
583.3860113294725
 30
0.0
 10
891.5112591090157
 20
583.5836925350004
 30
0.0
 10
891.5173440673925
 20
583.7184735922414
 30
0.0
 10
891.5203957430756
 20
583.7860678220538
 30
0.0
  0
LINE
  5
FB
330
1F
100
AcDbEntity
  8
0
  6
Continuous
 62
     7
370
    25
100
AcDbLine
 10
888.238344461
 20
582.3357473092
 30
0.0
 11
889.2607803585
 21
582.3357473092
 31
0.0
  0
LINE
  5
FC
330
1F
100
AcDbEntity
  8
0
  6
Continuous
 62
     7
370
    25
100
AcDbLine
 10
888.238344461
 20
585.3101062836
 30
0.0
 11
888.238344461
 21
582.3357473092
 31
0.0
  0
LINE
  5
FD
330
1F
100
AcDbEntity
  8
0
  6
Continuous
 62
     7
370
    25
100
AcDbLine
 10
888.7143059995
 20
585.3101062836
 30
0.0
 11
888.238344461
 21
585.3101062836
 31
0.0
  0
SPLINE
  5
FE
330
1F
100
AcDbEntity
  8
0
  6
Continuous
 62
     7
370
    25
100
AcDbSpline
210
0.0
220
0.0
230
1.0
 70
     8
 71
     3
 72
    15
 73
    11
 74
     0
 42
0.00000001
 43
0.00000001
 40
0.0
 40
0.0
 40
0.0
 40
0.0
 40
0.0793064855229993
 40
0.1719528189279314
 40
0.2770565073915902
 40
0.3947305758644784
 40
0.526177321276757
 40
0.6713447665976143
 40
0.8292852571892494
 40
1.0
 40
1.0
 40
1.0
 40
1.0
 10
890.2111008712808
 20
585.2155550015411
 30
0.0
 10
890.1721772236184
 20
585.2234523362963
 30
0.0
 10
890.0877827268208
 20
585.2405753870056
 30
0.0
 10
889.9501654001263
 20
585.25865013761
 30
0.0
 10
889.7930548426353
 20
585.274753131649
 30
0.0
 10
889.6160882661187
 20
585.2866643491661
 30
0.0
 10
889.4190417721446
 20
585.2989764487045
 30
0.0
 10
889.2014945294345
 20
585.3037646112696
 30
0.0
 10
888.9643349530706
 20
585.3094772057689
 30
0.0
 10
888.7997809590142
 20
585.309891226893
 30
0.0
 10
888.7143059994859
 20
585.3101062835924
 30
0.0
  0
LINE
  5
FF
330
1F
100
AcDbEntity
  8
0
  6
Continuous
 62
     7
370
    25
100
AcDbLine
 10
888.238344461
 20
586.1306191041
 30
0.0
 11
888.7207162559
 21
586.1306191041
 31
0.0
  0
SPLINE
  5
100
330
1F
100
AcDbEntity
  8
0
  6
Continuous
 62
     7
370
    25
100
AcDbSpline
210
0.0
220
0.0
230
1.0
 70
     8
 71
     3
 72
    23
 73
    19
 74
     0
 42
0.00000001
 43
0.00000001
 40
0.0
 40
0.0
 40
0.0
 40
0.0
 40
0.0723010339955039
 40
0.1397003317393854
 40
0.2022885114847722
 40
0.2605995332222003
 40
0.3131903291553327
 40
0.3617389329854263
 40
0.4057064756322212
 40
0.4455399848948725
 40
0.5188319558616087
 40
0.5897782395835773
 40
0.6588674786561481
 40
0.7284304780610652
 40
0.7972827036080994
 40
0.8648153774014438
 40
0.9313637528792686
 40
0.9999999999999999
 40
0.9999999999999999
 40
0.9999999999999999
 40
0.9999999999999999
 10
888.7207162558961
 20
586.1306191041051
 30
0.0
 10
888.7912277881624
 20
586.1315332138342
 30
0.0
 10
888.9274704378822
 20
586.1332994601153
 30
0.0
 10
889.124773058588
 20
586.1383589276854
 30
0.0
 10
889.307915957322
 20
586.1525258840672
 30
0.0
 10
889.4765830043483
 20
586.1666887687634
 30
0.0
 10
889.6305085905577
 20
586.1897163977093
 30
0.0
 10
889.7693517025626
 20
586.2171269643661
 30
0.0
 10
889.8952913527078
 20
586.2461164617295
 30
0.0
 10
890.0405245996482
 20
586.2954181460731
 30
0.0
 10
890.2052627675524
 20
586.3682814036363
 30
0.0
 10
890.3808812913339
 20
586.4813598861963
 30
0.0
 10
890.5357029361085
 20
586.61604412208
 30
0.0
 10
890.6664393651811
 20
586.7714520346628
 30
0.0
 10
890.7734370121036
 20
586.9425747451958
 30
0.0
 10
890.8477540753133
 20
587.1266819004751
 30
0.0
 10
890.8981478677307
 20
587.3191850594135
 30
0.0
 10
890.9026999394043
 20
587.4513410657902
 30
0.0
 10
890.9050111276911
 20
587.5184396169258
 30
0.0
  0
LINE
  5
101
330
1F
100
AcDbEntity
  8
0
  6
Continuous
 62
     7
370
    25
100
AcDbLine
 10
889.2127034354
 20
588.6947216682
 30
0.0
 11
888.238344461
 21
588.6947216682
 31
0.0
  0
SPLINE
  5
102
330
1F
100
AcDbEntity
  8
0
  6
Continuous
 62
     7
370
    25
100
AcDbSpline
210
0.0
220
0.0
230
1.0
 70
     8
 71
     3
 72
    23
 73
    19
 74
     0
 42
0.00000001
 43
0.00000001
 40
0.0
 40
0.0
 40
0.0
 40
0.0
 40
0.0570031325129265
 40
0.1118178691207241
 40
0.1644023722182129
 40
0.2158698048987942
 40
0.2668411100818672
 40
0.317478963205357
 40
0.3699021362727583
 40
0.4234004494436369
 40
0.4797183982994481
 40
0.5392414966442961
 40
0.6024306889434222
 40
0.6710295461473335
 40
0.744484797560847
 40
0.8234539713786838
 40
0.9087403127306636
 40
1.0
 40
1.0
 40
1.0
 40
1.0
 10
890.9050111276911
 20
587.5184396169258
 30
0.0
 10
890.903808430128
 20
587.5628413803853
 30
0.0
 10
890.9014492075247
 20
587.6499402880482
 30
0.0
 10
890.8821273729991
 20
587.7769102404058
 30
0.0
 10
890.8492872028606
 20
587.8963245318622
 30
0.0
 10
890.8071059611689
 20
588.0098196411748
 30
0.0
 10
890.7481603869602
 20
588.1138467273927
 30
0.0
 10
890.678758185127
 20
588.2120026032665
 30
0.0
 10
890.5949051787504
 20
588.3009445884022
 30
0.0
 10
890.4994598926796
 20
588.3840748702659
 30
0.0
 10
890.3897258975749
 20
588.45777664809
 30
0.0
 10
890.2657686591307
 20
588.5223269639152
 30
0.0
 10
890.1259111115495
 20
588.5743058820407
 30
0.0
 10
889.9725103001633
 20
588.6198285162752
 30
0.0
 10
889.8032049573094
 20
588.6518017592883
 30
0.0
 10
889.6199488352325
 20
588.6784380739332
 30
0.0
 10
889.4212409060281
 20
588.6919986270864
 30
0.0
 10
889.2837663859693
 20
588.6937937422285
 30
0.0
 10
889.2127034353833
 20
588.6947216682076
 30
0.0
  0
LINE
  5
103
330
1F
100
AcDbEntity
  8
0
  6
Continuous
 62
     7
370
    25
100
AcDbLine
 10
888.238344461
 20
588.6947216682
 30
0.0
 11
888.238344461
 21
586.1306191041
 31
0.0
  0
SPLINE
  5
104
330
1F
100
AcDbEntity
  8
0
  6
Continuous
 62
     7
370
    25
100
AcDbSpline
210
0.0
220
0.0
230
1.0
 70
     8
 71
     3
 72
    27
 73
    23
 74
     0
 42
0.00000001
 43
0.00000001
 40
0.0
 40
0.0
 40
0.0
 40
0.0
 40
0.0603866193110625
 40
0.1208832485859977
 40
0.1827546186251421
 40
0.2478110297583517
 40
0.2812991000432508
 40
0.3150876241506589
 40
0.3497023955502773
 40
0.3848565811185574
 40
0.4209661972261038
 40
0.4585111882611408
 40
0.4971747221273141
 40
0.5376020478662712
 40
0.5805030184200142
 40
0.627467540026707
 40
0.6783882095592457
 40
0.7339832205925616
 40
0.7937467045508355
 40
0.8577136721607321
 40
0.9266978643613875
 40
1.0
 40
1.0
 40
1.0
 40
1.0
 10
868.9883444610243
 20
588.8998498733359
 30
0.0
 10
868.8998631076831
 20
588.8952065667137
 30
0.0
 10
868.7227392091571
 20
588.885911494476
 30
0.0
 10
868.4611438840674
 20
588.820326914838
 30
0.0
 10
868.2103910803136
 20
588.7060115641235
 30
0.0
 10
868.0109785667619
 20
588.5804061413465
 30
0.0
 10
867.8581470547446
 20
588.4607757151941
 30
0.0
 10
867.7505294698834
 20
588.3570352487749
 30
0.0
 10
867.6496239333858
 20
588.2435580959403
 30
0.0
 10
867.556669190214
 20
588.1192108619966
 30
0.0
 10
867.4696079714888
 20
587.9855757366958
 30
0.0
 10
867.3896513713158
 20
587.8416014173238
 30
0.0
 10
867.3176117606278
 20
587.6865582990943
 30
0.0
 10
867.2511328207872
 20
587.5205778752792
 30
0.0
 10
867.1926807338702
 20
587.3386785737123
 30
0.0
 10
867.1444659607731
 20
587.1380637312129
 30
0.0
 10
867.0999241250705
 20
586.9175794071234
 30
0.0
 10
867.0683920818692
 20
586.6759348175343
 30
0.0
 10
867.0403606401283
 20
586.4147184669762
 30
0.0
 10
867.022346130523
 20
586.1329417395947
 30
0.0
 10
867.0083318277361
 20
585.8310802986751
 30
0.0
 10
867.0078324806213
 20
585.6226250792405
 30
0.0
 10
867.007575230255
 20
585.5152344887206
 30
0.0
  0
SPLINE
  5
105
330
1F
100
AcDbEntity
  8
0
  6
Continuous
 62
     7
370
    25
100
AcDbSpline
210
0.0
220
0.0
230
1.0
 70
     8
 71
     3
 72
    27
 73
    23
 74
     0
 42
0.00000001
 43
0.00000001
 40
0.0
 40
0.0
 40
0.0
 40
0.0
 40
0.0656811979906368
 40
0.1284864641740658
 40
0.1881751303280081
 40
0.2451061306699847
 40
0.299448424529477
 40
0.3508229360093832
 40
0.3999416805337767
 40
0.4466717436323713
 40
0.4912545333734988
 40
0.5333763442704379
 40
0.5738527549682246
 40
0.6125263117194542
 40
0.6495971364453295
 40
0.6855320415538516
 40
0.7201057860682001
 40
0.7538376629736525
 40
0.8189254160467149
 40
0.8804934616501638
 40
0.9403113338460577
 40
1.0
 40
1.0
 40
1.0
 40
1.0
 10
871.007575230255
 20
585.5152344887206
 30
0.0
 10
871.0063176548656
 20
585.6113889401904
 30
0.0
 10
871.0038575685671
 20
585.7994876025459
 30
0.0
 10
870.9944541681075
 20
586.0749577297737
 30
0.0
 10
870.9701717121258
 20
586.3365983261375
 30
0.0
 10
870.9432022975784
 20
586.5855365493702
 30
0.0
 10
870.9034372207964
 20
586.8203943841232
 30
0.0
 10
870.8605622336414
 20
587.0431379389948
 30
0.0
 10
870.8029594626923
 20
587.2510077100106
 30
0.0
 10
870.741428548466
 20
587.4472581824942
 30
0.0
 10
870.6710047872514
 20
587.629659678496
 30
0.0
 10
870.5934831089484
 20
587.7990626187519
 30
0.0
 10
870.5106905174763
 20
587.9562848467674
 30
0.0
 10
870.4207653964265
 20
588.1008949989424
 30
0.0
 10
870.3247752637059
 20
588.2335408113106
 30
0.0
 10
870.2201865798257
 20
588.3515627417269
 30
0.0
 10
870.111148013401
 20
588.4586186688321
 30
0.0
 10
869.9584230172326
 20
588.5808188268243
 30
0.0
 10
869.7584817834032
 20
588.7054169879286
 30
0.0
 10
869.5096917323348
 20
588.8200815818951
 30
0.0
 10
869.2507874026179
 20
588.8859291078859
 30
0.0
 10
869.0757623646932
 20
588.895212963973
 30
0.0
 10
868.9883444610243
 20
588.8998498733359
 30
0.0
  0
SPLINE
  5
106
330
1F
100
AcDbEntity
  8
0
  6
Continuous
 62
     7
370
    25
100
AcDbSpline
210
0.0
220
0.0
230
1.0
 70
     8
 71
     3
 72
    27
 73
    23
 74
     0
 42
0.00000001
 43
0.00000001
 40
0.0
 40
0.0
 40
0.0
 40
0.0
 40
0.0729510658758662
 40
0.141583694186547
 40
0.2059264601708674
 40
0.2653013571846062
 40
0.3205972327139287
 40
0.3718165030988098
 40
0.4187897697094514
 40
0.4616987286157636
 40
0.5021335821035655
 40
0.5408043152926482
 40
0.5781805253279672
 40
0.6142968652075134
 40
0.649678243264787
 40
0.6842994600896374
 40
0.71835895277236
 40
0.7520808646475965
 40
0.8176524386023862
 40
0.8797220764054369
 40
0.9399655597309862
 40
1.0
 40
1.0
 40
1.0
 40
1.0
 10
867.007575230255
 20
585.5152344887206
 30
0.0
 10
867.0078482521237
 20
585.408380320026
 30
0.0
 10
867.00837813396
 20
585.2009973604851
 30
0.0
 10
867.0222208781366
 20
584.8996413353973
 30
0.0
 10
867.0410785512782
 20
584.618566298101
 30
0.0
 10
867.0654015162729
 20
584.357415357609
 30
0.0
 10
867.1015225414752
 20
584.1170724718723
 30
0.0
 10
867.1419951993443
 20
583.8958846248664
 30
0.0
 10
867.1912479756168
 20
583.6950223686063
 30
0.0
 10
867.2495223021698
 20
583.5131073727102
 30
0.0
 10
867.3158973807836
 20
583.3470523590065
 30
0.0
 10
867.388367926315
 20
583.1925352958583
 30
0.0
 10
867.4662210072406
 20
583.0477308697194
 30
0.0
 10
867.5533504942188
 20
582.9139397648644
 30
0.0
 10
867.6482420673136
 20
582.7907256755549
 30
0.0
 10
867.7487523739137
 20
582.675907773104
 30
0.0
 10
867.858632566467
 20
582.5735146729083
 30
0.0
 10
868.0106411208516
 20
582.4507104328409
 30
0.0
 10
868.2113187766848
 20
582.3238095557447
 30
0.0
 10
868.4641655314988
 20
582.2133042075582
 30
0.0
 10
868.7239791337422
 20
582.1438585928557
 30
0.0
 10
868.9003248482267
 20
582.1350271506726
 30
0.0
 10
868.9883444610243
 20
582.1306191041051
 30
0.0
  0
SPLINE
  5
107
330
1F
100
AcDbEntity
  8
0
  6
Continuous
 62
     7
370
    25
100
AcDbSpline
210
0.0
220
0.0
230
1.0
 70
     8
 71
     3
 72
    19
 73
    15
 74
     0
 42
0.00000001
 43
0.00000001
 40
0.0
 40
0.0
 40
0.0
 40
0.0
 40
0.1128134007444529
 40
0.2253938839207277
 40
0.339594814562697
 40
0.4596754102248638
 40
0.5217351900879331
 40
0.5839258387389148
 40
0.6481741447653658
 40
0.7138810381130611
 40
0.7810044549073859
 40
0.8514509275565517
 40
0.9240506926641738
 40
1.0
 40
1.0
 40
1.0
 40
1.0
 10
868.9883444610243
 20
582.1306191041051
 30
0.0
 10
869.0769334248089
 20
582.1342711745316
 30
0.0
 10
869.2539284492311
 20
582.1415677752219
 30
0.0
 10
869.5125199809896
 20
582.2119648892202
 30
0.0
 10
869.7635605983204
 20
582.3181809794228
 30
0.0
 10
869.960296461815
 20
582.4437752775241
 30
0.0
 10
870.1099708469612
 20
582.5633828876984
 30
0.0
 10
870.217209681489
 20
582.6653592266993
 30
0.0
 10
870.315637220765
 20
582.7795440662569
 30
0.0
 10
870.4089905347184
 20
582.9027424569196
 30
0.0
 10
870.4946112791181
 20
583.037308135031
 30
0.0
 10
870.5724698795643
 20
583.1825940213533
 30
0.0
 10
870.6435175310961
 20
583.339003570867
 30
0.0
 10
870.683995350411
 20
583.4481915459888
 30
0.0
 10
870.7046906148705
 20
583.5040165400026
 30
0.0
  0
SPLINE
  5
108
330
1F
100
AcDbEntity
  8
0
  6
Continuous
 62
     7
370
    25
100
AcDbSpline
210
0.0
220
0.0
230
1.0
 70
     8
 71
     3
 72
    15
 73
    11
 74
     0
 42
0.00000001
 43
0.00000001
 40
0.0
 40
0.0
 40
0.0
 40
0.0
 40
0.1105883385953365
 40
0.2245417540535898
 40
0.3425034940501052
 40
0.4643240984173585
 40
0.5907560327017658
 40
0.72222747535551
 40
0.8588428362087218
 40
1.0
 40
1.0
 40
1.0
 40
1.0
 10
870.7046906148705
 20
583.5040165400026
 30
0.0
 10
870.7288089412563
 20
583.5753988016398
 30
0.0
 10
870.777779487159
 20
583.720335405625
 30
0.0
 10
870.8408921140635
 20
583.9451666103804
 30
0.0
 10
870.8905958836721
 20
584.1810586422384
 30
0.0
 10
870.9353121482421
 20
584.4266017661664
 30
0.0
 10
870.9658334188647
 20
584.6836067970487
 30
0.0
 10
870.9903998492264
 20
584.9512785317132
 30
0.0
 10
871.0048699908018
 20
585.2298187882515
 30
0.0
 10
871.0066637075363
 20
585.419064482412
 30
0.0
 10
871.007575230255
 20
585.5152344887206
 30
0.0
  0
SPLINE
  5
109
330
1F
100
AcDbEntity
  8
0
  6
Continuous
 62
     7
370
    25
100
AcDbSpline
210
0.0
220
0.0
230
1.0
 70
     8
 71
     3
 72
    15
 73
    11
 74
     0
 42
0.00000001
 43
0.00000001
 40
0.0
 40
0.0
 40
0.0
 40
0.0
 40
0.1105883385953364
 40
0.2245417540535914
 40
0.3425034940501052
 40
0.4643240984173584
 40
0.5907560327017655
 40
0.7222274753555102
 40
0.8588428362087218
 40
1.0
 40
1.0
 40
1.0
 40
1.0
 10
876.8585367687166
 20
583.5040165400026
 30
0.0
 10
876.8826550951025
 20
583.5753988016398
 30
0.0
 10
876.9316256410051
 20
583.720335405625
 30
0.0
 10
876.9947382679097
 20
583.9451666103804
 30
0.0
 10
877.0444420375181
 20
584.1810586422386
 30
0.0
 10
877.0891583020882
 20
584.4266017661663
 30
0.0
 10
877.1196795727109
 20
584.6836067970487
 30
0.0
 10
877.1442460030725
 20
584.9512785317132
 30
0.0
 10
877.1587161446479
 20
585.2298187882514
 30
0.0
 10
877.1605098613824
 20
585.419064482412
 30
0.0
 10
877.1614213841012
 20
585.5152344887206
 30
0.0
  0
SPLINE
  5
10A
330
1F
100
AcDbEntity
  8
0
  6
Continuous
 62
     7
370
    25
100
AcDbSpline
210
0.0
220
0.0
230
1.0
 70
     8
 71
     3
 72
    27
 73
    23
 74
     0
 42
0.00000001
 43
0.00000001
 40
0.0
 40
0.0
 40
0.0
 40
0.0
 40
0.0603866193110626
 40
0.1208832485859949
 40
0.1827546186251393
 40
0.2478110297583517
 40
0.2812991000432508
 40
0.3150876241506567
 40
0.3497023955502752
 40
0.3848565811185573
 40
0.420966197226102
 40
0.4585111882611391
 40
0.4971747221273137
 40
0.5376020478662709
 40
0.5805030184200128
 40
0.6274675400267059
 40
0.6783882095592452
 40
0.7339832205925612
 40
0.7937467045508348
 40
0.8577136721607319
 40
0.9266978643613873
 40
1.0
 40
1.0
 40
1.0
 40
1.0
 10
875.1421906148705
 20
588.8998498733359
 30
0.0
 10
875.0537092615292
 20
588.8952065667137
 30
0.0
 10
874.8765853630033
 20
588.885911494476
 30
0.0
 10
874.6149900379136
 20
588.8203269148381
 30
0.0
 10
874.3642372341596
 20
588.7060115641235
 30
0.0
 10
874.164824720608
 20
588.5804061413467
 30
0.0
 10
874.0119932085906
 20
588.4607757151942
 30
0.0
 10
873.9043756237295
 20
588.3570352487748
 30
0.0
 10
873.803470087232
 20
588.2435580959403
 30
0.0
 10
873.7105153440602
 20
588.1192108619966
 30
0.0
 10
873.623454125335
 20
587.9855757366958
 30
0.0
 10
873.5434975251619
 20
587.8416014173238
 30
0.0
 10
873.471457914474
 20
587.6865582990943
 30
0.0
 10
873.4049789746334
 20
587.5205778752792
 30
0.0
 10
873.3465268877164
 20
587.3386785737123
 30
0.0
 10
873.2983121146193
 20
587.1380637312129
 30
0.0
 10
873.2537702789167
 20
586.9175794071234
 30
0.0
 10
873.2222382357153
 20
586.6759348175343
 30
0.0
 10
873.1942067939743
 20
586.4147184669762
 30
0.0
 10
873.1761922843691
 20
586.1329417395948
 30
0.0
 10
873.1621779815823
 20
585.8310802986751
 30
0.0
 10
873.1616786344674
 20
585.6226250792405
 30
0.0
 10
873.1614213841012
 20
585.5152344887206
 30
0.0
  0
SPLINE
  5
10B
330
1F
100
AcDbEntity
  8
0
  6
Continuous
 62
     7
370
    25
100
AcDbSpline
210
0.0
220
0.0
230
1.0
 70
     8
 71
     3
 72
    27
 73
    23
 74
     0
 42
0.00000001
 43
0.00000001
 40
0.0
 40
0.0
 40
0.0
 40
0.0
 40
0.0656811979906367
 40
0.1284864641740657
 40
0.1881751303280079
 40
0.2451061306699845
 40
0.2994484245294766
 40
0.3508229360093821
 40
0.3999416805337763
 40
0.4466717436323699
 40
0.4912545333734973
 40
0.5333763442704377
 40
0.5738527549682229
 40
0.6125263117194523
 40
0.6495971364453295
 40
0.6855320415538495
 40
0.7201057860682002
 40
0.7538376629736502
 40
0.818925416046715
 40
0.880493461650164
 40
0.9403113338460578
 40
1.0
 40
1.0
 40
1.0
 40
1.0
 10
877.1614213841012
 20
585.5152344887206
 30
0.0
 10
877.1601638087117
 20
585.6113889401904
 30
0.0
 10
877.1577037224133
 20
585.7994876025459
 30
0.0
 10
877.1483003219536
 20
586.0749577297737
 30
0.0
 10
877.1240178659718
 20
586.3365983261375
 30
0.0
 10
877.0970484514245
 20
586.5855365493702
 30
0.0
 10
877.0572833746425
 20
586.8203943841232
 30
0.0
 10
877.0144083874876
 20
587.0431379389948
 30
0.0
 10
876.9568056165384
 20
587.2510077100106
 30
0.0
 10
876.8952747023122
 20
587.4472581824942
 30
0.0
 10
876.8248509410976
 20
587.629659678496
 30
0.0
 10
876.7473292627946
 20
587.7990626187519
 30
0.0
 10
876.6645366713225
 20
587.9562848467674
 30
0.0
 10
876.5746115502727
 20
588.1008949989424
 30
0.0
 10
876.4786214175521
 20
588.2335408113106
 30
0.0
 10
876.374032733672
 20
588.3515627417269
 30
0.0
 10
876.2649941672471
 20
588.4586186688321
 30
0.0
 10
876.1122691710788
 20
588.5808188268244
 30
0.0
 10
875.9123279372494
 20
588.7054169879286
 30
0.0
 10
875.6635378861808
 20
588.8200815818951
 30
0.0
 10
875.404633556464
 20
588.8859291078859
 30
0.0
 10
875.2296085185394
 20
588.895212963973
 30
0.0
 10
875.1421906148705
 20
588.8998498733358
 30
0.0
  0
SPLINE
  5
10C
330
1F
100
AcDbEntity
  8
0
  6
Continuous
 62
     7
370
    25
100
AcDbSpline
210
0.0
220
0.0
230
1.0
 70
     8
 71
     3
 72
    19
 73
    15
 74
     0
 42
0.00000001
 43
0.00000001
 40
0.0
 40
0.0
 40
0.0
 40
0.0
 40
0.1128134007444587
 40
0.2253938839207276
 40
0.3395948145627021
 40
0.4596754102248638
 40
0.521735190087933
 40
0.5839258387389146
 40
0.6481741447653695
 40
0.7138810381130647
 40
0.7810044549073863
 40
0.8514509275565519
 40
0.924050692664174
 40
1.0
 40
1.0
 40
1.0
 40
1.0
 10
875.1421906148705
 20
582.1306191041051
 30
0.0
 10
875.2307795786551
 20
582.1342711745316
 30
0.0
 10
875.4077746030773
 20
582.1415677752219
 30
0.0
 10
875.6663661348357
 20
582.2119648892202
 30
0.0
 10
875.9174067521667
 20
582.3181809794229
 30
0.0
 10
876.1141426156612
 20
582.4437752775241
 30
0.0
 10
876.2638170008073
 20
582.5633828876984
 30
0.0
 10
876.3710558353351
 20
582.6653592266994
 30
0.0
 10
876.4694833746112
 20
582.7795440662569
 30
0.0
 10
876.5628366885646
 20
582.9027424569196
 30
0.0
 10
876.6484574329643
 20
583.037308135031
 30
0.0
 10
876.7263160334104
 20
583.1825940213533
 30
0.0
 10
876.7973636849423
 20
583.339003570867
 30
0.0
 10
876.8378415042572
 20
583.4481915459888
 30
0.0
 10
876.8585367687166
 20
583.5040165400026
 30
0.0
  0
SPLINE
  5
10D
330
1F
100
AcDbEntity
  8
0
  6
Continuous
 62
     7
370
    25
100
AcDbSpline
210
0.0
220
0.0
230
1.0
 70
     8
 71
     3
 72
    27
 73
    23
 74
     0
 42
0.00000001
 43
0.00000001
 40
0.0
 40
0.0
 40
0.0
 40
0.0
 40
0.0729510658758662
 40
0.1415836941865471
 40
0.2059264601708678
 40
0.2653013571846063
 40
0.3205972327139289
 40
0.3718165030988107
 40
0.4187897697094515
 40
0.4616987286157648
 40
0.5021335821035655
 40
0.540804315292648
 40
0.5781805253279672
 40
0.6142968652075151
 40
0.649678243264787
 40
0.6842994600896395
 40
0.7183589527723597
 40
0.7520808646475963
 40
0.8176524386023861
 40
0.8797220764054369
 40
0.9399655597309861
 40
1.0
 40
1.0
 40
1.0
 40
1.0
 10
873.1614213841012
 20
585.5152344887206
 30
0.0
 10
873.1616944059699
 20
585.408380320026
 30
0.0
 10
873.1622242878062
 20
585.2009973604852
 30
0.0
 10
873.1760670319827
 20
584.8996413353973
 30
0.0
 10
873.1949247051244
 20
584.618566298101
 30
0.0
 10
873.2192476701191
 20
584.357415357609
 30
0.0
 10
873.2553686953214
 20
584.1170724718725
 30
0.0
 10
873.2958413531903
 20
583.8958846248664
 30
0.0
 10
873.3450941294628
 20
583.6950223686063
 30
0.0
 10
873.403368456016
 20
583.5131073727102
 30
0.0
 10
873.4697435346296
 20
583.3470523590065
 30
0.0
 10
873.5422140801612
 20
583.1925352958583
 30
0.0
 10
873.6200671610868
 20
583.0477308697194
 30
0.0
 10
873.707196648065
 20
582.9139397648643
 30
0.0
 10
873.8020882211598
 20
582.7907256755549
 30
0.0
 10
873.9025985277599
 20
582.675907773104
 30
0.0
 10
874.0124787203132
 20
582.5735146729083
 30
0.0
 10
874.1644872746976
 20
582.4507104328409
 30
0.0
 10
874.3651649305309
 20
582.3238095557448
 30
0.0
 10
874.6180116853449
 20
582.2133042075582
 30
0.0
 10
874.8778252875884
 20
582.1438585928557
 30
0.0
 10
875.0541710020727
 20
582.1350271506726
 30
0.0
 10
875.1421906148705
 20
582.1306191041051
 30
0.0
  0
LINE
  5
10E
330
1F
100
AcDbEntity
  8
0
  6
Continuous
 62
     7
370
    25
100
AcDbLine
 10
877.5716777944
 20
569.8485678221
 30
0.0
 11
877.5716777944
 21
573.3229267964
 31
0.0
  0
LINE
  5
10F
330
1F
100
AcDbEntity
  8
0
  6
Continuous
 62
     7
370
    25
100
AcDbLine
 10
877.5716777944
 20
573.3229267964
 30
0.0
 11
875.1870624097
 21
569.8485678221
 31
0.0
  0
LINE
  5
110
330
1F
100
AcDbEntity
  8
0
  6
Continuous
 62
     7
370
    25
100
AcDbLine
 10
875.1870624097
 20
569.8485678221
 30
0.0
 11
877.5716777944
 21
569.8485678221
 31
0.0
  0
SPLINE
  5
111
330
1F
100
AcDbEntity
  8
0
  6
Continuous
 62
     7
370
    25
100
AcDbSpline
210
0.0
220
0.0
230
1.0
 70
     8
 71
     3
 72
    27
 73
    23
 74
     0
 42
0.00000001
 43
0.00000001
 40
0.0
 40
0.0
 40
0.0
 40
0.0
 40
0.0729510658758663
 40
0.1415836941865439
 40
0.2059264601708647
 40
0.2653013571846032
 40
0.3205972327139258
 40
0.3718165030988133
 40
0.4187897697094487
 40
0.4616987286157619
 40
0.5021335821035657
 40
0.5408043152926467
 40
0.578180525327967
 40
0.6142968652075133
 40
0.6496782432647864
 40
0.6842994600896393
 40
0.7183589527723595
 40
0.7520808646475942
 40
0.8176524386023857
 40
0.8797220764054376
 40
0.9399655597309862
 40
1.0
 40
1.0
 40
1.0
 40
1.0
 10
880.6486008712807
 20
571.1819011553872
 30
0.0
 10
880.6488738931494
 20
571.0750469866928
 30
0.0
 10
880.6494037749858
 20
570.8676640271518
 30
0.0
 10
880.6632465191622
 20
570.5663080020639
 30
0.0
 10
880.6821041923039
 20
570.2852329647676
 30
0.0
 10
880.7064271572985
 20
570.0240820242759
 30
0.0
 10
880.7425481825009
 20
569.7837391385391
 30
0.0
 10
880.7830208403698
 20
569.5625512915329
 30
0.0
 10
880.8322736166423
 20
569.361689035273
 30
0.0
 10
880.8905479431954
 20
569.1797740393769
 30
0.0
 10
880.9569230218092
 20
569.0137190256733
 30
0.0
 10
881.0293935673407
 20
568.859201962525
 30
0.0
 10
881.1072466482661
 20
568.7143975363861
 30
0.0
 10
881.1943761352444
 20
568.580606431531
 30
0.0
 10
881.2892677083393
 20
568.4573923422216
 30
0.0
 10
881.3897780149393
 20
568.3425744397706
 30
0.0
 10
881.4996582074928
 20
568.240181339575
 30
0.0
 10
881.6516667618772
 20
568.1173770995076
 30
0.0
 10
881.8523444177105
 20
567.9904762224113
 30
0.0
 10
882.1051911725244
 20
567.8799708742248
 30
0.0
 10
882.3650047747677
 20
567.8105252595224
 30
0.0
 10
882.5413504892522
 20
567.8016938173392
 30
0.0
 10
882.62937010205
 20
567.7972857707719
 30
0.0
  0
SPLINE
  5
112
330
1F
100
AcDbEntity
  8
0
  6
Continuous
 62
     7
370
    25
100
AcDbSpline
210
0.0
220
0.0
230
1.0
 70
     8
 71
     3
 72
    19
 73
    15
 74
     0
 42
0.00000001
 43
0.00000001
 40
0.0
 40
0.0
 40
0.0
 40
0.0
 40
0.112813400744459
 40
0.2253938839207268
 40
0.3395948145626985
 40
0.4596754102248624
 40
0.5217351900879318
 40
0.5839258387389136
 40
0.6481741447653642
 40
0.7138810381130655
 40
0.7810044549073887
 40
0.8514509275565568
 40
0.9240506926641736
 40
1.0
 40
1.0
 40
1.0
 40
1.0
 10
882.62937010205
 20
567.7972857707719
 30
0.0
 10
882.7179590658345
 20
567.8009378411982
 30
0.0
 10
882.8949540902568
 20
567.8082344418887
 30
0.0
 10
883.1535456220151
 20
567.8786315558868
 30
0.0
 10
883.4045862393461
 20
567.9848476460896
 30
0.0
 10
883.6013221028408
 20
568.1104419441907
 30
0.0
 10
883.7509964879869
 20
568.2300495543651
 30
0.0
 10
883.8582353225146
 20
568.3320258933661
 30
0.0
 10
883.9566628617906
 20
568.4462107329235
 30
0.0
 10
884.0500161757441
 20
568.5694091235862
 30
0.0
 10
884.1356369201438
 20
568.7039748016978
 30
0.0
 10
884.21349552059
 20
568.84926068802
 30
0.0
 10
884.2845431721217
 20
569.0056702375335
 30
0.0
 10
884.3250209914366
 20
569.1148582126555
 30
0.0
 10
884.345716255896
 20
569.1706832066692
 30
0.0
  0
SPLINE
  5
113
330
1F
100
AcDbEntity
  8
0
  6
Continuous
 62
     7
370
    25
100
AcDbSpline
210
0.0
220
0.0
230
1.0
 70
     8
 71
     3
 72
    15
 73
    11
 74
     0
 42
0.00000001
 43
0.00000001
 40
0.0
 40
0.0
 40
0.0
 40
0.0
 40
0.1105883385953299
 40
0.2245417540535979
 40
0.3425034940500984
 40
0.4643240984173594
 40
0.590756032701759
 40
0.7222274753555104
 40
0.8588428362087219
 40
0.9999999999999999
 40
0.9999999999999999
 40
0.9999999999999999
 40
0.9999999999999999
 10
884.345716255896
 20
569.1706832066693
 30
0.0
 10
884.3698345822819
 20
569.2420654683066
 30
0.0
 10
884.4188051281847
 20
569.3870020722917
 30
0.0
 10
884.4819177550892
 20
569.611833277047
 30
0.0
 10
884.5316215246977
 20
569.8477253089052
 30
0.0
 10
884.5763377892678
 20
570.093268432833
 30
0.0
 10
884.6068590598903
 20
570.3502734637152
 30
0.0
 10
884.631425490252
 20
570.61794519838
 30
0.0
 10
884.6458956318274
 20
570.8964854549181
 30
0.0
 10
884.6476893485619
 20
571.0857311490787
 30
0.0
 10
884.6486008712807
 20
571.1819011553872
 30
0.0
  0
SPLINE
  5
114
330
1F
100
AcDbEntity
  8
0
  6
Continuous
 62
     7
370
    25
100
AcDbSpline
210
0.0
220
0.0
230
1.0
 70
     8
 71
     3
 72
    27
 73
    23
 74
     0
 42
0.00000001
 43
0.00000001
 40
0.0
 40
0.0
 40
0.0
 40
0.0
 40
0.0656811979906398
 40
0.1284864641740622
 40
0.1881751303280046
 40
0.2451061306699842
 40
0.2994484245294757
 40
0.3508229360093825
 40
0.3999416805337788
 40
0.4466717436323693
 40
0.4912545333734996
 40
0.5333763442704341
 40
0.5738527549682221
 40
0.612526311719454
 40
0.6495971364453293
 40
0.6855320415538514
 40
0.7201057860681997
 40
0.7538376629736477
 40
0.8189254160467132
 40
0.880493461650165
 40
0.9403113338460578
 40
1.0
 40
1.0
 40
1.0
 40
1.0
 10
884.6486008712807
 20
571.1819011553872
 30
0.0
 10
884.6473432958912
 20
571.278055606857
 30
0.0
 10
884.6448832095928
 20
571.4661542692127
 30
0.0
 10
884.6354798091331
 20
571.7416243964403
 30
0.0
 10
884.6111973531514
 20
572.003264992804
 30
0.0
 10
884.5842279386039
 20
572.2522032160368
 30
0.0
 10
884.544462861822
 20
572.48706105079
 30
0.0
 10
884.501587874667
 20
572.7098046056616
 30
0.0
 10
884.4439851037179
 20
572.9176743766772
 30
0.0
 10
884.3824541894917
 20
573.1139248491609
 30
0.0
 10
884.312030428277
 20
573.2963263451627
 30
0.0
 10
884.234508749974
 20
573.4657292854187
 30
0.0
 10
884.1517161585019
 20
573.6229515134341
 30
0.0
 10
884.0617910374522
 20
573.767561665609
 30
0.0
 10
883.9658009047315
 20
573.9002074779773
 30
0.0
 10
883.8612122208515
 20
574.0182294083935
 30
0.0
 10
883.7521736544265
 20
574.1252853354988
 30
0.0
 10
883.5994486582582
 20
574.2474854934909
 30
0.0
 10
883.3995074244289
 20
574.3720836545954
 30
0.0
 10
883.1507173733604
 20
574.4867482485619
 30
0.0
 10
882.8918130436435
 20
574.5525957745525
 30
0.0
 10
882.7167880057189
 20
574.5618796306396
 30
0.0
 10
882.62937010205
 20
574.5665165400026
 30
0.0
  0
SPLINE
  5
115
330
1F
100
AcDbEntity
  8
0
  6
Continuous
 62
     7
370
    25
100
AcDbSpline
210
0.0
220
0.0
230
1.0
 70
     8
 71
     3
 72
    27
 73
    23
 74
     0
 42
0.00000001
 43
0.00000001
 40
0.0
 40
0.0
 40
0.0
 40
0.0
 40
0.0603866193110625
 40
0.120883248585997
 40
0.1827546186251385
 40
0.2478110297583543
 40
0.2812991000432514
 40
0.3150876241506573
 40
0.3497023955502734
 40
0.3848565811185579
 40
0.4209661972261026
 40
0.4585111882611368
 40
0.4971747221273143
 40
0.5376020478662684
 40
0.5805030184200104
 40
0.6274675400267034
 40
0.6783882095592426
 40
0.733983220592558
 40
0.7937467045508383
 40
0.8577136721607352
 40
0.9266978643613875
 40
1.0
 40
1.0
 40
1.0
 40
1.0
 10
882.62937010205
 20
574.5665165400026
 30
0.0
 10
882.5408887487088
 20
574.5618732333803
 30
0.0
 10
882.3637648501827
 20
574.5525781611427
 30
0.0
 10
882.102169525093
 20
574.4869935815046
 30
0.0
 10
881.8514167213393
 20
574.3726782307903
 30
0.0
 10
881.6520042077875
 20
574.2470728080132
 30
0.0
 10
881.4991726957702
 20
574.127442381861
 30
0.0
 10
881.391555110909
 20
574.0237019154415
 30
0.0
 10
881.2906495744115
 20
573.910224762607
 30
0.0
 10
881.1976948312397
 20
573.7858775286633
 30
0.0
 10
881.1106336125146
 20
573.6522424033624
 30
0.0
 10
881.0306770123414
 20
573.5082680839904
 30
0.0
 10
880.9586374016534
 20
573.3532249657609
 30
0.0
 10
880.8921584618129
 20
573.1872445419459
 30
0.0
 10
880.8337063748959
 20
573.0053452403789
 30
0.0
 10
880.7854916017988
 20
572.8047303978796
 30
0.0
 10
880.7409497660962
 20
572.58424607379
 30
0.0
 10
880.709417722895
 20
572.342601484201
 30
0.0
 10
880.6813862811538
 20
572.0813851336428
 30
0.0
 10
880.6633717715487
 20
571.7996084062614
 30
0.0
 10
880.6493574687619
 20
571.4977469653419
 30
0.0
 10
880.648858121647
 20
571.2892917459071
 30
0.0
 10
880.6486008712807
 20
571.1819011553871
 30
0.0
  0
CIRCLE
  5
116
330
1F
100
AcDbEntity
  8
0
  6
Continuous
 62
     7
370
    25
100
AcDbCircle
 10
949.7638876862
 20
700.6153280681
 30
0.0
 40
109.0
  0
CIRCLE
  5
117
330
1F
100
AcDbEntity
  8
0
  6
Continuous
 62
     7
370
    25
100
AcDbCircle
 10
949.7638876862
 20
700.6153280681
 30
0.0
 40
120.0
  0
ENDSEC
  0
SECTION
  2
OBJECTS
  0
DICTIONARY
  5
C
330
0
100
AcDbDictionary
281
     1
  3
ACAD_DETAILVIEWSTYLE
350
11F
  3
ACAD_GROUP
350
D
  3
ACAD_LAYOUT
350
1A
  3
ACAD_MATERIAL
350
43
  3
ACAD_MLEADERSTYLE
350
5B
  3
ACAD_MLINESTYLE
350
17
  3
ACAD_PLOTSETTINGS
350
19
  3
ACAD_PLOTSTYLENAME
350
E
  3
ACAD_SCALELIST
350
47
  3
ACAD_SECTIONVIEWSTYLE
350
120
  3
ACAD_TABLESTYLE
350
59
  3
ACAD_VISUALSTYLE
350
2A
  3
ACDB_RECOMPOSE_DATA
350
11C
  3
AcDbVariableDictionary
350
118
  0
SUN
  5
5D
330
29
100
AcDbSun
 90
        1
290
     0
 63
     7
421
 16777215
 40
1.0
291
     1
 91
  2455826
 92
 54000000
292
     0
 70
     2
 71
   256
280
     1
  0
DICTIONARY
  5
11F
102
{ACAD_REACTORS
330
C
102
}
330
C
100
AcDbDictionary
281
     1
  0
DICTIONARY
  5
D
102
{ACAD_REACTORS
330
C
102
}
330
C
100
AcDbDictionary
281
     1
  0
DICTIONARY
  5
1A
102
{ACAD_REACTORS
330
C
102
}
330
C
100
AcDbDictionary
281
     1
  3
Layout1
350
1E
  3
Layout2
350
26
  3
Model
350
22
  0
DICTIONARY
  5
43
102
{ACAD_REACTORS
330
C
102
}
330
C
100
AcDbDictionary
281
     1
  3
ByBlock
350
45
  3
ByLayer
350
44
  3
Global
350
46
  0
DICTIONARY
  5
5B
102
{ACAD_REACTORS
330
C
102
}
330
C
100
AcDbDictionary
281
     1
  3
Standard
350
5C
  0
DICTIONARY
  5
17
102
{ACAD_REACTORS
330
C
102
}
330
C
100
AcDbDictionary
281
     1
  3
Standard
350
18
  0
DICTIONARY
  5
19
102
{ACAD_REACTORS
330
C
102
}
330
C
100
AcDbDictionary
281
     1
  0
ACDBDICTIONARYWDFLT
  5
E
102
{ACAD_REACTORS
330
C
102
}
330
C
100
AcDbDictionary
281
     1
  3
Normal
350
F
100
AcDbDictionaryWithDefault
340
F
  0
DICTIONARY
  5
47
102
{ACAD_REACTORS
330
C
102
}
330
C
100
AcDbDictionary
281
     1
  3
A0
350
48
  3
A1
350
49
  3
A2
350
4A
  3
A3
350
4B
  3
A4
350
4C
  3
A5
350
4D
  3
A6
350
4E
  3
A7
350
4F
  3
A8
350
50
  3
A9
350
51
  3
B0
350
52
  3
B1
350
53
  3
B2
350
54
  3
B3
350
55
  3
B4
350
56
  3
B5
350
57
  3
B6
350
58
  0
DICTIONARY
  5
120
102
{ACAD_REACTORS
330
C
102
}
330
C
100
AcDbDictionary
281
     1
  0
DICTIONARY
  5
59
102
{ACAD_REACTORS
330
C
102
}
330
C
100
AcDbDictionary
281
     1
  3
Standard
350
5A
  0
DICTIONARY
  5
2A
102
{ACAD_REACTORS
330
C
102
}
330
C
100
AcDbDictionary
281
     1
  3
2dWireframe
350
2F
  3
Basic
350
32
  3
Brighten
350
36
  3
ColorChange
350
3A
  3
Conceptual
350
34
  3
Dim
350
35
  3
EdgeColorOff
350
3D
  3
Facepattern
350
39
  3
Flat
350
2B
  3
FlatWithEdges
350
2C
  3
Gouraud
350
2D
  3
GouraudWithEdges
350
2E
  3
Hidden
350
31
  3
JitterOff
350
3B
  3
Linepattern
350
38
  3
OverhangOff
350
3C
  3
Realistic
350
33
  3
Shaded
350
42
  3
Shaded with edges
350
41
  3
Shades of Gray
350
3E
  3
Sketchy
350
3F
  3
Thicken
350
37
  3
Wireframe
350
30
  3
X-Ray
350
40
  0
XRECORD
  5
11C
102
{ACAD_REACTORS
330
C
102
}
330
C
100
AcDbXrecord
280
     1
 90
        1
330
5A
  0
DICTIONARY
  5
118
102
{ACAD_REACTORS
330
C
102
}
330
C
100
AcDbDictionary
281
     1
  3
CANNOSCALE
350
119
  3
CENTEREXE
350
121
  3
CENTERLTYPEFILE
350
122
  3
CMLEADERSTYLE
350
11E
  3
CTABLESTYLE
350
11D
  0
LAYOUT
  5
1E
102
{ACAD_REACTORS
330
1A
102
}
330
1A
100
AcDbPlotSettings
  1

  2
none_device
  4

  6

 40
0.0
 41
0.0
 42
0.0
 43
0.0
 44
0.0
 45
0.0
 46
0.0
 47
0.0
 48
0.0
 49
0.0
140
0.0
141
0.0
142
1.0
143
1.0
 70
   688
 72
     1
 73
     0
 74
     5
  7

 75
    16
 76
     0
 77
     2
 78
   300
147
1.0
148
0.0
149
0.0
100
AcDbLayout
  1
Layout1
 70
     1
 71
     1
 10
0.0
 20
0.0
 11
420.0
 21
297.0
 12
0.0
 22
0.0
 32
0.0
 14
1.0000000000E+20
 24
1.0000000000E+20
 34
1.0000000000E+20
 15
-1.0000000000E+20
 25
-1.0000000000E+20
 35
-1.0000000000E+20
146
0.0
 13
0.0
 23
0.0
 33
0.0
 16
1.0
 26
0.0
 36
0.0
 17
0.0
 27
1.0
 37
0.0
 76
     0
330
1B
  0
LAYOUT
  5
26
102
{ACAD_REACTORS
330
1A
102
}
330
1A
100
AcDbPlotSettings
  1

  2
none_device
  4

  6

 40
0.0
 41
0.0
 42
0.0
 43
0.0
 44
0.0
 45
0.0
 46
0.0
 47
0.0
 48
0.0
 49
0.0
140
0.0
141
0.0
142
1.0
143
1.0
 70
   688
 72
     1
 73
     0
 74
     5
  7

 75
    16
 76
     0
 77
     2
 78
   300
147
1.0
148
0.0
149
0.0
100
AcDbLayout
  1
Layout2
 70
     1
 71
     2
 10
0.0
 20
0.0
 11
0.0
 21
0.0
 12
0.0
 22
0.0
 32
0.0
 14
0.0
 24
0.0
 34
0.0
 15
0.0
 25
0.0
 35
0.0
146
0.0
 13
0.0
 23
0.0
 33
0.0
 16
1.0
 26
0.0
 36
0.0
 17
0.0
 27
1.0
 37
0.0
 76
     0
330
23
  0
LAYOUT
  5
22
102
{ACAD_REACTORS
330
1A
102
}
330
1A
100
AcDbPlotSettings
  1

  2
none_device
  4
Letter_(8.50_x_11.00_Inches)
  6

 40
6.35
 41
6.35
 42
6.35000508
 43
6.35000508
 44
215.9
 45
279.4
 46
0.0
 47
0.0
 48
0.0
 49
0.0
140
0.0
141
0.0
142
1.0
143
1.0
 70
  1712
 72
     1
 73
     0
 74
     0
  7

 75
     0
 76
     0
 77
     2
 78
   300
147
1.0
148
0.0
149
0.0
100
AcDbLayout
  1
Model
 70
     1
 71
     0
 10
0.0
 20
0.0
 11
420.0
 21
297.0
 12
0.0
 22
0.0
 32
0.0
 14
0.0
 24
0.0
 34
0.0
 15
420.0
 25
297.0
 35
0.0
146
0.0
 13
0.0
 23
0.0
 33
0.0
 16
1.0
 26
0.0
 36
0.0
 17
0.0
 27
1.0
 37
0.0
 76
     0
330
1F
331
29
  0
MATERIAL
  5
45
102
{ACAD_REACTORS
330
43
102
}
330
43
100
AcDbMaterial
  1
ByBlock
 72
     1
 94
      127
  0
MATERIAL
  5
44
102
{ACAD_REACTORS
330
43
102
}
330
43
100
AcDbMaterial
  1
ByLayer
 72
     1
 94
      127
  0
MATERIAL
  5
46
102
{ACAD_REACTORS
330
43
102
}
330
43
100
AcDbMaterial
  1
Global
 72
     1
 94
      127
  0
MLEADERSTYLE
  5
5C
102
{ACAD_REACTORS
330
5B
102
}
330
5B
100
AcDbMLeaderStyle
179
     2
170
     2
171
     1
172
     0
 90
        2
 40
0.0
 41
0.0
173
     1
 91
-1056964608
340
14
 92
       -2
290
     1
 42
2.0
291
     1
 43
8.0
  3
Standard
341
0
 44
4.0
300

342
11
174
     1
178
     6
175
     1
176
     0
 93
-1056964608
 45
4.0
292
     0
297
     0
 46
4.0
343
0
 94
-1056964608
 47
1.0
 49
1.0
140
1.0
293
     1
141
0.0
294
     1
177
     0
142
1.0
295
     0
296
     0
143
3.75
271
     0
272
     9
273
     9
298
     0
  0
MLINESTYLE
  5
18
102
{ACAD_REACTORS
330
17
102
}
330
17
100
AcDbMlineStyle
  2
Standard
 70
     0
  3

 62
   256
 51
90.0
 52
90.0
 71
     2
 49
0.5
 62
   256
  6
BYLAYER
 49
-0.5
 62
   256
  6
BYLAYER
  0
ACDBPLACEHOLDER
  5
F
102
{ACAD_REACTORS
330
E
102
}
330
E
  0
SCALE
  5
48
102
{ACAD_REACTORS
330
47
102
}
330
47
100
AcDbScale
 70
     0
300
1:1
140
1.0
141
1.0
290
     1
  0
SCALE
  5
49
102
{ACAD_REACTORS
330
47
102
}
330
47
100
AcDbScale
 70
     0
300
1:2
140
1.0
141
2.0
290
     0
  0
SCALE
  5
4A
102
{ACAD_REACTORS
330
47
102
}
330
47
100
AcDbScale
 70
     0
300
1:4
140
1.0
141
4.0
290
     0
  0
SCALE
  5
4B
102
{ACAD_REACTORS
330
47
102
}
330
47
100
AcDbScale
 70
     0
300
1:5
140
1.0
141
5.0
290
     0
  0
SCALE
  5
4C
102
{ACAD_REACTORS
330
47
102
}
330
47
100
AcDbScale
 70
     0
300
1:8
140
1.0
141
8.0
290
     0
  0
SCALE
  5
4D
102
{ACAD_REACTORS
330
47
102
}
330
47
100
AcDbScale
 70
     0
300
1:10
140
1.0
141
10.0
290
     0
  0
SCALE
  5
4E
102
{ACAD_REACTORS
330
47
102
}
330
47
100
AcDbScale
 70
     0
300
1:16
140
1.0
141
16.0
290
     0
  0
SCALE
  5
4F
102
{ACAD_REACTORS
330
47
102
}
330
47
100
AcDbScale
 70
     0
300
1:20
140
1.0
141
20.0
290
     0
  0
SCALE
  5
50
102
{ACAD_REACTORS
330
47
102
}
330
47
100
AcDbScale
 70
     0
300
1:30
140
1.0
141
30.0
290
     0
  0
SCALE
  5
51
102
{ACAD_REACTORS
330
47
102
}
330
47
100
AcDbScale
 70
     0
300
1:40
140
1.0
141
40.0
290
     0
  0
SCALE
  5
52
102
{ACAD_REACTORS
330
47
102
}
330
47
100
AcDbScale
 70
     0
300
1:50
140
1.0
141
50.0
290
     0
  0
SCALE
  5
53
102
{ACAD_REACTORS
330
47
102
}
330
47
100
AcDbScale
 70
     0
300
1:100
140
1.0
141
100.0
290
     0
  0
SCALE
  5
54
102
{ACAD_REACTORS
330
47
102
}
330
47
100
AcDbScale
 70
     0
300
2:1
140
2.0
141
1.0
290
     0
  0
SCALE
  5
55
102
{ACAD_REACTORS
330
47
102
}
330
47
100
AcDbScale
 70
     0
300
4:1
140
4.0
141
1.0
290
     0
  0
SCALE
  5
56
102
{ACAD_REACTORS
330
47
102
}
330
47
100
AcDbScale
 70
     0
300
8:1
140
8.0
141
1.0
290
     0
  0
SCALE
  5
57
102
{ACAD_REACTORS
330
47
102
}
330
47
100
AcDbScale
 70
     0
300
10:1
140
10.0
141
1.0
290
     0
  0
SCALE
  5
58
102
{ACAD_REACTORS
330
47
102
}
330
47
100
AcDbScale
 70
     0
300
100:1
140
100.0
141
1.0
290
     0
  0
TABLESTYLE
  5
5A
102
{ACAD_REACTORS
330
59
102
}
102
{ACAD_XDICTIONARY
360
11A
102
}
330
59
100
AcDbTableStyle
  3
Standard
 70
     0
 71
     0
 40
0.06
 41
0.06
280
     0
281
     0
  7
Standard
140
4.5
170
     2
 62
     0
 63
   257
283
     0
 90
        4
 91
        0
  1

274
    -2
284
     1
 64
     0
275
    -2
285
     1
 65
     0
276
    -2
286
     1
 66
     0
277
    -2
287
     1
 67
     0
278
    -2
288
     1
 68
     0
279
    -2
289
     1
 69
     0
  7
Standard
140
6.0
170
     5
 62
     0
 63
   257
283
     0
 90
        4
 91
        0
  1

274
    -2
284
     1
 64
     0
275
    -2
285
     1
 65
     0
276
    -2
286
     1
 66
     0
277
    -2
287
     1
 67
     0
278
    -2
288
     1
 68
     0
279
    -2
289
     1
 69
     0
  7
Standard
140
4.5
170
     5
 62
     0
 63
   257
283
     0
 90
        4
 91
        0
  1

274
    -2
284
     1
 64
     0
275
    -2
285
     1
 65
     0
276
    -2
286
     1
 66
     0
277
    -2
287
     1
 67
     0
278
    -2
288
     1
 68
     0
279
    -2
289
     1
 69
     0
  0
VISUALSTYLE
  5
2F
102
{ACAD_REACTORS
330
2A
102
}
330
2A
100
AcDbVisualStyle
  2
2dWireframe
 70
     4
177
     3
291
     0
 70
    58
 90
        0
176
     1
 90
        2
176
     1
 90
        0
176
     1
 90
        0
176
     1
 40
0.6
176
     1
 40
30.0
176
     1
 62
     7
420
 16777215
176
     1
 90
        1
176
     1
 90
        4
176
     1
 62
     7
176
     1
 62
   257
176
     1
 90
        1
176
     1
 90
        1
176
     1
 40
1.0
176
     1
 90
        0
176
     1
 62
   257
176
     1
 40
1.0
176
     1
 90
        1
176
     1
 90
        6
176
     1
 90
        2
176
     1
 62
     7
176
     1
 90
        5
176
     1
 90
        0
176
     1
 90
        0
176
     1
290
     0
176
     1
 90
        1
176
     1
 40
0.0
176
     1
 90
        0
176
     1
290
     1
176
     1
290
     1
176
     1
290
     0
176
     1
290
     0
176
     1
290
     0
176
     1
290
     0
176
     1
290
     0
176
     1
290
     0
176
     1
290
     0
176
     1
 90
       50
176
     1
 40
0.0
176
     1
 40
1.0
176
     1
 90
        0
176
     1
 62
    18
420
        0
176
     1
 90
       50
176
     1
 90
        3
176
     1
 62
     5
420
      255
176
     1
290
     0
176
     1
 90
       50
176
     1
 90
       50
176
     1
 90
       50
176
     1
290
     0
176
     1
 90
       50
176
     1
 62
   256
176
     0
 40
1.0
176
     0
 90
        2
176
     1
  1
strokes_ogs.tif
176
     1
290
     0
176
     1
 40
1.0
176
     1
 40
1.0
176
     1
  0
VISUALSTYLE
  5
32
102
{ACAD_REACTORS
330
2A
102
}
330
2A
100
AcDbVisualStyle
  2
Basic
 70
     7
177
     3
291
     1
 70
    58
 90
        1
176
     1
 90
        0
176
     1
 90
        1
176
     1
 90
        0
176
     1
 40
0.6
176
     1
 40
30.0
176
     1
 62
     7
420
 16777215
176
     1
 90
        0
176
     1
 90
        4
176
     1
 62
     7
176
     1
 62
   257
176
     1
 90
        1
176
     1
 90
        1
176
     1
 40
1.0
176
     1
 90
        8
176
     1
 62
     7
176
     1
 40
1.0
176
     1
 90
        1
176
     1
 90
        6
176
     1
 90
        2
176
     1
 62
     7
176
     1
 90
        5
176
     1
 90
        0
176
     1
 90
        0
176
     1
290
     0
176
     1
 90
        1
176
     1
 40
0.0
176
     1
 90
        0
176
     1
290
     0
176
     1
290
     1
176
     1
290
     1
176
     1
290
     0
176
     1
290
     0
176
     1
290
     0
176
     1
290
     0
176
     1
290
     0
176
     1
290
     0
176
     1
 90
       50
176
     1
 40
0.0
176
     1
 40
1.0
176
     1
 90
        0
176
     1
 62
    18
420
        0
176
     1
 90
       50
176
     1
 90
        3
176
     1
 62
     5
420
      255
176
     1
290
     0
176
     1
 90
       50
176
     1
 90
       50
176
     1
 90
       50
176
     1
290
     0
176
     1
 90
       50
176
     1
 62
   256
176
     0
 40
1.0
176
     0
 90
        2
176
     1
  1
strokes_ogs.tif
176
     1
290
     0
176
     1
 40
1.0
176
     1
 40
1.0
176
     1
  0
VISUALSTYLE
  5
36
102
{ACAD_REACTORS
330
2A
102
}
330
2A
100
AcDbVisualStyle
  2
Brighten
 70
    12
177
     3
291
     1
 70
    58
 90
        2
176
     1
 90
        2
176
     1
 90
        0
176
     1
 90
        0
176
     1
 40
0.6
176
     1
 40
30.0
176
     1
 62
     7
420
 16777215
176
     1
 90
        1
176
     1
 90
        4
176
     1
 62
     7
176
     1
 62
   257
176
     1
 90
        1
176
     1
 90
        1
176
     1
 40
1.0
176
     1
 90
        8
176
     1
 62
     7
176
     1
 40
1.0
176
     1
 90
        1
176
     1
 90
        6
176
     1
 90
        2
176
     1
 62
     7
176
     1
 90
        5
176
     1
 90
        0
176
     1
 90
        0
176
     1
290
     0
176
     1
 90
        1
176
     1
 40
50.0
176
     1
 90
        0
176
     1
290
     0
176
     1
290
     1
176
     1
290
     1
176
     1
290
     0
176
     1
290
     0
176
     1
290
     0
176
     1
290
     0
176
     1
290
     0
176
     1
290
     0
176
     1
 90
       50
176
     1
 40
0.0
176
     1
 40
1.0
176
     1
 90
        0
176
     1
 62
    18
420
        0
176
     1
 90
       50
176
     1
 90
        3
176
     1
 62
     5
420
      255
176
     1
290
     0
176
     1
 90
       50
176
     1
 90
       50
176
     1
 90
       50
176
     1
290
     0
176
     1
 90
       50
176
     1
 62
   256
176
     0
 40
1.0
176
     0
 90
        2
176
     1
  1
strokes_ogs.tif
176
     1
290
     0
176
     1
 40
1.0
176
     1
 40
1.0
176
     1
  0
VISUALSTYLE
  5
3A
102
{ACAD_REACTORS
330
2A
102
}
330
2A
100
AcDbVisualStyle
  2
ColorChange
 70
    16
177
     3
291
     1
 70
    58
 90
        2
176
     1
 90
        2
176
     1
 90
        3
176
     1
 90
        0
176
     1
 40
0.6
176
     1
 40
30.0
176
     1
 62
     8
420
  8421504
176
     1
 90
        1
176
     1
 90
        4
176
     1
 62
     7
176
     1
 62
   257
176
     1
 90
        1
176
     1
 90
        1
176
     1
 40
1.0
176
     1
 90
        8
176
     1
 62
     8
420
  8421504
176
     1
 40
1.0
176
     1
 90
        1
176
     1
 90
        6
176
     1
 90
        2
176
     1
 62
     7
176
     1
 90
        5
176
     1
 90
        0
176
     1
 90
        0
176
     1
290
     0
176
     1
 90
        1
176
     1
 40
0.0
176
     1
 90
        0
176
     1
290
     0
176
     1
290
     1
176
     1
290
     1
176
     1
290
     0
176
     1
290
     0
176
     1
290
     0
176
     1
290
     0
176
     1
290
     0
176
     1
290
     0
176
     1
 90
       50
176
     1
 40
0.0
176
     1
 40
1.0
176
     1
 90
        0
176
     1
 62
    18
420
        0
176
     1
 90
       50
176
     1
 90
        3
176
     1
 62
     5
420
      255
176
     1
290
     0
176
     1
 90
       50
176
     1
 90
       50
176
     1
 90
       50
176
     1
290
     0
176
     1
 90
       50
176
     1
 62
   256
176
     0
 40
1.0
176
     0
 90
        2
176
     1
  1
strokes_ogs.tif
176
     1
290
     0
176
     1
 40
1.0
176
     1
 40
1.0
176
     1
  0
VISUALSTYLE
  5
34
102
{ACAD_REACTORS
330
2A
102
}
330
2A
100
AcDbVisualStyle
  2
Conceptual
 70
     9
177
     3
291
     0
 70
    58
 90
        3
176
     1
 90
        2
176
     1
 90
        0
176
     1
 90
        0
176
     1
 40
0.6
176
     1
 40
30.0
176
     1
 62
     7
420
 16777215
176
     1
 90
        2
176
     1
 90
        2
176
     1
 62
     7
176
     1
 62
   257
176
     1
 90
        1
176
     1
 90
        1
176
     1
 40
179.0
176
     1
 90
        8
176
     1
 62
     7
176
     1
 40
1.0
176
     1
 90
        1
176
     1
 90
        6
176
     1
 90
        2
176
     1
 62
     7
176
     1
 90
        3
176
     1
 90
        0
176
     1
 90
        0
176
     1
290
     0
176
     1
 90
        1
176
     1
 40
0.0
176
     1
 90
        0
176
     1
290
     0
176
     1
290
     1
176
     1
290
     1
176
     1
290
     0
176
     1
290
     0
176
     1
290
     0
176
     1
290
     0
176
     1
290
     0
176
     1
290
     0
176
     1
 90
       50
176
     1
 40
0.0
176
     1
 40
1.0
176
     1
 90
        0
176
     1
 62
    18
420
        0
176
     1
 90
       50
176
     1
 90
        3
176
     1
 62
     5
420
      255
176
     1
290
     0
176
     1
 90
       50
176
     1
 90
       50
176
     1
 90
       50
176
     1
290
     0
176
     1
 90
       50
176
     1
 62
   256
176
     0
 40
1.0
176
     0
 90
        2
176
     1
  1
strokes_ogs.tif
176
     1
290
     0
176
     1
 40
1.0
176
     1
 40
1.0
176
     1
  0
VISUALSTYLE
  5
35
102
{ACAD_REACTORS
330
2A
102
}
330
2A
100
AcDbVisualStyle
  2
Dim
 70
    11
177
     3
291
     1
 70
    58
 90
        2
176
     1
 90
        2
176
     1
 90
        0
176
     1
 90
        0
176
     1
 40
0.6
176
     1
 40
30.0
176
     1
 62
     7
420
 16777215
176
     1
 90
        1
176
     1
 90
        4
176
     1
 62
     7
176
     1
 62
   257
176
     1
 90
        1
176
     1
 90
        1
176
     1
 40
1.0
176
     1
 90
        8
176
     1
 62
     7
176
     1
 40
1.0
176
     1
 90
        1
176
     1
 90
        6
176
     1
 90
        2
176
     1
 62
     7
176
     1
 90
        5
176
     1
 90
        0
176
     1
 90
        0
176
     1
290
     0
176
     1
 90
        1
176
     1
 40
-50.0
176
     1
 90
        0
176
     1
290
     0
176
     1
290
     1
176
     1
290
     1
176
     1
290
     0
176
     1
290
     0
176
     1
290
     0
176
     1
290
     0
176
     1
290
     0
176
     1
290
     0
176
     1
 90
       50
176
     1
 40
0.0
176
     1
 40
1.0
176
     1
 90
        0
176
     1
 62
    18
420
        0
176
     1
 90
       50
176
     1
 90
        3
176
     1
 62
     5
420
      255
176
     1
290
     0
176
     1
 90
       50
176
     1
 90
       50
176
     1
 90
       50
176
     1
290
     0
176
     1
 90
       50
176
     1
 62
   256
176
     0
 40
1.0
176
     0
 90
        2
176
     1
  1
strokes_ogs.tif
176
     1
290
     0
176
     1
 40
1.0
176
     1
 40
1.0
176
     1
  0
VISUALSTYLE
  5
3D
102
{ACAD_REACTORS
330
2A
102
}
330
2A
100
AcDbVisualStyle
  2
EdgeColorOff
 70
    22
177
     3
291
     1
 70
    58
 90
        2
176
     0
 90
        2
176
     0
 90
        0
176
     0
 90
        0
176
     0
 40
0.6
176
     0
 40
30.0
176
     0
 62
     7
420
 16777215
176
     0
 90
        1
176
     0
 90
        4
176
     0
 62
     7
176
     0
 62
   257
176
     0
 90
        1
176
     0
 90
        1
176
     0
 40
1.0
176
     0
 90
        8
176
     2
 62
     7
176
     0
 40
1.0
176
     0
 90
        1
176
     0
 90
        6
176
     0
 90
        2
176
     0
 62
     7
176
     0
 90
        5
176
     0
 90
        0
176
     0
 90
        0
176
     0
290
     0
176
     0
 90
        1
176
     0
 40
0.0
176
     0
 90
        0
176
     0
290
     0
176
     0
290
     1
176
     0
290
     1
176
     0
290
     0
176
     0
290
     0
176
     0
290
     0
176
     0
290
     0
176
     0
290
     0
176
     0
290
     0
176
     0
 90
       50
176
     0
 40
0.0
176
     0
 40
1.0
176
     0
 90
        0
176
     0
 62
    18
420
        0
176
     0
 90
       50
176
     0
 90
        3
176
     0
 62
     5
420
      255
176
     0
290
     0
176
     0
 90
       50
176
     0
 90
       50
176
     0
 90
       50
176
     0
290
     0
176
     0
 90
       50
176
     0
 62
   256
176
     0
 40
1.0
176
     0
 90
        2
176
     0
  1
strokes_ogs.tif
176
     0
290
     0
176
     0
 40
1.0
176
     0
 40
1.0
176
     0
  0
VISUALSTYLE
  5
39
102
{ACAD_REACTORS
330
2A
102
}
330
2A
100
AcDbVisualStyle
  2
Facepattern
 70
    15
177
     3
291
     1
 70
    58
 90
        2
176
     1
 90
        2
176
     1
 90
        0
176
     1
 90
        0
176
     1
 40
0.6
176
     1
 40
30.0
176
     1
 62
     7
420
 16777215
176
     1
 90
        1
176
     1
 90
        4
176
     1
 62
     7
176
     1
 62
   257
176
     1
 90
        1
176
     1
 90
        1
176
     1
 40
1.0
176
     1
 90
        8
176
     1
 62
     7
176
     1
 40
1.0
176
     1
 90
        1
176
     1
 90
        6
176
     1
 90
        2
176
     1
 62
     7
176
     1
 90
        5
176
     1
 90
        0
176
     1
 90
        0
176
     1
290
     0
176
     1
 90
        1
176
     1
 40
0.0
176
     1
 90
        0
176
     1
290
     0
176
     1
290
     1
176
     1
290
     1
176
     1
290
     0
176
     1
290
     0
176
     1
290
     0
176
     1
290
     0
176
     1
290
     0
176
     1
290
     0
176
     1
 90
       50
176
     1
 40
0.0
176
     1
 40
1.0
176
     1
 90
        0
176
     1
 62
    18
420
        0
176
     1
 90
       50
176
     1
 90
        3
176
     1
 62
     5
420
      255
176
     1
290
     0
176
     1
 90
       50
176
     1
 90
       50
176
     1
 90
       50
176
     1
290
     0
176
     1
 90
       50
176
     1
 62
   256
176
     0
 40
1.0
176
     0
 90
        2
176
     1
  1
strokes_ogs.tif
176
     1
290
     0
176
     1
 40
1.0
176
     1
 40
1.0
176
     1
  0
VISUALSTYLE
  5
2B
102
{ACAD_REACTORS
330
2A
102
}
330
2A
100
AcDbVisualStyle
  2
Flat
 70
     0
177
     3
291
     1
 70
    58
 90
        2
176
     1
 90
        1
176
     1
 90
        1
176
     1
 90
        2
176
     1
 40
0.6
176
     1
 40
30.0
176
     1
 62
     7
420
 16777215
176
     1
 90
        0
176
     1
 90
        0
176
     1
 62
     7
176
     1
 62
   257
176
     1
 90
        1
176
     1
 90
        1
176
     1
 40
1.0
176
     1
 90
        8
176
     1
 62
     7
176
     1
 40
1.0
176
     1
 90
        1
176
     1
 90
        6
176
     1
 90
        2
176
     1
 62
     7
176
     1
 90
        5
176
     1
 90
        0
176
     1
 90
        0
176
     1
290
     0
176
     1
 90
       13
176
     1
 40
0.0
176
     1
 90
        0
176
     1
290
     0
176
     1
290
     1
176
     1
290
     1
176
     1
290
     0
176
     1
290
     0
176
     1
290
     0
176
     1
290
     0
176
     1
290
     0
176
     1
290
     0
176
     1
 90
       50
176
     1
 40
0.0
176
     1
 40
1.0
176
     1
 90
        0
176
     1
 62
    18
420
        0
176
     1
 90
       50
176
     1
 90
        3
176
     1
 62
     5
420
      255
176
     1
290
     0
176
     1
 90
       50
176
     1
 90
       50
176
     1
 90
       50
176
     1
290
     0
176
     1
 90
       50
176
     1
 62
   256
176
     0
 40
1.0
176
     0
 90
        2
176
     1
  1
strokes_ogs.tif
176
     1
290
     0
176
     1
 40
1.0
176
     1
 40
1.0
176
     1
  0
VISUALSTYLE
  5
2C
102
{ACAD_REACTORS
330
2A
102
}
330
2A
100
AcDbVisualStyle
  2
FlatWithEdges
 70
     1
177
     3
291
     1
 70
    58
 90
        2
176
     1
 90
        1
176
     1
 90
        1
176
     1
 90
        2
176
     1
 40
0.6
176
     1
 40
30.0
176
     1
 62
     7
420
 16777215
176
     1
 90
        1
176
     1
 90
        0
176
     1
 62
     7
176
     1
 62
   257
176
     1
 90
        1
176
     1
 90
        1
176
     1
 40
1.0
176
     1
 90
        0
176
     1
 62
   257
176
     1
 40
1.0
176
     1
 90
        1
176
     1
 90
        6
176
     1
 90
        2
176
     1
 62
     7
176
     1
 90
        5
176
     1
 90
        0
176
     1
 90
        0
176
     1
290
     0
176
     1
 90
       13
176
     1
 40
0.0
176
     1
 90
        0
176
     1
290
     0
176
     1
290
     1
176
     1
290
     1
176
     1
290
     0
176
     1
290
     0
176
     1
290
     0
176
     1
290
     0
176
     1
290
     0
176
     1
290
     0
176
     1
 90
       50
176
     1
 40
0.0
176
     1
 40
1.0
176
     1
 90
        0
176
     1
 62
    18
420
        0
176
     1
 90
       50
176
     1
 90
        3
176
     1
 62
     5
420
      255
176
     1
290
     0
176
     1
 90
       50
176
     1
 90
       50
176
     1
 90
       50
176
     1
290
     0
176
     1
 90
       50
176
     1
 62
   256
176
     0
 40
1.0
176
     0
 90
        2
176
     1
  1
strokes_ogs.tif
176
     1
290
     0
176
     1
 40
1.0
176
     1
 40
1.0
176
     1
  0
VISUALSTYLE
  5
2D
102
{ACAD_REACTORS
330
2A
102
}
330
2A
100
AcDbVisualStyle
  2
Gouraud
 70
     2
177
     3
291
     1
 70
    58
 90
        2
176
     1
 90
        2
176
     1
 90
        1
176
     1
 90
        2
176
     1
 40
0.6
176
     1
 40
30.0
176
     1
 62
     7
420
 16777215
176
     1
 90
        0
176
     1
 90
        0
176
     1
 62
     7
176
     1
 62
   257
176
     1
 90
        1
176
     1
 90
        1
176
     1
 40
1.0
176
     1
 90
        0
176
     1
 62
     7
176
     1
 40
1.0
176
     1
 90
        1
176
     1
 90
        6
176
     1
 90
        2
176
     1
 62
     7
176
     1
 90
        5
176
     1
 90
        0
176
     1
 90
        0
176
     1
290
     0
176
     1
 90
       13
176
     1
 40
0.0
176
     1
 90
        0
176
     1
290
     0
176
     1
290
     1
176
     1
290
     1
176
     1
290
     0
176
     1
290
     0
176
     1
290
     0
176
     1
290
     0
176
     1
290
     0
176
     1
290
     0
176
     1
 90
       50
176
     1
 40
0.0
176
     1
 40
1.0
176
     1
 90
        0
176
     1
 62
    18
420
        0
176
     1
 90
       50
176
     1
 90
        3
176
     1
 62
     5
420
      255
176
     1
290
     0
176
     1
 90
       50
176
     1
 90
       50
176
     1
 90
       50
176
     1
290
     0
176
     1
 90
       50
176
     1
 62
   256
176
     0
 40
1.0
176
     0
 90
        2
176
     1
  1
strokes_ogs.tif
176
     1
290
     0
176
     1
 40
1.0
176
     1
 40
1.0
176
     1
  0
VISUALSTYLE
  5
2E
102
{ACAD_REACTORS
330
2A
102
}
330
2A
100
AcDbVisualStyle
  2
GouraudWithEdges
 70
     3
177
     3
291
     1
 70
    58
 90
        2
176
     1
 90
        2
176
     1
 90
        1
176
     1
 90
        2
176
     1
 40
0.6
176
     1
 40
30.0
176
     1
 62
     7
420
 16777215
176
     1
 90
        1
176
     1
 90
        0
176
     1
 62
     7
176
     1
 62
   257
176
     1
 90
        1
176
     1
 90
        1
176
     1
 40
1.0
176
     1
 90
        0
176
     1
 62
   257
176
     1
 40
1.0
176
     1
 90
        1
176
     1
 90
        6
176
     1
 90
        2
176
     1
 62
     7
176
     1
 90
        5
176
     1
 90
        0
176
     1
 90
        0
176
     1
290
     0
176
     1
 90
       13
176
     1
 40
0.0
176
     1
 90
        0
176
     1
290
     0
176
     1
290
     1
176
     1
290
     1
176
     1
290
     0
176
     1
290
     0
176
     1
290
     0
176
     1
290
     0
176
     1
290
     0
176
     1
290
     0
176
     1
 90
       50
176
     1
 40
0.0
176
     1
 40
1.0
176
     1
 90
        0
176
     1
 62
    18
420
        0
176
     1
 90
       50
176
     1
 90
        3
176
     1
 62
     5
420
      255
176
     1
290
     0
176
     1
 90
       50
176
     1
 90
       50
176
     1
 90
       50
176
     1
290
     0
176
     1
 90
       50
176
     1
 62
   256
176
     0
 40
1.0
176
     0
 90
        2
176
     1
  1
strokes_ogs.tif
176
     1
290
     0
176
     1
 40
1.0
176
     1
 40
1.0
176
     1
  0
VISUALSTYLE
  5
31
102
{ACAD_REACTORS
330
2A
102
}
330
2A
100
AcDbVisualStyle
  2
Hidden
 70
     6
177
     3
291
     0
 70
    58
 90
        1
176
     1
 90
        2
176
     1
 90
        2
176
     1
 90
        0
176
     1
 40
0.6
176
     1
 40
30.0
176
     1
 62
     7
420
 16777215
176
     1
 90
        2
176
     1
 90
        2
176
     1
 62
     7
176
     1
 62
   257
176
     1
 90
        2
176
     1
 90
        1
176
     1
 40
40.0
176
     1
 90
        0
176
     1
 62
   257
176
     1
 40
1.0
176
     1
 90
        1
176
     1
 90
        6
176
     1
 90
        2
176
     1
 62
     7
176
     1
 90
        3
176
     1
 90
        0
176
     1
 90
        0
176
     1
290
     0
176
     1
 90
        1
176
     1
 40
0.0
176
     1
 90
        0
176
     1
290
     0
176
     1
290
     1
176
     1
290
     1
176
     1
290
     0
176
     1
290
     0
176
     1
290
     0
176
     1
290
     0
176
     1
290
     0
176
     1
290
     0
176
     1
 90
       50
176
     1
 40
0.0
176
     1
 40
1.0
176
     1
 90
        0
176
     1
 62
    18
420
        0
176
     1
 90
       50
176
     1
 90
        3
176
     1
 62
     5
420
      255
176
     1
290
     0
176
     1
 90
       50
176
     1
 90
       50
176
     1
 90
       50
176
     1
290
     0
176
     1
 90
       50
176
     1
 62
   256
176
     0
 40
1.0
176
     0
 90
        2
176
     1
  1
strokes_ogs.tif
176
     1
290
     0
176
     1
 40
1.0
176
     1
 40
1.0
176
     1
  0
VISUALSTYLE
  5
3B
102
{ACAD_REACTORS
330
2A
102
}
330
2A
100
AcDbVisualStyle
  2
JitterOff
 70
    20
177
     3
291
     1
 70
    58
 90
        2
176
     0
 90
        2
176
     0
 90
        0
176
     0
 90
        0
176
     0
 40
0.6
176
     0
 40
30.0
176
     0
 62
     7
420
 16777215
176
     0
 90
        1
176
     0
 90
        4
176
     0
 62
     7
176
     0
 62
   257
176
     0
 90
        1
176
     0
 90
        1
176
     0
 40
1.0
176
     0
 90
       10
176
     2
 62
     7
176
     0
 40
1.0
176
     0
 90
        1
176
     0
 90
        6
176
     0
 90
        2
176
     0
 62
     7
176
     0
 90
        5
176
     0
 90
        0
176
     0
 90
        0
176
     0
290
     0
176
     0
 90
        1
176
     0
 40
0.0
176
     0
 90
        0
176
     0
290
     0
176
     0
290
     1
176
     0
290
     1
176
     0
290
     0
176
     0
290
     0
176
     0
290
     0
176
     0
290
     0
176
     0
290
     0
176
     0
290
     0
176
     0
 90
       50
176
     0
 40
0.0
176
     0
 40
1.0
176
     0
 90
        0
176
     0
 62
    18
420
        0
176
     0
 90
       50
176
     0
 90
        3
176
     0
 62
     5
420
      255
176
     0
290
     0
176
     0
 90
       50
176
     0
 90
       50
176
     0
 90
       50
176
     0
290
     0
176
     0
 90
       50
176
     0
 62
   256
176
     0
 40
1.0
176
     0
 90
        2
176
     0
  1
strokes_ogs.tif
176
     0
290
     0
176
     0
 40
1.0
176
     0
 40
1.0
176
     0
  0
VISUALSTYLE
  5
38
102
{ACAD_REACTORS
330
2A
102
}
330
2A
100
AcDbVisualStyle
  2
Linepattern
 70
    14
177
     3
291
     1
 70
    58
 90
        2
176
     1
 90
        2
176
     1
 90
        0
176
     1
 90
        0
176
     1
 40
0.6
176
     1
 40
30.0
176
     1
 62
     7
420
 16777215
176
     1
 90
        1
176
     1
 90
        4
176
     1
 62
     7
176
     1
 62
   257
176
     1
 90
        7
176
     1
 90
        7
176
     1
 40
1.0
176
     1
 90
        8
176
     1
 62
     7
176
     1
 40
1.0
176
     1
 90
        1
176
     1
 90
        6
176
     1
 90
        2
176
     1
 62
     7
176
     1
 90
        5
176
     1
 90
        0
176
     1
 90
        0
176
     1
290
     0
176
     1
 90
        1
176
     1
 40
0.0
176
     1
 90
        0
176
     1
290
     0
176
     1
290
     1
176
     1
290
     1
176
     1
290
     0
176
     1
290
     0
176
     1
290
     0
176
     1
290
     0
176
     1
290
     0
176
     1
290
     0
176
     1
 90
       50
176
     1
 40
0.0
176
     1
 40
1.0
176
     1
 90
        0
176
     1
 62
    18
420
        0
176
     1
 90
       50
176
     1
 90
        3
176
     1
 62
     5
420
      255
176
     1
290
     0
176
     1
 90
       50
176
     1
 90
       50
176
     1
 90
       50
176
     1
290
     0
176
     1
 90
       50
176
     1
 62
   256
176
     0
 40
1.0
176
     0
 90
        2
176
     1
  1
strokes_ogs.tif
176
     1
290
     0
176
     1
 40
1.0
176
     1
 40
1.0
176
     1
  0
VISUALSTYLE
  5
3C
102
{ACAD_REACTORS
330
2A
102
}
330
2A
100
AcDbVisualStyle
  2
OverhangOff
 70
    21
177
     3
291
     1
 70
    58
 90
        2
176
     0
 90
        2
176
     0
 90
        0
176
     0
 90
        0
176
     0
 40
0.6
176
     0
 40
30.0
176
     0
 62
     7
420
 16777215
176
     0
 90
        1
176
     0
 90
        4
176
     0
 62
     7
176
     0
 62
   257
176
     0
 90
        1
176
     0
 90
        1
176
     0
 40
1.0
176
     0
 90
        9
176
     2
 62
     7
176
     0
 40
1.0
176
     0
 90
        1
176
     0
 90
        6
176
     0
 90
        2
176
     0
 62
     7
176
     0
 90
        5
176
     0
 90
        0
176
     0
 90
        0
176
     0
290
     0
176
     0
 90
        1
176
     0
 40
0.0
176
     0
 90
        0
176
     0
290
     0
176
     0
290
     1
176
     0
290
     1
176
     0
290
     0
176
     0
290
     0
176
     0
290
     0
176
     0
290
     0
176
     0
290
     0
176
     0
290
     0
176
     0
 90
       50
176
     0
 40
0.0
176
     0
 40
1.0
176
     0
 90
        0
176
     0
 62
    18
420
        0
176
     0
 90
       50
176
     0
 90
        3
176
     0
 62
     5
420
      255
176
     0
290
     0
176
     0
 90
       50
176
     0
 90
       50
176
     0
 90
       50
176
     0
290
     0
176
     0
 90
       50
176
     0
 62
   256
176
     0
 40
1.0
176
     0
 90
        2
176
     0
  1
strokes_ogs.tif
176
     0
290
     0
176
     0
 40
1.0
176
     0
 40
1.0
176
     0
  0
VISUALSTYLE
  5
33
102
{ACAD_REACTORS
330
2A
102
}
330
2A
100
AcDbVisualStyle
  2
Realistic
 70
     8
177
     3
291
     0
 70
    58
 90
        2
176
     1
 90
        3
176
     1
 90
        0
176
     1
 90
        2
176
     1
 40
0.6
176
     1
 40
30.0
176
     1
 62
     7
420
 16777215
176
     1
 90
        0
176
     1
 90
        0
176
     1
 62
     7
176
     1
 62
   257
176
     1
 90
        1
176
     1
 90
        1
176
     1
 40
1.0
176
     1
 90
        8
176
     1
 62
   257
176
     1
 40
1.0
176
     1
 90
        1
176
     1
 90
        6
176
     1
 90
        2
176
     1
 62
     7
176
     1
 90
        3
176
     1
 90
        0
176
     1
 90
        0
176
     1
290
     0
176
     1
 90
       13
176
     1
 40
0.0
176
     1
 90
        0
176
     1
290
     0
176
     1
290
     1
176
     1
290
     1
176
     1
290
     0
176
     1
290
     0
176
     1
290
     0
176
     1
290
     0
176
     1
290
     0
176
     1
290
     0
176
     1
 90
       50
176
     1
 40
0.0
176
     1
 40
1.0
176
     1
 90
        0
176
     1
 62
    18
420
        0
176
     1
 90
       50
176
     1
 90
        3
176
     1
 62
     5
420
      255
176
     1
290
     0
176
     1
 90
       50
176
     1
 90
       50
176
     1
 90
       50
176
     1
290
     0
176
     1
 90
       50
176
     1
 62
   256
176
     0
 40
1.0
176
     0
 90
        2
176
     1
  1
strokes_ogs.tif
176
     1
290
     0
176
     1
 40
1.0
176
     1
 40
1.0
176
     1
  0
VISUALSTYLE
  5
42
102
{ACAD_REACTORS
330
2A
102
}
330
2A
100
AcDbVisualStyle
  2
Shaded
 70
    27
177
     3
291
     0
 70
    58
 90
        2
176
     1
 90
        2
176
     1
 90
        1
176
     1
 90
        2
176
     1
 40
0.6
176
     1
 40
30.0
176
     1
 62
     7
420
 16777215
176
     1
 90
        0
176
     1
 90
        4
176
     1
 62
     7
176
     1
 62
   257
176
     1
 90
        1
176
     1
 90
        1
176
     1
 40
1.0
176
     1
 90
        8
176
     1
 62
   257
176
     1
 40
1.0
176
     1
 90
        1
176
     1
 90
        6
176
     1
 90
        2
176
     1
 62
     8
420
  7895160
176
     1
 90
        3
176
     1
 90
        0
176
     1
 90
        0
176
     1
290
     0
176
     1
 90
        5
176
     1
 40
0.0
176
     1
 90
        0
176
     1
290
     0
176
     1
290
     1
176
     1
290
     1
176
     1
290
     0
176
     1
290
     0
176
     1
290
     0
176
     1
290
     0
176
     1
290
     0
176
     1
290
     0
176
     1
 90
       50
176
     1
 40
0.0
176
     1
 40
1.0
176
     1
 90
        0
176
     1
 62
    18
420
        0
176
     1
 90
       50
176
     1
 90
        3
176
     1
 62
     5
420
      255
176
     1
290
     0
176
     1
 90
       50
176
     1
 90
       50
176
     1
 90
       50
176
     1
290
     0
176
     1
 90
       50
176
     1
 62
   256
176
     0
 40
1.0
176
     0
 90
        2
176
     1
  1
strokes_ogs.tif
176
     1
290
     0
176
     1
 40
1.0
176
     1
 40
1.0
176
     1
  0
VISUALSTYLE
  5
41
102
{ACAD_REACTORS
330
2A
102
}
330
2A
100
AcDbVisualStyle
  2
Shaded with edges
 70
    26
177
     3
291
     0
 70
    58
 90
        2
176
     1
 90
        2
176
     1
 90
        1
176
     1
 90
        2
176
     1
 40
0.6
176
     1
 40
30.0
176
     1
 62
     7
420
 16777215
176
     1
 90
        1
176
     1
 90
       10
176
     1
 62
     7
176
     1
 62
   257
176
     1
 90
        2
176
     1
 90
        1
176
     1
 40
1.0
176
     1
 90
        8
176
     1
 62
   257
176
     1
 40
1.0
176
     1
 90
        1
176
     1
 90
        6
176
     1
 90
        2
176
     1
 62
     7
176
     1
 90
        3
176
     1
 90
        0
176
     1
 90
        0
176
     1
290
     0
176
     1
 90
        5
176
     1
 40
0.0
176
     1
 90
        0
176
     1
290
     0
176
     1
290
     1
176
     1
290
     1
176
     1
290
     0
176
     1
290
     0
176
     1
290
     0
176
     1
290
     0
176
     1
290
     0
176
     1
290
     0
176
     1
 90
       50
176
     1
 40
0.0
176
     1
 40
1.0
176
     1
 90
        0
176
     1
 62
    18
420
        0
176
     1
 90
       50
176
     1
 90
        3
176
     1
 62
     5
420
      255
176
     1
290
     0
176
     1
 90
       50
176
     1
 90
       50
176
     1
 90
       50
176
     1
290
     0
176
     1
 90
       50
176
     1
 62
   256
176
     0
 40
1.0
176
     0
 90
        2
176
     1
  1
strokes_ogs.tif
176
     1
290
     0
176
     1
 40
1.0
176
     1
 40
1.0
176
     1
  0
VISUALSTYLE
  5
3E
102
{ACAD_REACTORS
330
2A
102
}
330
2A
100
AcDbVisualStyle
  2
Shades of Gray
 70
    23
177
     3
291
     0
 70
    58
 90
        2
176
     1
 90
        2
176
     1
 90
        3
176
     1
 90
        0
176
     1
 40
0.6
176
     1
 40
30.0
176
     1
 62
     7
420
 16777215
176
     1
 90
        2
176
     1
 90
        2
176
     1
 62
     7
176
     1
 62
     7
176
     1
 90
        1
176
     1
 90
        1
176
     1
 40
40.0
176
     1
 90
        8
176
     1
 62
     7
176
     1
 40
1.0
176
     1
 90
        1
176
     1
 90
        6
176
     1
 90
        2
176
     1
 62
     7
176
     1
 90
        3
176
     1
 90
        0
176
     1
 90
        0
176
     1
290
     0
176
     1
 90
        1
176
     1
 40
0.0
176
     1
 90
        0
176
     1
290
     0
176
     1
290
     1
176
     1
290
     1
176
     1
290
     0
176
     1
290
     0
176
     1
290
     0
176
     1
290
     0
176
     1
290
     0
176
     1
290
     0
176
     1
 90
       50
176
     1
 40
0.0
176
     1
 40
1.0
176
     1
 90
        0
176
     1
 62
    18
420
        0
176
     1
 90
       50
176
     1
 90
        3
176
     1
 62
     5
420
      255
176
     1
290
     0
176
     1
 90
       50
176
     1
 90
       50
176
     1
 90
       50
176
     1
290
     0
176
     1
 90
       50
176
     1
 62
   256
176
     0
 40
1.0
176
     0
 90
        2
176
     1
  1
strokes_ogs.tif
176
     1
290
     0
176
     1
 40
1.0
176
     1
 40
1.0
176
     1
  0
VISUALSTYLE
  5
3F
102
{ACAD_REACTORS
330
2A
102
}
330
2A
100
AcDbVisualStyle
  2
Sketchy
 70
    24
177
     3
291
     0
 70
    58
 90
        1
176
     1
 90
        2
176
     1
 90
        2
176
     1
 90
        0
176
     1
 40
0.6
176
     1
 40
30.0
176
     1
 62
     7
420
 16777215
176
     1
 90
        2
176
     1
 90
        2
176
     1
 62
     7
176
     1
 62
     7
176
     1
 90
        1
176
     1
 90
        1
176
     1
 40
40.0
176
     1
 90
       11
176
     1
 62
     7
176
     1
 40
1.0
176
     1
 90
        1
176
     1
 90
        6
176
     1
 90
        2
176
     1
 62
     7
176
     1
 90
        6
176
     1
 90
        0
176
     1
 90
        0
176
     1
290
     0
176
     1
 90
        1
176
     1
 40
0.0
176
     1
 90
        0
176
     1
290
     0
176
     1
290
     1
176
     1
290
     1
176
     1
290
     0
176
     1
290
     0
176
     1
290
     0
176
     1
290
     0
176
     1
290
     0
176
     1
290
     0
176
     1
 90
       50
176
     1
 40
0.0
176
     1
 40
1.0
176
     1
 90
        0
176
     1
 62
    18
420
        0
176
     1
 90
       50
176
     1
 90
        3
176
     1
 62
     5
420
      255
176
     1
290
     0
176
     1
 90
       50
176
     1
 90
       50
176
     1
 90
       50
176
     1
290
     0
176
     1
 90
       50
176
     1
 62
   256
176
     0
 40
1.0
176
     0
 90
        2
176
     1
  1
strokes_ogs.tif
176
     1
290
     0
176
     1
 40
1.0
176
     1
 40
1.0
176
     1
  0
VISUALSTYLE
  5
37
102
{ACAD_REACTORS
330
2A
102
}
330
2A
100
AcDbVisualStyle
  2
Thicken
 70
    13
177
     3
291
     1
 70
    58
 90
        2
176
     1
 90
        2
176
     1
 90
        0
176
     1
 90
        0
176
     1
 40
0.6
176
     1
 40
30.0
176
     1
 62
     7
420
 16777215
176
     1
 90
        1
176
     1
 90
        4
176
     1
 62
     7
176
     1
 62
   257
176
     1
 90
        1
176
     1
 90
        1
176
     1
 40
1.0
176
     1
 90
       12
176
     1
 62
     7
176
     1
 40
1.0
176
     1
 90
        1
176
     1
 90
        6
176
     1
 90
        2
176
     1
 62
     7
176
     1
 90
        5
176
     1
 90
        0
176
     1
 90
        0
176
     1
290
     0
176
     1
 90
        1
176
     1
 40
0.0
176
     1
 90
        0
176
     1
290
     0
176
     1
290
     1
176
     1
290
     1
176
     1
290
     0
176
     1
290
     0
176
     1
290
     0
176
     1
290
     0
176
     1
290
     0
176
     1
290
     0
176
     1
 90
       50
176
     1
 40
0.0
176
     1
 40
1.0
176
     1
 90
        0
176
     1
 62
    18
420
        0
176
     1
 90
       50
176
     1
 90
        3
176
     1
 62
     5
420
      255
176
     1
290
     0
176
     1
 90
       50
176
     1
 90
       50
176
     1
 90
       50
176
     1
290
     0
176
     1
 90
       50
176
     1
 62
   256
176
     0
 40
1.0
176
     0
 90
        2
176
     1
  1
strokes_ogs.tif
176
     1
290
     0
176
     1
 40
1.0
176
     1
 40
1.0
176
     1
  0
VISUALSTYLE
  5
30
102
{ACAD_REACTORS
330
2A
102
}
330
2A
100
AcDbVisualStyle
  2
Wireframe
 70
     5
177
     3
291
     0
 70
    58
 90
        0
176
     1
 90
        2
176
     1
 90
        0
176
     1
 90
        0
176
     1
 40
0.6
176
     1
 40
30.0
176
     1
 62
     7
420
 16777215
176
     1
 90
        1
176
     1
 90
        4
176
     1
 62
     7
176
     1
 62
   257
176
     1
 90
        1
176
     1
 90
        1
176
     1
 40
1.0
176
     1
 90
        0
176
     1
 62
   257
176
     1
 40
1.0
176
     1
 90
        1
176
     1
 90
        6
176
     1
 90
        2
176
     1
 62
     7
176
     1
 90
        3
176
     1
 90
        0
176
     1
 90
        0
176
     1
290
     0
176
     1
 90
        1
176
     1
 40
0.0
176
     1
 90
        0
176
     1
290
     0
176
     1
290
     1
176
     1
290
     1
176
     1
290
     0
176
     1
290
     0
176
     1
290
     0
176
     1
290
     0
176
     1
290
     0
176
     1
290
     0
176
     1
 90
       50
176
     1
 40
0.0
176
     1
 40
1.0
176
     1
 90
        0
176
     1
 62
    18
420
        0
176
     1
 90
       50
176
     1
 90
        3
176
     1
 62
     5
420
      255
176
     1
290
     0
176
     1
 90
       50
176
     1
 90
       50
176
     1
 90
       50
176
     1
290
     0
176
     1
 90
       50
176
     1
 62
   256
176
     0
 40
1.0
176
     0
 90
        2
176
     1
  1
strokes_ogs.tif
176
     1
290
     0
176
     1
 40
1.0
176
     1
 40
1.0
176
     1
  0
VISUALSTYLE
  5
40
102
{ACAD_REACTORS
330
2A
102
}
330
2A
100
AcDbVisualStyle
  2
X-Ray
 70
    25
177
     3
291
     0
 70
    58
 90
        2
176
     1
 90
        2
176
     1
 90
        1
176
     1
 90
        1
176
     1
 40
0.5
176
     1
 40
30.0
176
     1
 62
     7
420
 16777215
176
     1
 90
        1
176
     1
 90
        0
176
     1
 62
     7
176
     1
 62
   257
176
     1
 90
        1
176
     1
 90
        1
176
     1
 40
1.0
176
     1
 90
        8
176
     1
 62
     7
176
     1
 40
1.0
176
     1
 90
        1
176
     1
 90
        6
176
     1
 90
        2
176
     1
 62
     7
176
     1
 90
        3
176
     1
 90
        0
176
     1
 90
        0
176
     1
290
     0
176
     1
 90
       13
176
     1
 40
0.0
176
     1
 90
        0
176
     1
290
     0
176
     1
290
     1
176
     1
290
     1
176
     1
290
     0
176
     1
290
     0
176
     1
290
     0
176
     1
290
     0
176
     1
290
     0
176
     1
290
     0
176
     1
 90
       50
176
     1
 40
0.0
176
     1
 40
1.0
176
     1
 90
        0
176
     1
 62
    18
420
        0
176
     1
 90
       50
176
     1
 90
        3
176
     1
 62
     5
420
      255
176
     1
290
     0
176
     1
 90
       50
176
     1
 90
       50
176
     1
 90
       50
176
     1
290
     0
176
     1
 90
       50
176
     1
 62
   256
176
     0
 40
1.0
176
     0
 90
        2
176
     1
  1
strokes_ogs.tif
176
     1
290
     0
176
     1
 40
1.0
176
     1
 40
1.0
176
     1
  0
DICTIONARYVAR
  5
119
102
{ACAD_REACTORS
330
118
102
}
330
118
100
DictionaryVariables
280
     0
  1
1:1
  0
DICTIONARYVAR
  5
121
102
{ACAD_REACTORS
330
118
102
}
330
118
100
DictionaryVariables
280
     0
  1
3.500000
  0
DICTIONARYVAR
  5
122
102
{ACAD_REACTORS
330
118
102
}
330
118
100
DictionaryVariables
280
     0
  1
acadiso.lin
  0
DICTIONARYVAR
  5
11E
102
{ACAD_REACTORS
330
118
102
}
330
118
100
DictionaryVariables
280
     0
  1
Standard
  0
DICTIONARYVAR
  5
11D
102
{ACAD_REACTORS
330
118
102
}
330
118
100
DictionaryVariables
280
     0
  1
Standard
  0
DICTIONARY
  5
11A
330
5A
100
AcDbDictionary
280
     1
281
     1
  3
ACAD_ROUNDTRIP_2008_TABLESTYLE_CELLSTYLEMAP
360
11B
  0
CELLSTYLEMAP
  5
11B
102
{ACAD_REACTORS
330
11A
102
}
330
11A
100
AcDbCellStyleMap
 90
        3
300
CELLSTYLE
  1
TABLEFORMAT_BEGIN
 90
        5
170
     1
 91
        0
 92
    32768
 62
   257
 93
        1
300
CONTENTFORMAT
  1
CONTENTFORMAT_BEGIN
 90
        0
 91
        0
 92
        4
 93
        0
300

 40
0.0
140
1.0
 94
        5
 62
     0
340
11
144
6.0
309
CONTENTFORMAT_END
171
     1
301
MARGIN
  1
CELLMARGIN_BEGIN
 40
1.5
 40
1.5
 40
1.5
 40
1.5
 40
1.5
 40
1.5
309
CELLMARGIN_END
 94
        6
 95
        1
302
GRIDFORMAT
  1
GRIDFORMAT_BEGIN
 90
        0
 91
        1
 62
     0
 92
       -2
340
14
 93
        0
 40
0.045
309
GRIDFORMAT_END
 95
        2
302
GRIDFORMAT
  1
GRIDFORMAT_BEGIN
 90
        0
 91
        1
 62
     0
 92
       -2
340
14
 93
        0
 40
0.045
309
GRIDFORMAT_END
 95
        4
302
GRIDFORMAT
  1
GRIDFORMAT_BEGIN
 90
        0
 91
        1
 62
     0
 92
       -2
340
14
 93
        0
 40
0.045
309
GRIDFORMAT_END
 95
        8
302
GRIDFORMAT
  1
GRIDFORMAT_BEGIN
 90
        0
 91
        1
 62
     0
 92
       -2
340
14
 93
        0
 40
0.045
309
GRIDFORMAT_END
 95
       16
302
GRIDFORMAT
  1
GRIDFORMAT_BEGIN
 90
        0
 91
        1
 62
     0
 92
       -2
340
14
 93
        0
 40
0.045
309
GRIDFORMAT_END
 95
       32
302
GRIDFORMAT
  1
GRIDFORMAT_BEGIN
 90
        0
 91
        1
 62
     0
 92
       -2
340
14
 93
        0
 40
0.045
309
GRIDFORMAT_END
309
TABLEFORMAT_END
  1
CELLSTYLE_BEGIN
 90
        1
 91
        1
300
_TITLE
309
CELLSTYLE_END
300
CELLSTYLE
  1
TABLEFORMAT_BEGIN
 90
        5
170
     1
 91
        0
 92
        0
 62
   257
 93
        1
300
CONTENTFORMAT
  1
CONTENTFORMAT_BEGIN
 90
        0
 91
        0
 92
        4
 93
        0
300

 40
0.0
140
1.0
 94
        5
 62
     0
340
11
144
4.5
309
CONTENTFORMAT_END
171
     1
301
MARGIN
  1
CELLMARGIN_BEGIN
 40
1.5
 40
1.5
 40
1.5
 40
1.5
 40
1.5
 40
1.5
309
CELLMARGIN_END
 94
        6
 95
        1
302
GRIDFORMAT
  1
GRIDFORMAT_BEGIN
 90
        0
 91
        1
 62
     0
 92
       -2
340
14
 93
        0
 40
0.045
309
GRIDFORMAT_END
 95
        2
302
GRIDFORMAT
  1
GRIDFORMAT_BEGIN
 90
        0
 91
        1
 62
     0
 92
       -2
340
14
 93
        0
 40
0.045
309
GRIDFORMAT_END
 95
        4
302
GRIDFORMAT
  1
GRIDFORMAT_BEGIN
 90
        0
 91
        1
 62
     0
 92
       -2
340
14
 93
        0
 40
0.045
309
GRIDFORMAT_END
 95
        8
302
GRIDFORMAT
  1
GRIDFORMAT_BEGIN
 90
        0
 91
        1
 62
     0
 92
       -2
340
14
 93
        0
 40
0.045
309
GRIDFORMAT_END
 95
       16
302
GRIDFORMAT
  1
GRIDFORMAT_BEGIN
 90
        0
 91
        1
 62
     0
 92
       -2
340
14
 93
        0
 40
0.045
309
GRIDFORMAT_END
 95
       32
302
GRIDFORMAT
  1
GRIDFORMAT_BEGIN
 90
        0
 91
        1
 62
     0
 92
       -2
340
14
 93
        0
 40
0.045
309
GRIDFORMAT_END
309
TABLEFORMAT_END
  1
CELLSTYLE_BEGIN
 90
        2
 91
        1
300
_HEADER
309
CELLSTYLE_END
300
CELLSTYLE
  1
TABLEFORMAT_BEGIN
 90
        5
170
     1
 91
        0
 92
        0
 62
   257
 93
        1
300
CONTENTFORMAT
  1
CONTENTFORMAT_BEGIN
 90
        0
 91
        0
 92
        4
 93
        0
300

 40
0.0
140
1.0
 94
        2
 62
     0
340
11
144
4.5
309
CONTENTFORMAT_END
171
     1
301
MARGIN
  1
CELLMARGIN_BEGIN
 40
1.5
 40
1.5
 40
1.5
 40
1.5
 40
1.5
 40
1.5
309
CELLMARGIN_END
 94
        6
 95
        1
302
GRIDFORMAT
  1
GRIDFORMAT_BEGIN
 90
        0
 91
        1
 62
     0
 92
       -2
340
14
 93
        0
 40
0.045
309
GRIDFORMAT_END
 95
        2
302
GRIDFORMAT
  1
GRIDFORMAT_BEGIN
 90
        0
 91
        1
 62
     0
 92
       -2
340
14
 93
        0
 40
0.045
309
GRIDFORMAT_END
 95
        4
302
GRIDFORMAT
  1
GRIDFORMAT_BEGIN
 90
        0
 91
        1
 62
     0
 92
       -2
340
14
 93
        0
 40
0.045
309
GRIDFORMAT_END
 95
        8
302
GRIDFORMAT
  1
GRIDFORMAT_BEGIN
 90
        0
 91
        1
 62
     0
 92
       -2
340
14
 93
        0
 40
0.045
309
GRIDFORMAT_END
 95
       16
302
GRIDFORMAT
  1
GRIDFORMAT_BEGIN
 90
        0
 91
        1
 62
     0
 92
       -2
340
14
 93
        0
 40
0.045
309
GRIDFORMAT_END
 95
       32
302
GRIDFORMAT
  1
GRIDFORMAT_BEGIN
 90
        0
 91
        1
 62
     0
 92
       -2
340
14
 93
        0
 40
0.045
309
GRIDFORMAT_END
309
TABLEFORMAT_END
  1
CELLSTYLE_BEGIN
 90
        3
 91
        2
300
_DATA
309
CELLSTYLE_END
  0
ENDSEC
  0
EOF
