  0
SECTION
  2
HEADER
  9
$ACADVER
  1
AC1027
  9
$ACADMAINTVER
 70
   105
  9
$DWGCODEPAGE
  3
ANSI_1252
  9
$LASTSAVEDBY
  1
Nick
  9
$REQUIREDVERSIONS
160
                 0
  9
$INSBASE
 10
0.0
 20
0.0
 30
0.0
  9
$EXTMIN
 10
0.0
 20
0.0
 30
0.0
  9
$EXTMAX
 10
420.0
 20
297.0
 30
0.0
  9
$LIMMIN
 10
0.0
 20
0.0
  9
$LIMMAX
 10
420.0
 20
297.0
  9
$ORTHOMODE
 70
     0
  9
$REGENMODE
 70
     1
  9
$FILLMODE
 70
     1
  9
$QTEXTMODE
 70
     0
  9
$MIRRTEXT
 70
     1
  9
$LTSCALE
 40
1.0
  9
$ATTMODE
 70
     1
  9
$TEXTSIZE
 40
4.2333333333
  9
$TRACEWID
 40
1.0
  9
$TEXTSTYLE
  7
Standard
  9
$CLAYER
  8
0
  9
$CELTYPE
  6
ByLayer
  9
$CECOLOR
 62
   256
  9
$CELTSCALE
 40
1.0
  9
$DISPSILH
 70
     0
  9
$DIMSCALE
 40
1.0
  9
$DIMASZ
 40
3.302
  9
$DIMEXO
 40
1.0
  9
$DIMDLI
 40
3.75
  9
$DIMRND
 40
0.0
  9
$DIMDLE
 40
0.0
  9
$DIMEXE
 40
1.0
  9
$DIMTP
 40
0.0
  9
$DIMTM
 40
0.0
  9
$DIMTXT
 40
4.2333333333
  9
$DIMCEN
 40
2.5
  9
$DIMTSZ
 40
0.0
  9
$DIMTOL
 70
     0
  9
$DIMLIM
 70
     0
  9
$DIMTIH
 70
     1
  9
$DIMTOH
 70
     1
  9
$DIMSE1
 70
     0
  9
$DIMSE2
 70
     0
  9
$DIMTAD
 70
     1
  9
$DIMZIN
 70
     1
  9
$DIMBLK
  1

  9
$DIMASO
 70
     1
  9
$DIMSHO
 70
     1
  9
$DIMPOST
  1

  9
$DIMAPOST
  1

  9
$DIMALT
 70
     0
  9
$DIMALTD
 70
     3
  9
$DIMALTF
 40
0.0393700787
  9
$DIMLFAC
 40
1.0
  9
$DIMTOFL
 70
     1
  9
$DIMTVP
 40
0.0
  9
$DIMTIX
 70
     0
  9
$DIMSOXD
 70
     0
  9
$DIMSAH
 70
     0
  9
$DIMBLK1
  1

  9
$DIMBLK2
  1

  9
$DIMSTYLE
  2
ISO-25
  9
$DIMCLRD
 70
     0
  9
$DIMCLRE
 70
     0
  9
$DIMCLRT
 70
     0
  9
$DIMTFAC
 40
1.0
  9
$DIMGAP
 40
1.524
  9
$DIMJUST
 70
     0
  9
$DIMSD1
 70
     0
  9
$DIMSD2
 70
     0
  9
$DIMTOLJ
 70
     0
  9
$DIMTZIN
 70
     1
  9
$DIMALTZ
 70
     0
  9
$DIMALTTZ
 70
     0
  9
$DIMUPT
 70
     0
  9
$DIMDEC
 70
     0
  9
$DIMTDEC
 70
     0
  9
$DIMALTU
 70
     2
  9
$DIMALTTD
 70
     3
  9
$DIMTXSTY
  7
Standard
  9
$DIMAUNIT
 70
     0
  9
$DIMADEC
 70
     2
  9
$DIMALTRND
 40
0.0
  9
$DIMAZIN
 70
     0
  9
$DIMDSEP
 70
    44
  9
$DIMATFIT
 70
     3
  9
$DIMFRAC
 70
     0
  9
$DIMLDRBLK
  1

  9
$DIMLUNIT
 70
     2
  9
$DIMLWD
 70
    -2
  9
$DIMLWE
 70
    -2
  9
$DIMTMOVE
 70
     0
  9
$DIMFXL
 40
1.0
  9
$DIMFXLON
 70
     0
  9
$DIMJOGANG
 40
0.7853981634
  9
$DIMTFILL
 70
     0
  9
$DIMTFILLCLR
 70
     0
  9
$DIMARCSYM
 70
     0
  9
$DIMLTYPE
  6

  9
$DIMLTEX1
  6

  9
$DIMLTEX2
  6

  9
$DIMTXTDIRECTION
 70
     0
  9
$LUNITS
 70
     2
  9
$LUPREC
 70
     0
  9
$SKETCHINC
 40
1.0
  9
$FILLETRAD
 40
0.0
  9
$AUNITS
 70
     0
  9
$AUPREC
 70
     2
  9
$MENU
  1
.
  9
$ELEVATION
 40
0.0
  9
$PELEVATION
 40
0.0
  9
$THICKNESS
 40
0.0
  9
$LIMCHECK
 70
     0
  9
$CHAMFERA
 40
0.0
  9
$CHAMFERB
 40
0.0
  9
$CHAMFERC
 40
0.0
  9
$CHAMFERD
 40
0.0
  9
$SKPOLY
 70
     0
  9
$TDCREATE
 40
2460934.560338993
  9
$TDUCREATE
 40
2460934.143672327
  9
$TDUPDATE
 40
2460934.560339213
  9
$TDUUPDATE
 40
2460934.143672547
  9
$TDINDWG
 40
0.0000000116
  9
$TDUSRTIMER
 40
0.0000000116
  9
$USRTIMER
 70
     1
  9
$ANGBASE
 50
0.0
  9
$ANGDIR
 70
     0
  9
$PDMODE
 70
     0
  9
$PDSIZE
 40
-1.0
  9
$PLINEWID
 40
0.0
  9
$SPLFRAME
 70
     0
  9
$SPLINETYPE
 70
     6
  9
$SPLINESEGS
 70
     8
  9
$HANDSEED
  5
122
  9
$SURFTAB1
 70
     6
  9
$SURFTAB2
 70
     6
  9
$SURFTYPE
 70
     6
  9
$SURFU
 70
     6
  9
$SURFV
 70
     6
  9
$UCSBASE
  2

  9
$UCSNAME
  2

  9
$UCSORG
 10
0.0
 20
0.0
 30
0.0
  9
$UCSXDIR
 10
1.0
 20
0.0
 30
0.0
  9
$UCSYDIR
 10
0.0
 20
1.0
 30
0.0
  9
$UCSORTHOREF
  2

  9
$UCSORTHOVIEW
 70
     0
  9
$UCSORGTOP
 10
0.0
 20
0.0
 30
0.0
  9
$UCSORGBOTTOM
 10
0.0
 20
0.0
 30
0.0
  9
$UCSORGLEFT
 10
0.0
 20
0.0
 30
0.0
  9
$UCSORGRIGHT
 10
0.0
 20
0.0
 30
0.0
  9
$UCSORGFRONT
 10
0.0
 20
0.0
 30
0.0
  9
$UCSORGBACK
 10
0.0
 20
0.0
 30
0.0
  9
$PUCSBASE
  2

  9
$PUCSNAME
  2

  9
$PUCSORG
 10
0.0
 20
0.0
 30
0.0
  9
$PUCSXDIR
 10
1.0
 20
0.0
 30
0.0
  9
$PUCSYDIR
 10
0.0
 20
1.0
 30
0.0
  9
$PUCSORTHOREF
  2

  9
$PUCSORTHOVIEW
 70
     0
  9
$PUCSORGTOP
 10
0.0
 20
0.0
 30
0.0
  9
$PUCSORGBOTTOM
 10
0.0
 20
0.0
 30
0.0
  9
$PUCSORGLEFT
 10
0.0
 20
0.0
 30
0.0
  9
$PUCSORGRIGHT
 10
0.0
 20
0.0
 30
0.0
  9
$PUCSORGFRONT
 10
0.0
 20
0.0
 30
0.0
  9
$PUCSORGBACK
 10
0.0
 20
0.0
 30
0.0
  9
$USERI1
 70
     0
  9
$USERI2
 70
     0
  9
$USERI3
 70
     0
  9
$USERI4
 70
     0
  9
$USERI5
 70
     0
  9
$USERR1
 40
0.0
  9
$USERR2
 40
0.0
  9
$USERR3
 40
0.0
  9
$USERR4
 40
0.0
  9
$USERR5
 40
0.0
  9
$WORLDVIEW
 70
     1
  9
$SHADEDGE
 70
     3
  9
$SHADEDIF
 70
    70
  9
$TILEMODE
 70
     1
  9
$MAXACTVP
 70
    64
  9
$PINSBASE
 10
0.0
 20
0.0
 30
0.0
  9
$PLIMCHECK
 70
     0
  9
$PEXTMIN
 10
1.0000000000E+20
 20
1.0000000000E+20
 30
1.0000000000E+20
  9
$PEXTMAX
 10
-1.0000000000E+20
 20
-1.0000000000E+20
 30
-1.0000000000E+20
  9
$PLIMMIN
 10
0.0
 20
0.0
  9
$PLIMMAX
 10
420.0
 20
297.0
  9
$UNITMODE
 70
     0
  9
$VISRETAIN
 70
     1
  9
$PLINEGEN
 70
     0
  9
$PSLTSCALE
 70
     1
  9
$TREEDEPTH
 70
  3020
  9
$CMLSTYLE
  2
Standard
  9
$CMLJUST
 70
     0
  9
$CMLSCALE
 40
20.0
  9
$PROXYGRAPHICS
 70
     1
  9
$MEASUREMENT
 70
     1
  9
$CELWEIGHT
370
    -1
  9
$ENDCAPS
280
     0
  9
$JOINSTYLE
280
     0
  9
$LWDISPLAY
290
     1
  9
$INSUNITS
 70
     4
  9
$HYPERLINKBASE
  1

  9
$STYLESHEET
  1

  9
$XEDIT
290
     1
  9
$CEPSNTYPE
380
     0
  9
$PSTYLEMODE
290
     1
  9
$FINGERPRINTGUID
  2
{09f596e9-91ba-4855-95b2-10e063777b21}
  9
$VERSIONGUID
  2
{FAEB1C32-E019-11D5-929B-00C0DF256EC4}
  9
$EXTNAMES
290
     1
  9
$PSVPSCALE
 40
0.0
  9
$OLESTARTUP
290
     0
  9
$SORTENTS
280
   127
  9
$INDEXCTL
280
     0
  9
$HIDETEXT
280
     1
  9
$XCLIPFRAME
280
     2
  9
$HALOGAP
280
     0
  9
$OBSCOLOR
 70
   257
  9
$OBSLTYPE
280
     0
  9
$INTERSECTIONDISPLAY
280
     0
  9
$INTERSECTIONCOLOR
 70
   257
  9
$DIMASSOC
280
     2
  9
$PROJECTNAME
  1

  9
$CAMERADISPLAY
290
     0
  9
$LENSLENGTH
 40
50.0
  9
$CAMERAHEIGHT
 40
0.0
  9
$STEPSPERSEC
 40
2.0
  9
$STEPSIZE
 40
6.0
  9
$3DDWFPREC
 40
2.0
  9
$PSOLWIDTH
 40
5.0
  9
$PSOLHEIGHT
 40
80.0
  9
$LOFTANG1
 40
1.5707963268
  9
$LOFTANG2
 40
1.5707963268
  9
$LOFTMAG1
 40
0.0
  9
$LOFTMAG2
 40
0.0
  9
$LOFTPARAM
 70
     7
  9
$LOFTNORMALS
280
     1
  9
$LATITUDE
 40
37.795
  9
$LONGITUDE
 40
-122.394
  9
$NORTHDIRECTION
 40
0.0
  9
$TIMEZONE
 70
 -8000
  9
$LIGHTGLYPHDISPLAY
280
     1
  9
$TILEMODELIGHTSYNCH
280
     1
  9
$CMATERIAL
347
44
  9
$SOLIDHIST
280
     0
  9
$SHOWHIST
280
     1
  9
$DWFFRAME
280
     2
  9
$DGNFRAME
280
     2
  9
$REALWORLDSCALE
290
     1
  9
$INTERFERECOLOR
 62
   256
  9
$CSHADOW
280
     0
  9
$SHADOWPLANELOCATION
 40
0.0
  0
ENDSEC
  0
SECTION
  2
CLASSES
  0
CLASS
  1
ACDBDICTIONARYWDFLT
  2
AcDbDictionaryWithDefault
  3
ObjectDBX Classes
 90
        0
 91
        3
280
     0
281
     0
  0
CLASS
  1
VISUALSTYLE
  2
AcDbVisualStyle
  3
ObjectDBX Classes
 90
     4095
 91
        3
280
     0
281
     0
  0
CLASS
  1
MATERIAL
  2
AcDbMaterial
  3
ObjectDBX Classes
 90
     1153
 91
        3
280
     0
281
     0
  0
CLASS
  1
SCALE
  2
AcDbScale
  3
ObjectDBX Classes
 90
     1153
 91
        3
280
     0
281
     0
  0
CLASS
  1
TABLESTYLE
  2
AcDbTableStyle
  3
ObjectDBX Classes
 90
     4095
 91
        3
280
     0
281
     0
  0
CLASS
  1
MLEADERSTYLE
  2
AcDbMLeaderStyle
  3
ACDB_MLEADERSTYLE_CLASS
 90
     4095
 91
        3
280
     0
281
     0
  0
CLASS
  1
SUN
  2
AcDbSun
  3
SCENEOE
 90
     1153
 91
        3
280
     0
281
     0
  0
CLASS
  1
DICTIONARYVAR
  2
AcDbDictionaryVar
  3
ObjectDBX Classes
 90
        0
 91
        3
280
     0
281
     0
  0
CLASS
  1
CELLSTYLEMAP
  2
AcDbCellStyleMap
  3
ObjectDBX Classes
 90
     1152
 91
        3
280
     0
281
     0
  0
ENDSEC
  0
SECTION
  2
TABLES
  0
TABLE
  2
VPORT
  5
8
330
0
100
AcDbSymbolTable
 70
     1
  0
VPORT
  5
29
330
8
100
AcDbSymbolTableRecord
100
AcDbViewportTableRecord
  2
*Active
 70
     0
 10
0.0
 20
0.0
 11
1.0
 21
1.0
 12
210.0
 22
148.5
 13
0.0
 23
0.0
 14
10.0
 24
10.0
 15
10.0
 25
10.0
 16
0.0
 26
0.0
 36
1.0
 17
0.0
 27
0.0
 37
0.0
 40
297.0
 41
1.4141414141
 42
50.0
 43
0.0
 44
0.0
 50
0.0
 51
0.0
 71
     0
 72
  2000
 73
     1
 74
     3
 75
     0
 76
     0
 77
     0
 78
     0
281
     0
 65
     1
110
0.0
120
0.0
130
0.0
111
1.0
121
0.0
131
0.0
112
0.0
122
1.0
132
0.0
 79
     0
146
0.0
348
2F
 60
     3
 61
     5
292
     1
282
     1
141
0.0
142
0.0
 63
   250
361
5D
  0
ENDTAB
  0
TABLE
  2
LTYPE
  5
5
330
0
100
AcDbSymbolTable
 70
     6
  0
LTYPE
  5
14
330
5
100
AcDbSymbolTableRecord
100
AcDbLinetypeTableRecord
  2
ByBlock
 70
     0
  3

 72
    65
 73
     0
 40
0.0
  0
LTYPE
  5
15
330
5
100
AcDbSymbolTableRecord
100
AcDbLinetypeTableRecord
  2
ByLayer
 70
     0
  3

 72
    65
 73
     0
 40
0.0
  0
LTYPE
  5
16
330
5
100
AcDbSymbolTableRecord
100
AcDbLinetypeTableRecord
  2
Continuous
 70
     0
  3
Solid line
 72
    65
 73
     0
 40
0.0
  0
LTYPE
  5
5E
330
5
100
AcDbSymbolTableRecord
100
AcDbLinetypeTableRecord
  2
HIDDEN
 70
     0
  3
Hidden __ __ __ __ __ __ __ __ __ __ __ __ __ __
 72
    65
 73
     2
 40
1.905
 49
1.27
 74
     0
 49
-0.635
 74
     0
  0
LTYPE
  5
5F
330
5
100
AcDbSymbolTableRecord
100
AcDbLinetypeTableRecord
  2
PHANTOM
 70
     0
  3
Phantom ______  __  __  ______  __  __  ______
 72
    65
 73
     6
 40
12.7
 49
6.35
 74
     0
 49
-1.27
 74
     0
 49
1.27
 74
     0
 49
-1.27
 74
     0
 49
1.27
 74
     0
 49
-1.27
 74
     0
  0
LTYPE
  5
60
330
5
100
AcDbSymbolTableRecord
100
AcDbLinetypeTableRecord
  2
CENTER
 70
     0
  3
Center ____ _ ____ _ ____ _ ____ _ ____ _ ____
 72
    65
 73
     4
 40
10.16
 49
6.35
 74
     0
 49
-1.27
 74
     0
 49
1.27
 74
     0
 49
-1.27
 74
     0
  0
LTYPE
  5
61
330
5
100
AcDbSymbolTableRecord
100
AcDbLinetypeTableRecord
  2
CENTERX2
 70
     0
  3
Center (2x) ________  __  ________  __  _____
 72
    65
 73
     4
 40
20.32
 49
12.7
 74
     0
 49
-2.54
 74
     0
 49
2.54
 74
     0
 49
-2.54
 74
     0
  0
LTYPE
  5
62
330
5
100
AcDbSymbolTableRecord
100
AcDbLinetypeTableRecord
  2
DOT2
 70
     0
  3
Dot (.5x) ........................................
 72
    65
 73
     2
 40
0.635
 49
0.0
 74
     0
 49
-0.635
 74
     0
  0
ENDTAB
  0
TABLE
  2
LAYER
  5
2
330
0
100
AcDbSymbolTable
 70
    13
  0
LAYER
  5
10
330
2
100
AcDbSymbolTableRecord
100
AcDbLayerTableRecord
  2
0
 70
     0
 62
     7
  6
Continuous
370
    -3
390
F
347
46
348
0
  0
LAYER
  5
63
330
2
100
AcDbSymbolTableRecord
100
AcDbLayerTableRecord
  2
DRAWING-SHEET
 70
     0
 62
   179
  6
Continuous
370
    -3
390
F
347
46
348
0
  0
LAYER
  5
64
330
2
100
AcDbSymbolTableRecord
100
AcDbLayerTableRecord
  2
BORDER
 70
     0
 62
   179
  6
Continuous
370
    -3
390
F
347
46
348
0
  0
LAYER
  5
65
330
2
100
AcDbSymbolTableRecord
100
AcDbLayerTableRecord
  2
DIMENSIONS
 70
     0
 62
     7
  6
Continuous
370
    -3
390
F
347
46
348
0
  0
LAYER
  5
66
330
2
100
AcDbSymbolTableRecord
100
AcDbLayerTableRecord
  2
CENTRE_LINES
 70
     0
 62
     7
  6
Continuous
370
    -3
390
F
347
46
348
0
  0
LAYER
  5
67
330
2
100
AcDbSymbolTableRecord
100
AcDbLayerTableRecord
  2
FORMAT
 70
     0
 62
     7
  6
Continuous
370
    -3
390
F
347
46
348
0
  0
LAYER
  5
68
330
2
100
AcDbSymbolTableRecord
100
AcDbLayerTableRecord
  2
SLD-0
 70
     0
 62
   179
  6
Continuous
370
    -3
390
F
347
46
348
0
  0
LAYER
  5
69
330
2
100
AcDbSymbolTableRecord
100
AcDbLayerTableRecord
  2
OUTLINE
 70
     0
 62
     4
  6
Continuous
370
    -3
390
F
347
46
348
0
  0
LAYER
  5
6A
330
2
100
AcDbSymbolTableRecord
100
AcDbLayerTableRecord
  2
4
 70
     0
 62
     7
  6
Continuous
370
    70
390
F
347
46
348
0
  0
LAYER
  5
6B
330
2
100
AcDbSymbolTableRecord
100
AcDbLayerTableRecord
  2
TEXT25
 70
     0
 62
   179
  6
Continuous
370
    -3
390
F
347
46
348
0
  0
LAYER
  5
6C
330
2
100
AcDbSymbolTableRecord
100
AcDbLayerTableRecord
  2
TEXT35
 70
     0
 62
     7
  6
Continuous
370
    -3
390
F
347
46
348
0
  0
LAYER
  5
6D
330
2
100
AcDbSymbolTableRecord
100
AcDbLayerTableRecord
  2
TEXT5
 70
     0
 62
     7
  6
Continuous
370
    -3
390
F
347
46
348
0
  0
LAYER
  5
6E
330
2
100
AcDbSymbolTableRecord
100
AcDbLayerTableRecord
  2
5
 70
     0
 62
     7
  6
Continuous
370
    35
390
F
347
46
348
0
  0
ENDTAB
  0
TABLE
  2
STYLE
  5
3
330
0
100
AcDbSymbolTable
 70
     3
  0
STYLE
  5
11
330
3
100
AcDbSymbolTableRecord
100
AcDbTextStyleTableRecord
  2
Standard
 70
     0
 40
0.0
 41
1.0
 50
0.0
 71
     0
 42
4.2333333333
  3
txt
  4

  0
STYLE
  5
75
330
3
100
AcDbSymbolTableRecord
100
AcDbTextStyleTableRecord
  2
SLDTEXTSTYLE0
 70
     0
 40
0.0
 41
0.75
 50
0.0
 71
     0
 42
4.2333333333
  3
TXT
  4

  0
STYLE
  5
7B
330
3
100
AcDbSymbolTableRecord
100
AcDbTextStyleTableRecord
  2
SLDTEXTSTYLE1
 70
     0
 40
0.0
 41
0.6
 50
0.0
 71
     0
 42
4.2333333333
  3
TXT
  4

  0
ENDTAB
  0
TABLE
  2
VIEW
  5
6
330
0
100
AcDbSymbolTable
 70
     0
  0
ENDTAB
  0
TABLE
  2
UCS
  5
7
330
0
100
AcDbSymbolTable
 70
     0
  0
ENDTAB
  0
TABLE
  2
APPID
  5
9
330
0
100
AcDbSymbolTable
 70
     1
  0
APPID
  5
12
330
9
100
AcDbSymbolTableRecord
100
AcDbRegAppTableRecord
  2
ACAD
 70
     0
  0
ENDTAB
  0
TABLE
  2
DIMSTYLE
  5
A
330
0
100
AcDbSymbolTable
 70
     1
100
AcDbDimStyleTable
  0
DIMSTYLE
105
27
330
A
100
AcDbSymbolTableRecord
100
AcDbDimStyleTableRecord
  2
ISO-25
 70
     0
 41
2.5
 42
0.625
 43
3.75
 44
1.25
 73
     0
 74
     0
 77
     1
 78
     8
140
2.5
141
2.5
143
0.0393700787
147
0.625
171
     3
172
     1
178
     0
271
     2
272
     2
274
     3
278
    44
283
     0
284
     8
340
11
  0
ENDTAB
  0
TABLE
  2
BLOCK_RECORD
  5
1
330
0
100
AcDbSymbolTable
 70
     6
  0
BLOCK_RECORD
  5
1F
330
1
100
AcDbSymbolTableRecord
100
AcDbBlockTableRecord
  2
*Model_Space
340
22
 70
     0
280
     1
281
     0
  0
BLOCK_RECORD
  5
1B
330
1
100
AcDbSymbolTableRecord
100
AcDbBlockTableRecord
  2
*Paper_Space
340
1E
 70
     0
280
     1
281
     0
  0
BLOCK_RECORD
  5
23
330
1
100
AcDbSymbolTableRecord
100
AcDbBlockTableRecord
  2
*Paper_Space0
340
26
 70
     0
280
     1
281
     0
  0
BLOCK_RECORD
  5
6F
330
1
100
AcDbSymbolTableRecord
100
AcDbBlockTableRecord
  2
Block1
340
0
 70
     0
280
     1
281
     0
  0
BLOCK_RECORD
  5
72
330
1
100
AcDbSymbolTableRecord
100
AcDbBlockTableRecord
  2
SW_NOTE_0
340
0
102
{BLKREFS
331
77
102
}
 70
     0
280
     1
281
     0
  0
BLOCK_RECORD
  5
78
330
1
100
AcDbSymbolTableRecord
100
AcDbBlockTableRecord
  2
SW_NOTE_0_1
340
0
102
{BLKREFS
331
7D
102
}
 70
     0
280
     1
281
     0
  0
BLOCK_RECORD
  5
7E
330
1
100
AcDbSymbolTableRecord
100
AcDbBlockTableRecord
  2
SW_NOTE_0_2
340
0
102
{BLKREFS
331
82
102
}
 70
     0
280
     1
281
     0
  0
BLOCK_RECORD
  5
83
330
1
100
AcDbSymbolTableRecord
100
AcDbBlockTableRecord
  2
SW_NOTE_0_3
340
0
102
{BLKREFS
331
87
102
}
 70
     0
280
     1
281
     0
  0
ENDTAB
  0
ENDSEC
  0
SECTION
  2
BLOCKS
  0
BLOCK
  5
20
330
1F
100
AcDbEntity
  8
0
100
AcDbBlockBegin
  2
*Model_Space
 70
     0
 10
0.0
 20
0.0
 30
0.0
  3
*Model_Space
  1

  0
ENDBLK
  5
21
330
1F
100
AcDbEntity
  8
0
100
AcDbBlockEnd
  0
BLOCK
  5
1C
330
1B
100
AcDbEntity
 67
     1
  8
0
100
AcDbBlockBegin
  2
*Paper_Space
 70
     0
 10
0.0
 20
0.0
 30
0.0
  3
*Paper_Space
  1

  0
ENDBLK
  5
1D
330
1B
100
AcDbEntity
 67
     1
  8
0
100
AcDbBlockEnd
  0
BLOCK
  5
24
330
23
100
AcDbEntity
  8
0
100
AcDbBlockBegin
  2
*Paper_Space0
 70
     0
 10
0.0
 20
0.0
 30
0.0
  3
*Paper_Space0
  1

  0
ENDBLK
  5
25
330
23
100
AcDbEntity
  8
0
100
AcDbBlockEnd
  0
BLOCK
  5
70
330
6F
100
AcDbEntity
  8
0
100
AcDbBlockBegin
  2
Block1
 70
     0
 10
0.0
 20
0.0
 30
0.0
  3
Block1
  1

  0
INSERT
  5
77
330
6F
100
AcDbEntity
  8
0
  6
Continuous
 62
     7
370
     0
100
AcDbBlockReference
  2
SW_NOTE_0
 10
40.5248655077
 20
20.5912386523
 30
0.0
  0
INSERT
  5
7D
330
6F
100
AcDbEntity
  8
DRAWING-SHEET
 62
     7
100
AcDbBlockReference
  2
SW_NOTE_0_1
 10
3.556761253
 20
-0.3611706024
 30
0.0
  0
INSERT
  5
82
330
6F
100
AcDbEntity
  8
DRAWING-SHEET
 62
     7
100
AcDbBlockReference
  2
SW_NOTE_0_2
 10
7.9590819428
 20
3.0109637777
 30
0.0
  0
INSERT
  5
87
330
6F
100
AcDbEntity
  8
DRAWING-SHEET
 62
     7
100
AcDbBlockReference
  2
SW_NOTE_0_3
 10
0.0721004934
 20
6.5234823937
 30
0.0
  0
ENDBLK
  5
71
330
6F
100
AcDbEntity
  8
0
100
AcDbBlockEnd
  0
BLOCK
  5
73
330
72
100
AcDbEntity
  8
0
100
AcDbBlockBegin
  2
SW_NOTE_0
 70
     0
 10
0.0
 20
0.0
 30
0.0
  3
SW_NOTE_0
  1

  0
MTEXT
  5
76
330
72
100
AcDbEntity
  8
0
  6
Continuous
 62
     0
370
     0
100
AcDbMText
 10
0.0
 20
1.9336016097
 30
0.0
 40
1.5
 41
0.0
 46
0.0
 71
     1
 72
     1
  1
TITLE:
  7
SLDTEXTSTYLE0
 73
     1
 44
1.0
  0
ENDBLK
  5
74
330
72
100
AcDbEntity
  8
0
100
AcDbBlockEnd
  0
BLOCK
  5
79
330
78
100
AcDbEntity
  8
0
100
AcDbBlockBegin
  2
SW_NOTE_0_1
 70
     0
 10
0.0
 20
0.0
 30
0.0
  3
SW_NOTE_0_1
  1

  0
MTEXT
  5
7C
330
78
100
AcDbEntity
  8
DRAWING-SHEET
 62
     0
100
AcDbMText
 10
0.0
 20
2.7285267159
 30
0.0
 40
2.1166666667
 41
0.0
 46
0.0
 71
     1
 72
     1
  1
Email: roddyeng.com.au
  7
SLDTEXTSTYLE1
 73
     1
 44
1.0
  0
ENDBLK
  5
7A
330
78
100
AcDbEntity
  8
0
100
AcDbBlockEnd
  0
BLOCK
  5
7F
330
7E
100
AcDbEntity
  8
0
100
AcDbBlockBegin
  2
SW_NOTE_0_2
 70
     0
 10
0.0
 20
0.0
 30
0.0
  3
SW_NOTE_0_2
  1

  0
MTEXT
  5
81
330
7E
100
AcDbEntity
  8
DRAWING-SHEET
 62
     0
100
AcDbMText
 10
0.0
 20
2.7285267159
 30
0.0
 40
2.1166666667
 41
0.0
 46
0.0
 71
     1
 72
     1
  1
Ph: - 02 6947 4039
  7
SLDTEXTSTYLE1
 73
     1
 44
1.0
  0
ENDBLK
  5
80
330
7E
100
AcDbEntity
  8
0
100
AcDbBlockEnd
  0
BLOCK
  5
84
330
83
100
AcDbEntity
  8
0
100
AcDbBlockBegin
  2
SW_NOTE_0_3
 70
     0
 10
0.0
 20
0.0
 30
0.0
  3
SW_NOTE_0_3
  1

  0
MTEXT
  5
86
330
83
100
AcDbEntity
  8
DRAWING-SHEET
 62
     0
100
AcDbMText
 10
0.0
 20
2.7285267159
 30
0.0
 40
2.1166666667
 41
0.0
 46
0.0
 71
     1
 72
     1
  1
14 Waratah St TUMUT NSW 2720
  7
SLDTEXTSTYLE1
 73
     1
 44
1.0
  0
ENDBLK
  5
85
330
83
100
AcDbEntity
  8
0
100
AcDbBlockEnd
  0
ENDSEC
  0
SECTION
  2
ENTITIES
  0
SPLINE
  5
88
330
1F
100
AcDbEntity
  8
0
  6
Continuous
 62
     7
370
    25
100
AcDbSpline
210
0.0
220
0.0
230
1.0
 70
     8
 71
     3
 72
    15
 73
    11
 74
     0
 42
0.00000001
 43
0.00000001
 40
0.0
 40
0.0
 40
0.0
 40
0.0
 40
0.1022030370352183
 40
0.2110233423738785
 40
0.32509966156521
 40
0.4465020971348875
 40
0.5737877176488552
 40
0.708900709766064
 40
0.8503578712933987
 40
0.9999999999999999
 40
0.9999999999999999
 40
0.9999999999999999
 40
0.9999999999999999
 10
865.6470958061985
 20
575.6214566864911
 30
0.0
 10
865.5850868260698
 20
575.6201296209881
 30
0.0
 10
865.457054013899
 20
575.6173895674033
 30
0.0
 10
865.260658981375
 20
575.5972147175146
 30
0.0
 10
865.0542779002852
 20
575.5646677588218
 30
0.0
 10
864.8387019104425
 20
575.5198991931779
 30
0.0
 10
864.613283606207
 20
575.4613138748724
 30
0.0
 10
864.378498690259
 20
575.391109302014
 30
0.0
 10
864.1338535094606
 20
575.3071733049544
 30
0.0
 10
863.9690129965492
 20
575.2437853878191
 30
0.0
 10
863.8842752933782
 20
575.2112002762348
 30
0.0
  0
SPLINE
  5
89
330
1F
100
AcDbEntity
  8
0
  6
Continuous
 62
     7
370
    25
100
AcDbSpline
210
0.0
220
0.0
230
1.0
 70
     8
 71
     3
 72
    23
 73
    19
 74
     0
 42
0.00000001
 43
0.00000001
 40
0.0
 40
0.0
 40
0.0
 40
0.0
 40
0.0653513820266008
 40
0.1279160318306173
 40
0.1883602055717012
 40
0.2472160772654511
 40
0.3056301291974124
 40
0.3637698398318239
 40
0.4226609139127813
 40
0.4826872940903935
 40
0.5433002212395597
 40
0.604117955323101
 40
0.664964891265286
 40
0.7274134941125667
 40
0.7914676251494231
 40
0.8580554427291022
 40
0.9270368146149474
 40
0.9999999999999999
 40
0.9999999999999999
 40
0.9999999999999999
 40
0.9999999999999999
 10
867.5765829856858
 20
573.8554310454656
 30
0.0
 10
867.575077889774
 20
573.9196041920283
 30
0.0
 10
867.5721318786782
 20
574.0452139955829
 30
0.0
 10
867.5480620037
 20
574.2289836103058
 30
0.0
 10
867.5061946383202
 20
574.4028648498522
 30
0.0
 10
867.448082912727
 20
574.5676973846453
 30
0.0
 10
867.3743011807645
 20
574.7236366814409
 30
0.0
 10
867.2841381811787
 20
574.8708436761842
 30
0.0
 10
867.1759018430221
 20
575.0073781521236
 30
0.0
 10
867.0522632405338
 20
575.1333039889454
 30
0.0
 10
866.9168162898067
 20
575.2495208457981
 30
0.0
 10
866.7672305924417
 20
575.3485930434026
 30
0.0
 10
866.606636474053
 20
575.4319391408924
 30
0.0
 10
866.4369688181241
 20
575.5038659942473
 30
0.0
 10
866.2541919070673
 20
575.5555248408743
 30
0.0
 10
866.0619253187714
 20
575.5943085790277
 30
0.0
 10
865.8580928434641
 20
575.616743693721
 30
0.0
 10
865.7187312705865
 20
575.619856581437
 30
0.0
 10
865.6470958061986
 20
575.6214566864911
 30
0.0
  0
SPLINE
  5
8A
330
1F
100
AcDbEntity
  8
0
  6
Continuous
 62
     7
370
    25
100
AcDbSpline
210
0.0
220
0.0
230
1.0
 70
     8
 71
     3
 72
    23
 73
    19
 74
     0
 42
0.00000001
 43
0.00000001
 40
0.0
 40
0.0
 40
0.0
 40
0.0
 40
0.0642072952829855
 40
0.1264246897797411
 40
0.1876802842649215
 40
0.2482164244552134
 40
0.3083050600086138
 40
0.3696609913251415
 40
0.4316985517867805
 40
0.4959468922087673
 40
0.5597580239721177
 40
0.6222954078261597
 40
0.6839106352841751
 40
0.745092408056629
 40
0.8067402253892925
 40
0.869086618121207
 40
0.9332900029748019
 40
1.0
 40
1.0
 40
1.0
 40
1.0
 10
865.5461342677371
 20
571.8265848916193
 30
0.0
 10
865.6146107121195
 20
571.8284609554024
 30
0.0
 10
865.7494413914077
 20
571.832154940342
 30
0.0
 10
865.9478674181346
 20
571.8605869679759
 30
0.0
 10
866.1394397020251
 20
571.9043757023934
 30
0.0
 10
866.3222679460456
 20
571.9699067994991
 30
0.0
 10
866.4995514651063
 20
572.0495518701866
 30
0.0
 10
866.6668057975019
 20
572.1517577577657
 30
0.0
 10
866.8288695166806
 20
572.2693806570687
 30
0.0
 10
866.9807052504431
 20
572.4041386685965
 30
0.0
 10
867.1197668487506
 20
572.5526408277261
 30
0.0
 10
867.2426379827709
 20
572.7114462984116
 30
0.0
 10
867.3449852134594
 20
572.8808562333668
 30
0.0
 10
867.4312346051614
 20
573.0579377255975
 30
0.0
 10
867.4967278596132
 20
573.2446315705768
 30
0.0
 10
867.5434501024082
 20
573.4400628281138
 30
0.0
 10
867.5708856654219
 20
573.6447142114426
 30
0.0
 10
867.5746597910721
 20
573.7843012052169
 30
0.0
 10
867.5765829856858
 20
573.8554310454656
 30
0.0
  0
SPLINE
  5
8B
330
1F
100
AcDbEntity
  8
0
  6
Continuous
 62
     7
370
    25
100
AcDbSpline
210
0.0
220
0.0
230
1.0
 70
     8
 71
     3
 72
    19
 73
    15
 74
     0
 42
0.00000001
 43
0.00000001
 40
0.0
 40
0.0
 40
0.0
 40
0.0
 40
0.0946872518675574
 40
0.1819941557072732
 40
0.2643769486105076
 40
0.3421798619477691
 40
0.4186176108621417
 40
0.4965090753719062
 40
0.5773690916117314
 40
0.6615105924541944
 40
0.746732550829193
 40
0.8312579843277434
 40
0.9152056162136546
 40
1.0
 40
1.0
 40
1.0
 40
1.0
 10
863.781711190814
 20
573.2624823275168
 30
0.0
 10
863.7993764648487
 20
573.1861932933484
 30
0.0
 10
863.8333301024279
 20
573.0395615336411
 30
0.0
 10
863.9078575281467
 20
572.8335470391655
 30
0.0
 10
863.9989795292271
 20
572.6499602421917
 30
0.0
 10
864.1073323256095
 20
572.4863726232809
 30
0.0
 10
864.2365895381494
 20
572.3437234866584
 30
0.0
 10
864.3840853757281
 20
572.2165987736577
 30
0.0
 10
864.5494516001835
 20
572.1019127637663
 30
0.0
 10
864.7332075533718
 20
572.0063178673153
 30
0.0
 10
864.9270660203897
 20
571.9247892881152
 30
0.0
 10
865.1299625004116
 20
571.8704996996541
 30
0.0
 10
865.3363724352027
 20
571.8323262302993
 30
0.0
 10
865.475980138509
 20
571.8285050627526
 30
0.0
 10
865.5461342677371
 20
571.8265848916193
 30
0.0
  0
LINE
  5
8C
330
1F
100
AcDbEntity
  8
0
  6
Continuous
 62
     7
370
    25
100
AcDbLine
 10
863.0637624729
 20
573.2624823275
 30
0.0
 11
863.7817111908
 21
573.2624823275
 31
0.0
  0
SPLINE
  5
8D
330
1F
100
AcDbEntity
  8
0
  6
Continuous
 62
     7
370
    25
100
AcDbSpline
210
0.0
220
0.0
230
1.0
 70
     8
 71
     3
 72
    23
 73
    19
 74
     0
 42
0.00000001
 43
0.00000001
 40
0.0
 40
0.0
 40
0.0
 40
0.0
 40
0.0654211437588898
 40
0.1287083718818806
 40
0.1902361418635371
 40
0.2507244020335377
 40
0.3106371794134433
 40
0.3707664082897262
 40
0.4316147444123553
 40
0.4935229735663522
 40
0.5558834553775358
 40
0.6173423673185091
 40
0.6786680390972771
 40
0.7407113595451511
 40
0.802985362512742
 40
0.8668025802655146
 40
0.9323471713458897
 40
1.0
 40
1.0
 40
1.0
 40
1.0
 10
865.5044676010705
 20
571.0060720711066
 30
0.0
 10
865.4247551880369
 20
571.0076511293561
 30
0.0
 10
865.2679304321422
 20
571.0107577399214
 30
0.0
 10
865.0381691359787
 20
571.0432571347878
 30
0.0
 10
864.8171071801079
 20
571.0898032293994
 30
0.0
 10
864.606524091748
 20
571.1598289890527
 30
0.0
 10
864.4045326318503
 20
571.2475713769161
 30
0.0
 10
864.2138521340473
 20
571.3584654831914
 30
0.0
 10
864.0296103602236
 20
571.4841320060417
 30
0.0
 10
863.8592971333675
 20
571.6324299556755
 30
0.0
 10
863.7012260168655
 20
571.7945229431784
 30
0.0
 10
863.5597254251619
 20
571.9704261229858
 30
0.0
 10
863.4337058211923
 20
572.1572362763255
 30
0.0
 10
863.3251852566465
 20
572.3558606284986
 30
0.0
 10
863.2326183507805
 20
572.5657772706419
 30
0.0
 10
863.1598983775766
 20
572.7877727012519
 30
0.0
 10
863.1012049948495
 20
573.0206869959706
 30
0.0
 10
863.0763743194749
 20
573.1810378769089
 30
0.0
 10
863.0637624728653
 20
573.2624823275168
 30
0.0
  0
SPLINE
  5
8E
330
1F
100
AcDbEntity
  8
0
  6
Continuous
 62
     7
370
    25
100
AcDbSpline
210
0.0
220
0.0
230
1.0
 70
     8
 71
     3
 72
    31
 73
    27
 74
     0
 42
0.00000001
 43
0.00000001
 40
0.0
 40
0.0
 40
0.0
 40
0.0
 40
0.0440144705761366
 40
0.0874341236677008
 40
0.130118398657895
 40
0.1725536945581828
 40
0.2145547559681398
 40
0.2562980920971293
 40
0.2984382251332475
 40
0.3408490025880941
 40
0.3827151889670255
 40
0.4239240454075285
 40
0.4642462432504154
 40
0.5040736714617917
 40
0.5438619058684873
 40
0.5835667249796522
 40
0.6230943188523324
 40
0.6632290607685812
 40
0.7035512586114696
 40
0.7439378946861838
 40
0.7845412548000915
 40
0.8257501112405956
 40
0.8677573633885066
 40
0.9107451640323067
 40
0.9549144468914778
 40
0.9999999999999999
 40
0.9999999999999999
 40
0.9999999999999999
 40
0.9999999999999999
 10
868.2945317036346
 20
573.8249823275168
 30
0.0
 10
868.2930115315811
 20
573.759788680998
 30
0.0
 10
868.2899917312842
 20
573.6302824236818
 30
0.0
 10
868.2746349595178
 20
573.4379528221154
 30
0.0
 10
868.245067608514
 20
573.2496949179272
 30
0.0
 10
868.205369953419
 20
573.0654837365817
 30
0.0
 10
868.1538444266408
 20
572.8856680287436
 30
0.0
 10
868.0914694462925
 20
572.7097331077682
 30
0.0
 10
868.0151356691272
 20
572.5387740066408
 30
0.0
 10
867.9314068113924
 20
572.3711731037295
 30
0.0
 10
867.8371291473117
 20
572.2107193729986
 30
0.0
 10
867.7324925591084
 20
572.0606645466153
 30
0.0
 10
867.6219428648859
 20
571.9187576175183
 30
0.0
 10
867.5029911266956
 20
571.7865205134973
 30
0.0
 10
867.3745317092953
 20
571.6648221868847
 30
0.0
 10
867.2381203564686
 20
571.5529404005855
 30
0.0
 10
867.0948455701164
 20
571.4489830741785
 30
0.0
 10
866.9424907305256
 20
571.3571700566345
 30
0.0
 10
866.7844507694659
 20
571.2726832997137
 30
0.0
 10
866.618443416002
 20
571.203372357233
 30
0.0
 10
866.4482475292419
 20
571.1414054358959
 30
0.0
 10
866.2714135278824
 20
571.0920122299266
 30
0.0
 10
866.0883419561892
 20
571.0533092481681
 30
0.0
 10
865.8987310408016
 20
571.0270221610767
 30
0.0
 10
865.7035752236044
 20
571.0078760182877
 30
0.0
 10
865.5712894805647
 20
571.0066774881147
 30
0.0
 10
865.5044676010705
 20
571.0060720711066
 30
0.0
  0
SPLINE
  5
8F
330
1F
100
AcDbEntity
  8
0
  6
Continuous
 62
     7
370
    25
100
AcDbSpline
210
0.0
220
0.0
230
1.0
 70
     8
 71
     3
 72
    23
 73
    19
 74
     0
 42
0.00000001
 43
0.00000001
 40
0.0
 40
0.0
 40
0.0
 40
0.0
 40
0.065807645810693
 40
0.1293942736680561
 40
0.1908940606321887
 40
0.2512810689298358
 40
0.3108149644652743
 40
0.3703709874482446
 40
0.4307682625897264
 40
0.4928812506175009
 40
0.55510394815525
 40
0.616067050993842
 40
0.6772560331746498
 40
0.738259805199114
 40
0.8007621343762914
 40
0.8647775815744835
 40
0.9310452949994042
 40
1.0
 40
1.0
 40
1.0
 40
1.0
 10
865.7769034985064
 20
576.441969507004
 30
0.0
 10
865.8662377607056
 20
576.4400359397019
 30
0.0
 10
866.041891240306
 20
576.4362340632854
 30
0.0
 10
866.29889454772
 20
576.3997269788414
 30
0.0
 10
866.5442268750757
 20
576.3422643168292
 30
0.0
 10
866.7773751497645
 20
576.2619888385741
 30
0.0
 10
866.9987706940783
 20
576.159338019844
 30
0.0
 10
867.2063765488908
 20
576.0311095847404
 30
0.0
 10
867.4033089214321
 20
575.8813191135413
 30
0.0
 10
867.5860348504702
 20
575.709101943348
 30
0.0
 10
867.7518046977056
 20
575.5195668193429
 30
0.0
 10
867.8975555312301
 20
575.315777399815
 30
0.0
 10
868.0213557376399
 20
575.0997141720788
 30
0.0
 10
868.1209231773573
 20
574.8693127806772
 30
0.0
 10
868.200430227131
 20
574.6271204300249
 30
0.0
 10
868.2533490724882
 20
574.3705888127625
 30
0.0
 10
868.2885872643998
 20
574.1021359670177
 30
0.0
 10
868.292524147416
 20
573.9185826639841
 30
0.0
 10
868.2945317036346
 20
573.8249823275168
 30
0.0
  0
SPLINE
  5
90
330
1F
100
AcDbEntity
  8
0
  6
Continuous
 62
     7
370
    25
100
AcDbSpline
210
0.0
220
0.0
230
1.0
 70
     8
 71
     3
 72
    11
 73
     7
 74
     0
 42
0.00000001
 43
0.00000001
 40
0.0
 40
0.0
 40
0.0
 40
0.0
 40
0.2750683690187544
 40
0.5329014600899402
 40
0.7739734595924502
 40
1.0
 40
1.0
 40
1.0
 40
1.0
 10
864.8345958061986
 20
576.2865207890553
 30
0.0
 10
864.9192949476242
 20
576.3099042674787
 30
0.0
 10
865.0833861380983
 20
576.3552060585872
 30
0.0
 10
865.3255801060152
 20
576.4055049624259
 30
0.0
 10
865.5555051425204
 20
576.4358259774145
 30
0.0
 10
865.7047059891729
 20
576.4399661157281
 30
0.0
 10
865.7769034985064
 20
576.441969507004
 30
0.0
  0
LINE
  5
91
330
1F
100
AcDbEntity
  8
0
  6
Continuous
 62
     7
370
    25
100
AcDbLine
 10
865.2656855498
 20
578.3906874557
 30
0.0
 11
864.8345958062
 21
576.2865207891
 31
0.0
  0
LINE
  5
92
330
1F
100
AcDbEntity
  8
0
  6
Continuous
 62
     7
370
    25
100
AcDbLine
 10
867.9868393959
 20
578.3906874557
 30
0.0
 11
865.2656855498
 21
578.3906874557
 31
0.0
  0
LINE
  5
93
330
1F
100
AcDbEntity
  8
0
  6
Continuous
 62
     7
370
    25
100
AcDbLine
 10
867.9868393959
 20
579.2112002762
 30
0.0
 11
867.9868393959
 21
578.3906874557
 31
0.0
  0
LINE
  5
94
330
1F
100
AcDbEntity
  8
0
  6
Continuous
 62
     7
370
    25
100
AcDbLine
 10
864.7047881139
 20
579.2112002762
 30
0.0
 11
867.9868393959
 21
579.2112002762
 31
0.0
  0
LINE
  5
95
330
1F
100
AcDbEntity
  8
0
  6
Continuous
 62
     7
370
    25
100
AcDbLine
 10
863.8842752934
 20
575.2112002762
 30
0.0
 11
864.7047881139
 21
579.2112002762
 31
0.0
  0
SPLINE
  5
96
330
1F
100
AcDbEntity
  8
0
  6
Continuous
 62
     7
370
    25
100
AcDbSpline
210
0.0
220
0.0
230
1.0
 70
     8
 71
     3
 72
    31
 73
    27
 74
     0
 42
0.00000001
 43
0.00000001
 40
0.0
 40
0.0
 40
0.0
 40
0.0
 40
0.0337881161627101
 40
0.067193932373881
 40
0.0998624108568257
 40
0.1325666121262576
 40
0.1651511732547862
 40
0.1979131873557934
 40
0.2313190035669629
 40
0.2650832782673748
 40
0.299255308758116
 40
0.3343985665049797
 40
0.3699428235093077
 40
0.4062835607000614
 40
0.4440638196985103
 40
0.4829977068727754
 40
0.5233544466133055
 40
0.565536589604151
 40
0.6096129240658197
 40
0.6563908113764182
 40
0.7058854949364577
 40
0.7583245002617333
 40
0.8138317829411519
 40
0.8727945590393911
 40
0.934722229540078
 40
1.0
 40
1.0
 40
1.0
 40
1.0
 10
871.7897240113268
 20
579.4163284813629
 30
0.0
 10
871.8533479621482
 20
579.4152134752471
 30
0.0
 10
871.9798759824812
 20
579.4129960788945
 30
0.0
 10
872.1669396973291
 20
579.391684210244
 30
0.0
 10
872.3496818269624
 20
579.3563216431653
 30
0.0
 10
872.527323286856
 20
579.3062165584049
 30
0.0
 10
872.7013232559253
 20
579.2440550117548
 30
0.0
 10
872.8703207591153
 20
579.1661416012195
 30
0.0
 10
873.0353655171543
 20
579.0754470472893
 30
0.0
 10
873.1938347457713
 20
578.9688781848741
 30
0.0
 10
873.3474681522765
 20
578.8500615535672
 30
0.0
 10
873.4924920676414
 20
578.7157468820168
 30
0.0
 10
873.6289196925497
 20
578.5672903808313
 30
0.0
 10
873.7584632477183
 20
578.4062804062333
 30
0.0
 10
873.877447469888
 20
578.2296287837567
 30
0.0
 10
873.9907581721404
 20
578.0404079613241
 30
0.0
 10
874.0921799684871
 20
577.8353088417956
 30
0.0
 10
874.1898592260382
 20
577.6177534867303
 30
0.0
 10
874.2741723385851
 20
577.3817222666008
 30
0.0
 10
874.3502094706361
 20
577.1285456711308
 30
0.0
 10
874.4116471130931
 20
576.8552332440375
 30
0.0
 10
874.462822592723
 20
576.5632189690773
 30
0.0
 10
874.5024680691702
 20
576.2514304359569
 30
0.0
 10
874.5313426796354
 20
575.9205360005014
 30
0.0
 10
874.5465954454443
 20
575.5703179647511
 30
0.0
 10
874.5494679053452
 20
575.3308714523462
 30
0.0
 10
874.5509419600448
 20
575.2079951480296
 30
0.0
  0
SPLINE
  5
97
330
1F
100
AcDbEntity
  8
0
  6
Continuous
 62
     7
370
    25
100
AcDbSpline
210
0.0
220
0.0
230
1.0
 70
     8
 71
     3
 72
    31
 73
    27
 74
     0
 42
0.00000001
 43
0.00000001
 40
0.0
 40
0.0
 40
0.0
 40
0.0
 40
0.0685946222587404
 40
0.133246042443298
 40
0.1943125864682554
 40
0.2512792231169643
 40
0.3045134392563454
 40
0.3542349066533245
 40
0.4004805887739888
 40
0.4434107549384909
 40
0.4840148686163446
 40
0.5232523007732013
 40
0.5610423727283601
 40
0.5979002393643993
 40
0.6335184888561952
 40
0.6683143511696527
 40
0.702495671286381
 40
0.7366853535134581
 40
0.7702931693607881
 40
0.8034372550192493
 40
0.8359129516660297
 40
0.8684602457892909
 40
0.900846538243183
 40
0.9334665246307084
 40
0.9662575752981225
 40
1.0
 40
1.0
 40
1.0
 40
1.0
 10
869.1150445241474
 20
575.2079951480296
 30
0.0
 10
869.1157942799359
 20
575.336217748565
 30
0.0
 10
869.1172506913618
 20
575.5852919982735
 30
0.0
 10
869.1334527963726
 20
575.9482283229976
 30
0.0
 10
869.160367864517
 20
576.2887089835581
 30
0.0
 10
869.1972532881748
 20
576.6067502773602
 30
0.0
 10
869.2421401001145
 20
576.9024343105434
 30
0.0
 10
869.302061212346
 20
577.1749708982836
 30
0.0
 10
869.3702047611802
 20
577.4256214276849
 30
0.0
 10
869.4491817801758
 20
577.6552032527728
 30
0.0
 10
869.5382967265033
 20
577.8668094311093
 30
0.0
 10
869.6352893224393
 20
578.0643527483522
 30
0.0
 10
869.7440088525506
 20
578.2475343079859
 30
0.0
 10
869.8582417963838
 20
578.4192778289458
 30
0.0
 10
869.9826122458188
 20
578.5767719884713
 30
0.0
 10
870.113580909744
 20
578.7222409313707
 30
0.0
 10
870.2562594840689
 20
578.8523226467166
 30
0.0
 10
870.4057977886939
 20
578.9708284807396
 30
0.0
 10
870.5635497073035
 20
579.0747129874183
 30
0.0
 10
870.7250186584879
 20
579.1662163899686
 30
0.0
 10
870.8913160433016
 20
579.2443875151289
 30
0.0
 10
871.0628958899254
 20
579.3058513685221
 30
0.0
 10
871.2382160222447
 20
579.356619018288
 30
0.0
 10
871.4178893175391
 20
579.3913366129088
 30
0.0
 10
871.6022124351078
 20
579.4131809751702
 30
0.0
 10
871.7266271432178
 20
579.4152693585763
 30
0.0
 10
871.7897240113268
 20
579.4163284813629
 30
0.0
  0
SPLINE
  5
98
330
1F
100
AcDbEntity
  8
0
  6
Continuous
 62
     7
370
    25
100
AcDbSpline
210
0.0
220
0.0
230
1.0
 70
     8
 71
     3
 72
    31
 73
    27
 74
     0
 42
0.00000001
 43
0.00000001
 40
0.0
 40
0.0
 40
0.0
 40
0.0
 40
0.0337871463469916
 40
0.066621657724293
 40
0.099284878095972
 40
0.1313611650426514
 40
0.1635851875953439
 40
0.1961039269870672
 40
0.228902254323816
 40
0.2621580559050084
 40
0.2959912222583154
 40
0.3302178457247986
 40
0.3650598258919543
 40
0.400950737340109
 40
0.4376203820767348
 40
0.4757075294370909
 40
0.515380691625048
 40
0.5564135414931631
 40
0.5997648298727302
 40
0.6464241555840855
 40
0.6964314445175632
 40
0.7497815178015563
 40
0.8065733069755284
 40
0.8674355315653958
 40
0.9318867532508699
 40
1.0
 40
1.0
 40
1.0
 40
1.0
 10
871.7897240113268
 20
571.0060720711066
 30
0.0
 10
871.7266288936463
 20
571.007138026441
 30
0.0
 10
871.6022176370394
 20
571.009239882298
 30
0.0
 10
871.4178692360349
 20
571.0309855542708
 30
0.0
 10
871.2389379367437
 20
571.0659467044707
 30
0.0
 10
871.0645407846577
 20
571.114898942393
 30
0.0
 10
870.8937830358949
 20
571.1748185682569
 30
0.0
 10
870.7289915235389
 20
571.252884130778
 30
0.0
 10
870.5683339608173
 20
571.342790574106
 30
0.0
 10
870.4122389756332
 20
571.4451801088221
 30
0.0
 10
870.2636397503992
 20
571.5624868131155
 30
0.0
 10
870.1217000811105
 20
571.6922337586847
 30
0.0
 10
869.989985751746
 20
571.837658698793
 30
0.0
 10
869.8673935331921
 20
571.996465380182
 30
0.0
 10
869.7508813316018
 20
572.1671927912283
 30
0.0
 10
869.6437056211578
 20
572.3521719296178
 30
0.0
 10
869.5445722404309
 20
572.5506693250227
 30
0.0
 10
869.4539585474743
 20
572.7639674065657
 30
0.0
 10
869.3736187451544
 20
572.9951786702453
 30
0.0
 10
869.3026525551808
 20
573.2469482211081
 30
0.0
 10
869.2466201952492
 20
573.5214982465117
 30
0.0
 10
869.1986591544885
 20
573.8166236570382
 30
0.0
 10
869.159974850389
 20
574.1335926407774
 30
0.0
 10
869.1335649639469
 20
574.472577276633
 30
0.0
 10
869.117241958151
 20
574.8333663256071
 30
0.0
 10
869.1157903686193
 20
575.0808400954737
 30
0.0
 10
869.1150445241474
 20
575.2079951480296
 30
0.0
  0
SPLINE
  5
99
330
1F
100
AcDbEntity
  8
0
  6
Continuous
 62
     7
370
    25
100
AcDbSpline
210
0.0
220
0.0
230
1.0
 70
     8
 71
     3
 72
    31
 73
    27
 74
     0
 42
0.00000001
 43
0.00000001
 40
0.0
 40
0.0
 40
0.0
 40
0.0
 40
0.0650632896172805
 40
0.1267731664665252
 40
0.1855157632260813
 40
0.2407646791677175
 40
0.2929797960236004
 40
0.3422503727797695
 40
0.3889192861856605
 40
0.4327756640583093
 40
0.4746284326311183
 40
0.5147746906379526
 40
0.5536058934984417
 40
0.5914264064311737
 40
0.6280281199460678
 40
0.6638036341103225
 40
0.698984336131664
 40
0.7335914893067058
 40
0.7676284691511411
 40
0.8012083477865906
 40
0.8342638397266223
 40
0.8669806947287756
 40
0.8997197415181608
 40
0.9327019124985375
 40
0.9661758834327498
 40
1.0
 40
1.0
 40
1.0
 40
1.0
 10
874.5509419600448
 20
575.2079951480296
 30
0.0
 10
874.5494526239445
 20
575.0856547870218
 30
0.0
 10
874.5465507132895
 20
574.847279582773
 30
0.0
 10
874.5315136692491
 20
574.4986373534707
 30
0.0
 10
874.5018939408405
 20
574.1694989687882
 30
0.0
 10
874.4648425389919
 20
573.859075054597
 30
0.0
 10
874.4135260521955
 20
573.5686576401215
 30
0.0
 10
874.3504285293354
 20
573.2972417579092
 30
0.0
 10
874.2803706486
 20
573.0436553083882
 30
0.0
 10
874.1938911192061
 20
572.809975738994
 30
0.0
 10
874.0992380669838
 20
572.5929432295889
 30
0.0
 10
873.9962547614401
 20
572.390275461978
 30
0.0
 10
873.8859237303872
 20
572.2001810787103
 30
0.0
 10
873.7657208846659
 20
572.0241816571535
 30
0.0
 10
873.6375987973599
 20
571.8610304409868
 30
0.0
 10
873.4988152801187
 20
571.7136073034976
 30
0.0
 10
873.3532825141713
 20
571.5783600532963
 30
0.0
 10
873.1991969922651
 20
571.4580134762398
 30
0.0
 10
873.0382563037346
 20
571.3526767799282
 30
0.0
 10
872.8737784136205
 20
571.2584736933273
 30
0.0
 10
872.7028449659696
 20
571.1825132474992
 30
0.0
 10
872.5293296454449
 20
571.1172902966929
 30
0.0
 10
872.3507505228965
 20
571.0674606923817
 30
0.0
 10
872.1673302013206
 20
571.0330061654774
 30
0.0
 10
871.9800016620551
 20
571.008841940438
 30
0.0
 10
871.8533695132979
 20
571.0069985578658
 30
0.0
 10
871.7897240113268
 20
571.0060720711066
 30
0.0
  0
SPLINE
  5
9A
330
1F
100
AcDbEntity
  8
0
  6
Continuous
 62
     7
370
    25
100
AcDbSpline
210
0.0
220
0.0
230
1.0
 70
     8
 71
     3
 72
    11
 73
     7
 74
     0
 42
0.00000001
 43
0.00000001
 40
0.0
 40
0.0
 40
0.0
 40
0.0
 40
0.2629516255674805
 40
0.5157066923583438
 40
0.7621092269531214
 40
1.0
 40
1.0
 40
1.0
 40
1.0
 10
858.4579932420961
 20
557.6086361736707
 30
0.0
 10
858.502071668517
 20
557.5913574140369
 30
0.0
 10
858.5885192782048
 20
557.5574699187245
 30
0.0
 10
858.7206908888735
 20
557.519650722585
 30
0.0
 10
858.8521081162135
 20
557.4989823570533
 30
0.0
 10
858.939234273623
 20
557.4951393098793
 30
0.0
 10
858.9820317036346
 20
557.493251558286
 30
0.0
  0
SPLINE
  5
9B
330
1F
100
AcDbEntity
  8
0
  6
Continuous
 62
     7
370
    25
100
AcDbSpline
210
0.0
220
0.0
230
1.0
 70
     8
 71
     3
 72
    11
 73
     7
 74
     0
 42
0.00000001
 43
0.00000001
 40
0.0
 40
0.0
 40
0.0
 40
0.0
 40
0.2991842876765383
 40
0.5648989463568046
 40
0.798547868842615
 40
1.0
 40
1.0
 40
1.0
 40
1.0
 10
857.4355573446602
 20
558.2112002762348
 30
0.0
 10
857.5331634681403
 20
558.1438919420845
 30
0.0
 10
857.7174565563236
 20
558.0168050307435
 30
0.0
 10
857.9883238497775
 20
557.8533156583069
 30
0.0
 10
858.2283173423626
 20
557.7131438513186
 30
0.0
 10
858.3853069362515
 20
557.6417100705377
 30
0.0
 10
858.4579932420961
 20
557.6086361736707
 30
0.0
  0
LINE
  5
9C
330
1F
100
AcDbEntity
  8
0
  6
Continuous
 62
     7
370
    25
100
AcDbLine
 10
857.0124804216
 20
557.5958156609
 30
0.0
 11
857.4355573447
 21
558.2112002762
 31
0.0
  0
SPLINE
  5
9D
330
1F
100
AcDbEntity
  8
0
  6
Continuous
 62
     7
370
    25
100
AcDbSpline
210
0.0
220
0.0
230
1.0
 70
     8
 71
     3
 72
    15
 73
    11
 74
     0
 42
0.00000001
 43
0.00000001
 40
0.0
 40
0.0
 40
0.0
 40
0.0
 40
0.1060709021051267
 40
0.2134216804124524
 40
0.3216854881303211
 40
0.4338579390981555
 40
0.5540812827743535
 40
0.6875870439665603
 40
0.8364658500651145
 40
1.0
 40
1.0
 40
1.0
 40
1.0
 10
858.9419676010705
 20
556.6727387377732
 30
0.0
 10
858.8643484964682
 20
556.6752087014968
 30
0.0
 10
858.7081737170747
 20
556.6801784321015
 30
0.0
 10
858.4757378113326
 20
556.7206852047865
 30
0.0
 10
858.2439618665169
 20
556.7831218752925
 30
0.0
 10
858.0116156977391
 20
556.874556379061
 30
0.0
 10
857.7741088603722
 20
556.99891203274
 30
0.0
 10
857.5282246393583
 20
557.1616201849208
 30
0.0
 10
857.2708002028809
 20
557.362377959543
 30
0.0
 10
857.1012384060655
 20
557.5156070923616
 30
0.0
 10
857.0124804215833
 20
557.5958156608501
 30
0.0
  0
SPLINE
  5
9E
330
1F
100
AcDbEntity
  8
0
  6
Continuous
 62
     7
370
    25
100
AcDbSpline
210
0.0
220
0.0
230
1.0
 70
     8
 71
     3
 72
    23
 73
    19
 74
     0
 42
0.00000001
 43
0.00000001
 40
0.0
 40
0.0
 40
0.0
 40
0.0
 40
0.0773606839426995
 40
0.1485419530250462
 40
0.2140077372521345
 40
0.2729945033606897
 40
0.3264091957674661
 40
0.373880400729806
 40
0.4160199382657583
 40
0.4521255195126357
 40
0.5180017107054588
 40
0.5823669297335127
 40
0.6470437823418086
 40
0.713330421064473
 40
0.780911970350966
 40
0.8503949591306434
 40
0.9229229735922757
 40
0.9999999999999999
 40
0.9999999999999999
 40
0.9999999999999999
 40
0.9999999999999999
 10
860.8073522164551
 20
559.4756233531579
 30
0.0
 10
860.8066346881537
 20
559.3757258196817
 30
0.0
 10
860.8052569462596
 20
559.1839103655176
 30
0.0
 10
860.7976811507499
 20
558.9076271749082
 30
0.0
 10
860.7836617726781
 20
558.6553513207289
 30
0.0
 10
860.7632388869878
 20
558.426509156174
 30
0.0
 10
860.7359926405338
 20
558.2218176012304
 30
0.0
 10
860.7048131476881
 20
558.0396950462252
 30
0.0
 10
860.667069607629
 20
557.8816614866187
 30
0.0
 10
860.6102319703008
 20
557.704209244932
 30
0.0
 10
860.5170343736239
 20
557.5095948341129
 30
0.0
 10
860.376766857864
 20
557.2994116327282
 30
0.0
 10
860.2025204660134
 20
557.1155638369561
 30
0.0
 10
860.000689533044
 20
556.9559004657201
 30
0.0
 10
859.7695100494332
 20
556.8286839373171
 30
0.0
 10
859.513742691435
 20
556.7373578152376
 30
0.0
 10
859.2349619201253
 20
556.6816530000963
 30
0.0
 10
859.0415922918912
 20
556.6757697884458
 30
0.0
 10
858.9419676010705
 20
556.6727387377732
 30
0.0
  0
LINE
  5
9F
330
1F
100
AcDbEntity
  8
0
  6
Continuous
 62
     7
370
    25
100
AcDbLine
 10
860.8073522165
 20
564.8778669429
 30
0.0
 11
860.8073522165
 21
559.4756233532
 31
0.0
  0
LINE
  5
A0
330
1F
100
AcDbEntity
  8
0
  6
Continuous
 62
     7
370
    25
100
AcDbLine
 10
860.0894034985
 20
564.8778669429
 30
0.0
 11
860.8073522165
 21
564.8778669429
 31
0.0
  0
LINE
  5
A1
330
1F
100
AcDbEntity
  8
0
  6
Continuous
 62
     7
370
    25
100
AcDbLine
 10
860.0894034985
 20
559.5557515583
 30
0.0
 11
860.0894034985
 21
564.8778669429
 31
0.0
  0
SPLINE
  5
A2
330
1F
100
AcDbEntity
  8
0
  6
Continuous
 62
     7
370
    25
100
AcDbSpline
210
0.0
220
0.0
230
1.0
 70
     8
 71
     3
 72
    23
 73
    19
 74
     0
 42
0.00000001
 43
0.00000001
 40
0.0
 40
0.0
 40
0.0
 40
0.0
 40
0.0623263659914396
 40
0.1231962451944494
 40
0.1840362202545539
 40
0.2469640854288938
 40
0.3106993957895692
 40
0.3732676370734455
 40
0.4365875799673862
 40
0.5021247910366445
 40
0.539004722034164
 40
0.5832553755259802
 40
0.6344465152828123
 40
0.6926760461021119
 40
0.75857048628653
 40
0.8316586747921118
 40
0.9119171022748284
 40
0.9999999999999999
 40
0.9999999999999999
 40
0.9999999999999999
 40
0.9999999999999999
 10
858.9820317036346
 20
557.493251558286
 30
0.0
 10
859.0373066486115
 20
557.495589238135
 30
0.0
 10
859.1465648343917
 20
557.5002099692701
 30
0.0
 10
859.3053396778388
 20
557.5410083127474
 30
0.0
 10
859.4572437491754
 20
557.6032812339217
 30
0.0
 10
859.5968315381606
 20
557.6944613339595
 30
0.0
 10
859.7254838514906
 20
557.8028760098441
 30
0.0
 10
859.8316388814046
 20
557.9339754582244
 30
0.0
 10
859.9201354402272
 20
558.0792691359534
 30
0.0
 10
859.9733918821713
 20
558.2168038875923
 30
0.0
 10
860.0073227896252
 20
558.3422361853596
 30
0.0
 10
860.0288579367271
 20
558.4575119245073
 30
0.0
 10
860.0476891604787
 20
558.5922810182237
 30
0.0
 10
860.0641041362535
 20
558.7467043332183
 30
0.0
 10
860.0737143546748
 20
558.9210910352339
 30
0.0
 10
860.0844966925603
 20
559.1149290762155
 30
0.0
 10
860.0883944317367
 20
559.3287071612351
 30
0.0
 10
860.0890568794387
 20
559.4777607656232
 30
0.0
 10
860.0894034985064
 20
559.555751558286
 30
0.0
  0
LINE
  5
A3
330
1F
100
AcDbEntity
  8
0
  6
Continuous
 62
     7
370
    25
100
AcDbLine
 10
863.5765829857
 20
564.8778669429
 30
0.0
 11
863.5765829857
 21
556.8778669429
 31
0.0
  0
LINE
  5
A4
330
1F
100
AcDbEntity
  8
0
  6
Continuous
 62
     7
370
    25
100
AcDbLine
 10
862.8586342677
 20
564.8778669429
 30
0.0
 11
863.5765829857
 21
564.8778669429
 31
0.0
  0
LINE
  5
A5
330
1F
100
AcDbEntity
  8
0
  6
Continuous
 62
     7
370
    25
100
AcDbLine
 10
862.8586342677
 20
556.8778669429
 30
0.0
 11
862.8586342677
 21
564.8778669429
 31
0.0
  0
LINE
  5
A6
330
1F
100
AcDbEntity
  8
0
  6
Continuous
 62
     7
370
    25
100
AcDbLine
 10
863.5765829857
 20
556.8778669429
 30
0.0
 11
862.8586342677
 21
556.8778669429
 31
0.0
  0
SPLINE
  5
A7
330
1F
100
AcDbEntity
  8
0
  6
Continuous
 62
     7
370
    25
100
AcDbSpline
210
0.0
220
0.0
230
1.0
 70
     8
 71
     3
 72
    19
 73
    15
 74
     0
 42
0.00000001
 43
0.00000001
 40
0.0
 40
0.0
 40
0.0
 40
0.0
 40
0.0969723103815162
 40
0.1877734389628641
 40
0.2723961390136888
 40
0.3513209973752904
 40
0.424334774451467
 40
0.4919087840005256
 40
0.5542332197968011
 40
0.611267658244153
 40
0.7163478449915506
 40
0.814540085821612
 40
0.9084954561491877
 40
0.9999999999999999
 40
0.9999999999999999
 40
0.9999999999999999
 40
0.9999999999999999
 10
867.6406855497885
 20
561.4195336095681
 30
0.0
 10
867.7275104944911
 20
561.3563533591687
 30
0.0
 10
867.8956349662134
 20
561.2340135608763
 30
0.0
 10
868.1348522917253
 20
561.0502062922423
 30
0.0
 10
868.3517524245137
 20
560.8704399640724
 30
0.0
 10
868.5470968898168
 20
560.6958625764241
 30
0.0
 10
868.7228155376791
 20
560.5277983638443
 30
0.0
 10
868.8769588992216
 20
560.3642253802326
 30
0.0
 10
869.0110975971579
 20
560.206315499816
 30
0.0
 10
869.1555072393526
 20
560.0038638982362
 30
0.0
 10
869.3030679696851
 20
559.7552214198948
 30
0.0
 10
869.4297914152306
 20
559.4505854460771
 30
0.0
 10
869.5096962094125
 20
559.1447652849411
 30
0.0
 10
869.5201453875426
 20
558.939218230141
 30
0.0
 10
869.5253009344037
 20
558.8378028403373
 30
0.0
  0
SPLINE
  5
A8
330
1F
100
AcDbEntity
  8
0
  6
Continuous
 62
     7
370
    25
100
AcDbSpline
210
0.0
220
0.0
230
1.0
 70
     8
 71
     3
 72
    15
 73
    11
 74
     0
 42
0.00000001
 43
0.00000001
 40
0.0
 40
0.0
 40
0.0
 40
0.0
 40
0.0525942815291441
 40
0.124951973975044
 40
0.2180938989285921
 40
0.3335024107325271
 40
0.4687891785044554
 40
0.6249375859646016
 40
0.8016830479282282
 40
0.9999999999999999
 40
0.9999999999999999
 40
0.9999999999999999
 40
0.9999999999999999
 10
866.5653650369679
 20
562.2160079685424
 30
0.0
 10
866.5828767453283
 20
562.2003804809634
 30
0.0
 10
866.624480555927
 20
562.1632531476394
 30
0.0
 10
866.7005398147604
 20
562.1024707918823
 30
0.0
 10
866.8009804964289
 20
562.027493026636
 30
0.0
 10
866.9231798134047
 20
561.9347220175507
 30
0.0
 10
867.0693909259236
 20
561.8271072469969
 30
0.0
 10
867.239629911397
 20
561.7060247049083
 30
0.0
 10
867.4319991293054
 20
561.5675436557497
 30
0.0
 10
867.5685063656473
 20
561.4707264200698
 30
0.0
 10
867.6406855497885
 20
561.4195336095681
 30
0.0
  0
SPLINE
  5
A9
330
1F
100
AcDbEntity
  8
0
  6
Continuous
 62
     7
370
    25
100
AcDbSpline
210
0.0
220
0.0
230
1.0
 70
     8
 71
     3
 72
    15
 73
    11
 74
     0
 42
0.00000001
 43
0.00000001
 40
0.0
 40
0.0
 40
0.0
 40
0.0
 40
0.1072852142689612
 40
0.2147458609696324
 40
0.3229385595552922
 40
0.4341161625174662
 40
0.5534123109628017
 40
0.6860729848107442
 40
0.8342559920595912
 40
1.0
 40
1.0
 40
1.0
 40
1.0
 10
866.0381214472243
 20
563.2496618146963
 30
0.0
 10
866.0390200223898
 20
563.206801292318
 30
0.0
 10
866.040818642068
 20
563.1210101621755
 30
0.0
 10
866.0659038939226
 20
562.9942640548522
 30
0.0
 10
866.0981309315405
 20
562.8678381361811
 30
0.0
 10
866.1491998041198
 20
562.7423008039887
 30
0.0
 10
866.2197033552414
 20
562.6154565547263
 30
0.0
 10
866.3122866144561
 20
562.4851211545924
 30
0.0
 10
866.4288884705703
 20
562.350145820485
 30
0.0
 10
866.5182073559449
 20
562.2623575375708
 30
0.0
 10
866.5653650369679
 20
562.2160079685424
 30
0.0
  0
SPLINE
  5
AA
330
1F
100
AcDbEntity
  8
0
  6
Continuous
 62
     7
370
    25
100
AcDbSpline
210
0.0
220
0.0
230
1.0
 70
     8
 71
     3
 72
    15
 73
    11
 74
     0
 42
0.00000001
 43
0.00000001
 40
0.0
 40
0.0
 40
0.0
 40
0.0
 40
0.1430730837303668
 40
0.2759029640930096
 40
0.4023708562739969
 40
0.5284136450935947
 40
0.6503563791869462
 40
0.765895086124684
 40
0.8807741308440145
 40
1.0
 40
1.0
 40
1.0
 40
1.0
 10
867.2111983703013
 20
564.2624823275168
 30
0.0
 10
867.1285548905173
 20
564.2597127276267
 30
0.0
 10
866.9691847249987
 20
564.2543718151428
 30
0.0
 10
866.7429213281815
 20
564.1960404201905
 30
0.0
 10
866.539278070894
 20
564.1041961680628
 30
0.0
 10
866.364300779337
 20
563.9754762181299
 30
0.0
 10
866.2186162603815
 20
563.8229710919925
 30
0.0
 10
866.1132323546332
 20
563.6474765661069
 30
0.0
 10
866.0498034070856
 20
563.4536882172965
 30
0.0
 10
866.0420633393118
 20
563.3185072885383
 30
0.0
 10
866.0381214472243
 20
563.2496618146963
 30
0.0
  0
SPLINE
  5
AB
330
1F
100
AcDbEntity
  8
0
  6
Continuous
 62
     7
370
    25
100
AcDbSpline
210
0.0
220
0.0
230
1.0
 70
     8
 71
     3
 72
    19
 73
    15
 74
     0
 42
0.00000001
 43
0.00000001
 40
0.0
 40
0.0
 40
0.0
 40
0.0
 40
0.098469431025559
 40
0.1896291011376237
 40
0.2741840894379706
 40
0.3521831609671553
 40
0.423198873183466
 40
0.4885509460005343
 40
0.5484733460279415
 40
0.6014401636178698
 40
0.7011980824257679
 40
0.7995918021381843
 40
0.8985450984822303
 40
0.9999999999999999
 40
0.9999999999999999
 40
0.9999999999999999
 40
0.9999999999999999
 10
868.7736983703012
 20
563.2368413018758
 30
0.0
 10
868.7345076675074
 20
563.2873297371275
 30
0.0
 10
868.6590355370569
 20
563.3845586587828
 30
0.0
 10
868.5444538528042
 20
563.5207216658828
 30
0.0
 10
868.4364569432721
 20
563.6451021905273
 30
0.0
 10
868.3300560294797
 20
563.7531367688816
 30
0.0
 10
868.230870586129
 20
563.8507416450824
 30
0.0
 10
868.1346030609931
 20
563.9343068035384
 30
0.0
 10
868.0426388295932
 20
564.0046510216644
 30
0.0
 10
867.9267144624023
 20
564.0797220158566
 30
0.0
 10
867.7810739633779
 20
564.1541368811247
 30
0.0
 10
867.5982521662595
 20
564.2171062024453
 30
0.0
 10
867.4071978233223
 20
564.2549463439739
 30
0.0
 10
867.2770729513436
 20
564.2599495155574
 30
0.0
 10
867.2111983703013
 20
564.2624823275168
 30
0.0
  0
LINE
  5
AC
330
1F
100
AcDbEntity
  8
0
  6
Continuous
 62
     7
370
    25
100
AcDbLine
 10
869.4227368318
 20
563.7288284814
 30
0.0
 11
868.7736983703
 21
563.2368413019
 31
0.0
  0
SPLINE
  5
AD
330
1F
100
AcDbEntity
  8
0
  6
Continuous
 62
     7
370
    25
100
AcDbSpline
210
0.0
220
0.0
230
1.0
 70
     8
 71
     3
 72
    19
 73
    15
 74
     0
 42
0.00000001
 43
0.00000001
 40
0.0
 40
0.0
 40
0.0
 40
0.0
 40
0.1072327993600864
 40
0.2132518127818491
 40
0.3188304473075893
 40
0.4267935306342746
 40
0.4836459507827209
 40
0.5436038220211405
 40
0.6083076495640816
 40
0.6771267602600416
 40
0.7506856360204978
 40
0.8287134184432856
 40
0.9121903482234479
 40
1.0
 40
1.0
 40
1.0
 40
1.0
 10
867.2913265754294
 20
565.0829951480296
 30
0.0
 10
867.385598804682
 20
565.0797436015172
 30
0.0
 10
867.5730761801033
 20
565.0732773132896
 30
0.0
 10
867.8488458156908
 20
565.0170543845587
 30
0.0
 10
868.1143560246065
 20
564.9240242776148
 30
0.0
 10
868.3279406299082
 20
564.8184502022375
 30
0.0
 10
868.4951012275352
 20
564.7130069663215
 30
0.0
 10
868.6225817593956
 20
564.6169616536841
 30
0.0
 10
868.7517645040506
 20
564.5063899768745
 30
0.0
 10
868.8836914865163
 20
564.3809974144041
 30
0.0
 10
869.0161272795201
 20
564.2396334119135
 30
0.0
 10
869.1510380275068
 20
564.0832661229781
 30
0.0
 10
869.2887392133598
 20
563.9128511381452
 30
0.0
 10
869.3773240365001
 20
563.7911951364207
 30
0.0
 10
869.4227368318396
 20
563.7288284813629
 30
0.0
  0
SPLINE
  5
AE
330
1F
100
AcDbEntity
  8
0
  6
Continuous
 62
     7
370
    25
100
AcDbSpline
210
0.0
220
0.0
230
1.0
 70
     8
 71
     3
 72
    19
 73
    15
 74
     0
 42
0.00000001
 43
0.00000001
 40
0.0
 40
0.0
 40
0.0
 40
0.0
 40
0.0837853706537072
 40
0.1657798879221353
 40
0.246280007893256
 40
0.3274609277363836
 40
0.4087969540320674
 40
0.4897152412309871
 40
0.5713760321300503
 40
0.6555233211112763
 40
0.7410194827999693
 40
0.8265467605037604
 40
0.9119888516548296
 40
1.0
 40
1.0
 40
1.0
 40
1.0
 10
865.3201727292757
 20
563.2160079685424
 30
0.0
 10
865.3231560641176
 20
563.3006474532618
 30
0.0
 10
865.329058967117
 20
563.4681173132275
 30
0.0
 10
865.3789801494494
 20
563.7127592113809
 30
0.0
 10
865.4577753349453
 20
563.946328165021
 30
0.0
 10
865.5681636500575
 20
564.1665117849633
 30
0.0
 10
865.7104661710134
 20
564.3675768841363
 30
0.0
 10
865.8751426838483
 20
564.5518362829523
 30
0.0
 10
866.0712832238196
 20
564.7067358994572
 30
0.0
 10
866.2864892198503
 20
564.842077747204
 30
0.0
 10
866.5220466417535
 20
564.9480112905345
 30
0.0
 10
866.7688829923768
 20
565.0279221023299
 30
0.0
 10
867.0273905855771
 20
565.0732004056234
 30
0.0
 10
867.2024834647162
 20
565.0796981539952
 30
0.0
 10
867.2913265754294
 20
565.0829951480296
 30
0.0
  0
SPLINE
  5
AF
330
1F
100
AcDbEntity
  8
0
  6
Continuous
 62
     7
370
    25
100
AcDbSpline
210
0.0
220
0.0
230
1.0
 70
     8
 71
     3
 72
    15
 73
    11
 74
     0
 42
0.00000001
 43
0.00000001
 40
0.0
 40
0.0
 40
0.0
 40
0.0
 40
0.1335067689985141
 40
0.2625589787303739
 40
0.3882644471488712
 40
0.5126673546814328
 40
0.6337222699657602
 40
0.7553938601370795
 40
0.8775529450912827
 40
1.0
 40
1.0
 40
1.0
 40
1.0
 10
865.7672881138909
 20
561.9980592505938
 30
0.0
 10
865.7319222962198
 20
562.0451473348318
 30
0.0
 10
865.6623706694418
 20
562.1377523720197
 30
0.0
 10
865.5705626569502
 20
562.2824949040604
 30
0.0
 10
865.4925302848395
 20
562.4306623678527
 30
0.0
 10
865.4313592399567
 20
562.582652915429
 30
0.0
 10
865.3798478826092
 20
562.7363327528702
 30
0.0
 10
865.3452011838257
 20
562.8937070287552
 30
0.0
 10
865.3235065623038
 20
563.0540695852453
 30
0.0
 10
865.3212848787997
 20
563.1619861580969
 30
0.0
 10
865.3201727292757
 20
563.2160079685424
 30
0.0
  0
SPLINE
  5
B0
330
1F
100
AcDbEntity
  8
0
  6
Continuous
 62
     7
370
    25
100
AcDbSpline
210
0.0
220
0.0
230
1.0
 70
     8
 71
     3
 72
    15
 73
    11
 74
     0
 42
0.00000001
 43
0.00000001
 40
0.0
 40
0.0
 40
0.0
 40
0.0
 40
0.1815353013762817
 40
0.3470816724816242
 40
0.4955678164315535
 40
0.6283573018772154
 40
0.7455196699921548
 40
0.8458307507576595
 40
0.9307818073847598
 40
1.0
 40
1.0
 40
1.0
 40
1.0
 10
867.0781855497885
 20
560.9099182249527
 30
0.0
 10
866.9940164156649
 20
560.9698692823682
 30
0.0
 10
866.8330914406243
 20
561.0844911389278
 30
0.0
 10
866.6080432524042
 20
561.2546037881019
 30
0.0
 10
866.4067987655244
 20
561.4101326327692
 30
0.0
 10
866.2302524420425
 20
561.552541803289
 30
0.0
 10
866.0784819349658
 20
561.6818506141002
 30
0.0
 10
865.9502912812192
 20
561.7968173321395
 30
0.0
 10
865.8489460078579
 20
561.9005511855529
 30
0.0
 10
865.7925903949242
 20
561.9678456809704
 30
0.0
 10
865.7672881138909
 20
561.9980592505938
 30
0.0
  0
SPLINE
  5
B1
330
1F
100
AcDbEntity
  8
0
  6
Continuous
 62
     7
370
    25
100
AcDbSpline
210
0.0
220
0.0
230
1.0
 70
     8
 71
     3
 72
    15
 73
    11
 74
     0
 42
0.00000001
 43
0.00000001
 40
0.0
 40
0.0
 40
0.0
 40
0.0
 40
0.0902792146500096
 40
0.1895299184469523
 40
0.2991978724002825
 40
0.4189258867738174
 40
0.5483762854012438
 40
0.6881363695386776
 40
0.8390835016589233
 40
1.0
 40
1.0
 40
1.0
 40
1.0
 10
868.5204932420961
 20
559.6342771993117
 30
0.0
 10
868.4846746953975
 20
559.6800985104051
 30
0.0
 10
868.4094781370206
 20
559.7762946214182
 30
0.0
 10
868.2802038225224
 20
559.9194837310764
 30
0.0
 10
868.1285098469671
 20
560.0671829743953
 30
0.0
 10
867.9595874357404
 20
560.2250322474224
 30
0.0
 10
867.7672832326762
 20
560.3856900684236
 30
0.0
 10
867.5576203426118
 20
560.5568175608555
 30
0.0
 10
867.3252458078321
 20
560.7319068798193
 30
0.0
 10
867.1622755298481
 20
560.8493298867829
 30
0.0
 10
867.0781855497885
 20
560.9099182249527
 30
0.0
  0
SPLINE
  5
B2
330
1F
100
AcDbEntity
  8
0
  6
Continuous
 62
     7
370
    25
100
AcDbSpline
210
0.0
220
0.0
230
1.0
 70
     8
 71
     3
 72
    11
 73
     7
 74
     0
 42
0.00000001
 43
0.00000001
 40
0.0
 40
0.0
 40
0.0
 40
0.0
 40
0.2347233736739053
 40
0.4771583189289941
 40
0.7285562842030481
 40
1.0
 40
1.0
 40
1.0
 40
1.0
 10
868.8073522164551
 20
558.8490207890553
 30
0.0
 10
868.8039823634282
 20
558.9156284455295
 30
0.0
 10
868.7971319446556
 20
559.0510320778716
 30
0.0
 10
868.7392314187755
 20
559.2508027131948
 30
0.0
 10
868.6481474259905
 20
559.4485000161073
 30
0.0
 10
868.5641185260935
 20
559.5707886231423
 30
0.0
 10
868.5204932420961
 20
559.6342771993117
 30
0.0
  0
SPLINE
  5
B3
330
1F
100
AcDbEntity
  8
0
  6
Continuous
 62
     7
370
    25
100
AcDbSpline
210
0.0
220
0.0
230
1.0
 70
     8
 71
     3
 72
    19
 73
    15
 74
     0
 42
0.00000001
 43
0.00000001
 40
0.0
 40
0.0
 40
0.0
 40
0.0
 40
0.0912636048966207
 40
0.1809303110850773
 40
0.2700882198317227
 40
0.3601561333877255
 40
0.4483425324981507
 40
0.53266584213833
 40
0.6138337041070441
 40
0.6939815272835567
 40
0.7727159770890023
 40
0.8493351720622495
 40
0.9239673265752373
 40
1.0
 40
1.0
 40
1.0
 40
1.0
 10
867.2400445241474
 20
557.493251558286
 30
0.0
 10
867.3101859196022
 20
557.4952050954568
 30
0.0
 10
867.449241400853
 20
557.4990779874867
 30
0.0
 10
867.6539550990499
 20
557.5362912493139
 30
0.0
 10
867.8527706470866
 20
557.5934618296875
 30
0.0
 10
868.0415903904706
 20
557.675338244564
 30
0.0
 10
868.2178089379713
 20
557.7743976405069
 30
0.0
 10
868.3723385273122
 20
557.8940460462378
 30
0.0
 10
868.505929643151
 20
558.0280030878691
 30
0.0
 10
868.6152076193046
 20
558.1774491556222
 30
0.0
 10
868.6990476999636
 20
558.3381740667245
 30
0.0
 10
868.7634867134794
 20
558.5031476697835
 30
0.0
 10
868.799246881837
 20
558.6749615401354
 30
0.0
 10
868.8046337468808
 20
558.7906425980733
 30
0.0
 10
868.8073522164551
 20
558.8490207890553
 30
0.0
  0
SPLINE
  5
B4
330
1F
100
AcDbEntity
  8
0
  6
Continuous
 62
     7
370
    25
100
AcDbSpline
210
0.0
220
0.0
230
1.0
 70
     8
 71
     3
 72
    15
 73
    11
 74
     0
 42
0.00000001
 43
0.00000001
 40
0.0
 40
0.0
 40
0.0
 40
0.0
 40
0.1590042985173752
 40
0.3046460998968106
 40
0.4385469045795899
 40
0.5623222987759259
 40
0.6774325425257289
 40
0.7868973929387545
 40
0.8936108891042616
 40
1.0
 40
1.0
 40
1.0
 40
1.0
 10
865.4836342677371
 20
558.8265848916194
 30
0.0
 10
865.5465330957384
 20
558.7212948688831
 30
0.0
 10
865.6670448228887
 20
558.5195632485198
 30
0.0
 10
865.8680765009515
 20
558.2469734418254
 30
0.0
 10
866.0763802979021
 20
558.0152885120906
 30
0.0
 10
866.2934987745865
 20
557.8258562662852
 30
0.0
 10
866.5181066560092
 20
557.6767159537193
 30
0.0
 10
866.7516702074073
 20
557.5711108526483
 30
0.0
 10
866.9934023461763
 20
557.5052457660852
 30
0.0
 10
867.1579139381294
 20
557.4972455682461
 30
0.0
 10
867.2400445241474
 20
557.493251558286
 30
0.0
  0
LINE
  5
B5
330
1F
100
AcDbEntity
  8
0
  6
Continuous
 62
     7
370
    25
100
AcDbLine
 10
864.8073522165
 20
558.4211361737
 30
0.0
 11
865.4836342677
 21
558.8265848916
 31
0.0
  0
SPLINE
  5
B6
330
1F
100
AcDbEntity
  8
0
  6
Continuous
 62
     7
370
    25
100
AcDbSpline
210
0.0
220
0.0
230
1.0
 70
     8
 71
     3
 72
    23
 73
    19
 74
     0
 42
0.00000001
 43
0.00000001
 40
0.0
 40
0.0
 40
0.0
 40
0.0
 40
0.0572082694335126
 40
0.1136960596574915
 40
0.1691779164171976
 40
0.2241592165805481
 40
0.2787198783810444
 40
0.3337942174469899
 40
0.3892414593400029
 40
0.4458220733936261
 40
0.5037042811090238
 40
0.5642938918193638
 40
0.6279754158952303
 40
0.695038259684058
 40
0.7653727258510143
 40
0.83961144309074
 40
0.9175377500777939
 40
1.0
 40
1.0
 40
1.0
 40
1.0
 10
867.2400445241474
 20
556.6727387377732
 30
0.0
 10
867.179620883048
 20
556.673907152853
 30
0.0
 10
867.0595345743519
 20
556.6762292680285
 30
0.0
 10
866.8819129014989
 20
556.6967579089935
 30
0.0
 10
866.7078795547607
 20
556.725802717202
 30
0.0
 10
866.5396183386825
 20
556.7719148771491
 30
0.0
 10
866.3749613977872
 20
556.8278622532455
 30
0.0
 10
866.2146248617279
 20
556.8967498706128
 30
0.0
 10
866.058531024343
 20
556.979303473921
 30
0.0
 10
865.9058051206439
 20
557.0736921016436
 30
0.0
 10
865.7568355787328
 20
557.1835383749318
 30
0.0
 10
865.6130196520381
 20
557.311477795362
 30
0.0
 10
865.4696386565793
 20
557.4539818067707
 30
0.0
 10
865.3309246078442
 20
557.6149202373116
 30
0.0
 10
865.1940717065738
 20
557.7916929981295
 30
0.0
 10
865.0617781990618
 20
557.9859539887522
 30
0.0
 10
864.9313057015098
 20
558.1966450830583
 30
0.0
 10
864.8494417750474
 20
558.3449081361323
 30
0.0
 10
864.8073522164551
 20
558.4211361736707
 30
0.0
  0
SPLINE
  5
B7
330
1F
100
AcDbEntity
  8
0
  6
Continuous
 62
     7
370
    25
100
AcDbSpline
210
0.0
220
0.0
230
1.0
 70
     8
 71
     3
 72
    23
 73
    19
 74
     0
 42
0.00000001
 43
0.00000001
 40
0.0
 40
0.0
 40
0.0
 40
0.0
 40
0.0614842551968871
 40
0.1217745277022083
 40
0.1809195598139297
 40
0.2402561150782742
 40
0.3001144444023502
 40
0.3611459476126108
 40
0.4235005824125908
 40
0.4886693612807205
 40
0.5539541046535627
 40
0.6175812610152625
 40
0.6802384268167407
 40
0.7421873887724537
 40
0.804663211769296
 40
0.8682589893126647
 40
0.9330202571803785
 40
0.9999999999999999
 40
0.9999999999999999
 40
0.9999999999999999
 40
0.9999999999999999
 10
869.5253009344037
 20
558.8378028403373
 30
0.0
 10
869.5237989044061
 20
558.766080862976
 30
0.0
 10
869.5208240128186
 20
558.6240297005918
 30
0.0
 10
869.4866276384674
 20
558.4154466677184
 30
0.0
 10
869.4365255466673
 20
558.2128618227265
 30
0.0
 10
869.361011869066
 20
558.0187792799949
 30
0.0
 10
869.2688446501862
 20
557.8296483938614
 30
0.0
 10
869.1518932264925
 20
557.6504303357792
 30
0.0
 10
869.0163328042349
 20
557.4771585675805
 30
0.0
 10
868.860827055882
 20
557.3144534444831
 30
0.0
 10
868.6906649934442
 20
557.1650907108021
 30
0.0
 10
868.5108165485008
 20
557.0322242845793
 30
0.0
 10
868.3209873532227
 20
556.92143954539
 30
0.0
 10
868.1222072008039
 20
556.8310376207044
 30
0.0
 10
867.9144304311878
 20
556.7603324377874
 30
0.0
 10
867.6977269252803
 20
556.709103022631
 30
0.0
 10
867.4717394710642
 20
556.6776613976859
 30
0.0
 10
867.3181383703271
 20
556.6743979429096
 30
0.0
 10
867.2400445241474
 20
556.6727387377732
 30
0.0
  0
LINE
  5
B8
330
1F
100
AcDbEntity
  8
0
  6
Continuous
 62
     7
370
    25
100
AcDbLine
 10
874.2432496524
 20
556.8778669429
 30
0.0
 11
874.2432496524
 21
558.7240207891
 31
0.0
  0
LINE
  5
B9
330
1F
100
AcDbEntity
  8
0
  6
Continuous
 62
     7
370
    25
100
AcDbLine
 10
874.9611983703
 20
556.8778669429
 30
0.0
 11
874.2432496524
 21
556.8778669429
 31
0.0
  0
LINE
  5
BA
330
1F
100
AcDbEntity
  8
0
  6
Continuous
 62
     7
370
    25
100
AcDbLine
 10
874.9611983703
 20
558.7240207891
 30
0.0
 11
874.9611983703
 21
556.8778669429
 31
0.0
  0
LINE
  5
BB
330
1F
100
AcDbEntity
  8
0
  6
Continuous
 62
     7
370
    25
100
AcDbLine
 10
875.8842752934
 20
558.7240207891
 30
0.0
 11
874.9611983703
 21
558.7240207891
 31
0.0
  0
LINE
  5
BC
330
1F
100
AcDbEntity
  8
0
  6
Continuous
 62
     7
370
    25
100
AcDbLine
 10
875.8842752934
 20
559.5445336096
 30
0.0
 11
875.8842752934
 21
558.7240207891
 31
0.0
  0
LINE
  5
BD
330
1F
100
AcDbEntity
  8
0
  6
Continuous
 62
     7
370
    25
100
AcDbLine
 10
874.9611983703
 20
559.5445336096
 30
0.0
 11
875.8842752934
 21
559.5445336096
 31
0.0
  0
LINE
  5
BE
330
1F
100
AcDbEntity
  8
0
  6
Continuous
 62
     7
370
    25
100
AcDbLine
 10
874.9611983703
 20
565.082995148
 30
0.0
 11
874.9611983703
 21
559.5445336096
 31
0.0
  0
LINE
  5
BF
330
1F
100
AcDbEntity
  8
0
  6
Continuous
 62
     7
370
    25
100
AcDbLine
 10
874.815365037
 20
565.082995148
 30
0.0
 11
874.9611983703
 21
565.082995148
 31
0.0
  0
LINE
  5
C0
330
1F
100
AcDbEntity
  8
0
  6
Continuous
 62
     7
370
    25
100
AcDbLine
 10
870.4483778575
 20
558.7240207891
 30
0.0
 11
874.815365037
 21
565.082995148
 31
0.0
  0
LINE
  5
C1
330
1F
100
AcDbEntity
  8
0
  6
Continuous
 62
     7
370
    25
100
AcDbLine
 10
874.2432496524
 20
558.7240207891
 30
0.0
 11
870.4483778575
 21
558.7240207891
 31
0.0
  0
LINE
  5
C2
330
1F
100
AcDbEntity
  8
0
  6
Continuous
 62
     7
370
    25
100
AcDbLine
 10
884.1919676011
 20
560.738443866
 30
0.0
 11
884.1919676011
 21
556.8778669429
 31
0.0
  0
LINE
  5
C3
330
1F
100
AcDbEntity
  8
0
  6
Continuous
 62
     7
370
    25
100
AcDbLine
 10
887.9019034985
 20
556.8778669429
 30
0.0
 11
884.1919676011
 21
560.738443866
 31
0.0
  0
LINE
  5
C4
330
1F
100
AcDbEntity
  8
0
  6
Continuous
 62
     7
370
    25
100
AcDbLine
 10
888.8586342677
 20
556.8778669429
 30
0.0
 11
887.9019034985
 21
556.8778669429
 31
0.0
  0
LINE
  5
C5
330
1F
100
AcDbEntity
  8
0
  6
Continuous
 62
     7
370
    25
100
AcDbLine
 10
884.6198522165
 20
561.2881233532
 30
0.0
 11
888.8586342677
 21
556.8778669429
 31
0.0
  0
LINE
  5
C6
330
1F
100
AcDbEntity
  8
0
  6
Continuous
 62
     7
370
    25
100
AcDbLine
 10
888.55094196
 20
564.8778669429
 30
0.0
 11
884.6198522165
 21
561.2881233532
 31
0.0
  0
LINE
  5
C7
330
1F
100
AcDbEntity
  8
0
  6
Continuous
 62
     7
370
    25
100
AcDbLine
 10
887.5269034985
 20
564.8778669429
 30
0.0
 11
888.55094196
 21
564.8778669429
 31
0.0
  0
LINE
  5
C8
330
1F
100
AcDbEntity
  8
0
  6
Continuous
 62
     7
370
    25
100
AcDbLine
 10
884.1919676011
 20
561.8313925839
 30
0.0
 11
887.5269034985
 21
564.8778669429
 31
0.0
  0
LINE
  5
C9
330
1F
100
AcDbEntity
  8
0
  6
Continuous
 62
     7
370
    25
100
AcDbLine
 10
884.1919676011
 20
564.8778669429
 30
0.0
 11
884.1919676011
 21
561.8313925839
 31
0.0
  0
LINE
  5
CA
330
1F
100
AcDbEntity
  8
0
  6
Continuous
 62
     7
370
    25
100
AcDbLine
 10
883.4740188831
 20
564.8778669429
 30
0.0
 11
884.1919676011
 21
564.8778669429
 31
0.0
  0
LINE
  5
CB
330
1F
100
AcDbEntity
  8
0
  6
Continuous
 62
     7
370
    25
100
AcDbLine
 10
883.4740188831
 20
556.8778669429
 30
0.0
 11
883.4740188831
 21
564.8778669429
 31
0.0
  0
LINE
  5
CC
330
1F
100
AcDbEntity
  8
0
  6
Continuous
 62
     7
370
    25
100
AcDbLine
 10
884.1919676011
 20
556.8778669429
 30
0.0
 11
883.4740188831
 21
556.8778669429
 31
0.0
  0
LINE
  5
CD
330
1F
100
AcDbEntity
  8
0
  6
Continuous
 62
     7
370
    25
100
AcDbLine
 10
859.268890678
 20
571.2112002762
 30
0.0
 11
859.268890678
 21
578.3906874557
 31
0.0
  0
LINE
  5
CE
330
1F
100
AcDbEntity
  8
0
  6
Continuous
 62
     7
370
    25
100
AcDbLine
 10
859.9868393959
 20
571.2112002762
 30
0.0
 11
859.268890678
 21
571.2112002762
 31
0.0
  0
LINE
  5
CF
330
1F
100
AcDbEntity
  8
0
  6
Continuous
 62
     7
370
    25
100
AcDbLine
 10
859.9868393959
 20
579.2112002762
 30
0.0
 11
859.9868393959
 21
571.2112002762
 31
0.0
  0
LINE
  5
D0
330
1F
100
AcDbEntity
  8
0
  6
Continuous
 62
     7
370
    25
100
AcDbLine
 10
858.5076727293
 20
579.2112002762
 30
0.0
 11
859.9868393959
 21
579.2112002762
 31
0.0
  0
LINE
  5
D1
330
1F
100
AcDbEntity
  8
0
  6
Continuous
 62
     7
370
    25
100
AcDbLine
 10
858.0381214472
 20
578.3906874557
 30
0.0
 11
858.5076727293
 21
579.2112002762
 31
0.0
  0
LINE
  5
D2
330
1F
100
AcDbEntity
  8
0
  6
Continuous
 62
     7
370
    25
100
AcDbLine
 10
859.268890678
 20
578.3906874557
 30
0.0
 11
858.0381214472
 21
578.3906874557
 31
0.0
  0
ARC
  5
D3
330
1F
100
AcDbEntity
  8
0
  6
Continuous
 62
     7
370
    25
100
AcDbCircle
 10
854.7638876862
 20
512.1153280681
 30
0.0
 40
5.000000000000057
100
AcDbArc
 50
180.0
 51
270.0
  0
LINE
  5
D4
330
1F
100
AcDbEntity
  8
0
  6
Continuous
 62
     7
370
    25
100
AcDbLine
 10
849.7638876862
 20
551.3462756828
 30
0.0
 11
849.7638876862
 21
512.1153280681
 31
0.0
  0
ARC
  5
D5
330
1F
100
AcDbEntity
  8
0
  6
Continuous
 62
     7
370
    25
100
AcDbCircle
 10
844.7638876862
 20
551.3462756828
 30
0.0
 40
5.000000000000009
100
AcDbArc
 50
0.0
 51
54.8763811907
  0
ARC
  5
D6
330
1F
100
AcDbEntity
  8
0
  6
Continuous
 62
     7
370
    25
100
AcDbCircle
 10
949.7638876862
 20
700.6153280681
 30
0.0
 40
177.5
100
AcDbArc
 50
305.1236188093
 51
234.8763811907
  0
ARC
  5
D7
330
1F
100
AcDbEntity
  8
0
  6
Continuous
 62
     7
370
    25
100
AcDbCircle
 10
1054.7638876862
 20
551.3462756828
 30
0.0
 40
5.000000000000009
100
AcDbArc
 50
125.1236188093
 51
180.0
  0
LINE
  5
D8
330
1F
100
AcDbEntity
  8
0
  6
Continuous
 62
     7
370
    25
100
AcDbLine
 10
1049.7638876862
 20
512.1153280681
 30
0.0
 11
1049.7638876862
 21
551.3462756828
 31
0.0
  0
ARC
  5
D9
330
1F
100
AcDbEntity
  8
0
  6
Continuous
 62
     7
370
    25
100
AcDbCircle
 10
1044.7638876862
 20
512.1153280681
 30
0.0
 40
5.000000000000057
100
AcDbArc
 50
270.0
 51
0.0
  0
LINE
  5
DA
330
1F
100
AcDbEntity
  8
0
  6
Continuous
 62
     7
370
    25
100
AcDbLine
 10
854.7638876862
 20
507.1153280681
 30
0.0
 11
1044.7638876862
 21
507.1153280681
 31
0.0
  0
CIRCLE
  5
DB
330
1F
100
AcDbEntity
  8
0
  6
Continuous
 62
     7
370
    25
100
AcDbCircle
 10
987.9396968388
 20
843.0893874457
 30
0.0
 40
16.50000000000011
  0
CIRCLE
  5
DC
330
1F
100
AcDbEntity
  8
0
  6
Continuous
 62
     7
370
    25
100
AcDbCircle
 10
845.4656374611
 20
804.9135782931
 30
0.0
 40
16.50000000000007
  0
CIRCLE
  5
DD
330
1F
100
AcDbEntity
  8
0
  6
Continuous
 62
     7
370
    25
100
AcDbCircle
 10
807.2898283085
 20
738.7911372207
 30
0.0
 40
16.5
  0
CIRCLE
  5
DE
330
1F
100
AcDbEntity
  8
0
  6
Continuous
 62
     7
370
    25
100
AcDbCircle
 10
807.2898283085
 20
662.4395189154
 30
0.0
 40
16.49999999999998
  0
CIRCLE
  5
DF
330
1F
100
AcDbEntity
  8
0
  6
Continuous
 62
     7
370
    25
100
AcDbCircle
 10
845.4656374611
 20
596.317077843
 30
0.0
 40
16.49999999999992
  0
CIRCLE
  5
E0
330
1F
100
AcDbEntity
  8
0
  6
Continuous
 62
     7
370
    25
100
AcDbCircle
 10
911.5880785335
 20
558.1412686904
 30
0.0
 40
16.5
  0
CIRCLE
  5
E1
330
1F
100
AcDbEntity
  8
0
  6
Continuous
 62
     7
370
    25
100
AcDbCircle
 10
987.9396968388
 20
558.1412686904
 30
0.0
 40
16.50000000000003
  0
CIRCLE
  5
E2
330
1F
100
AcDbEntity
  8
0
  6
Continuous
 62
     7
370
    25
100
AcDbCircle
 10
1054.0621379112
 20
596.317077843
 30
0.0
 40
16.49999999999996
  0
CIRCLE
  5
E3
330
1F
100
AcDbEntity
  8
0
  6
Continuous
 62
     7
370
    25
100
AcDbCircle
 10
1092.2379470638
 20
662.4395189154
 30
0.0
 40
16.5
  0
CIRCLE
  5
E4
330
1F
100
AcDbEntity
  8
0
  6
Continuous
 62
     7
370
    25
100
AcDbCircle
 10
1092.2379470638
 20
738.7911372207
 30
0.0
 40
16.49999999999998
  0
CIRCLE
  5
E5
330
1F
100
AcDbEntity
  8
0
  6
Continuous
 62
     7
370
    25
100
AcDbCircle
 10
1054.0621379112
 20
804.9135782931
 30
0.0
 40
16.50000000000011
  0
CIRCLE
  5
E6
330
1F
100
AcDbEntity
  8
0
  6
Continuous
 62
     7
370
    25
100
AcDbCircle
 10
911.5880785335
 20
843.0893874457
 30
0.0
 40
16.49999999999998
  0
CIRCLE
  5
E7
330
1F
100
AcDbEntity
  8
0
  6
Continuous
 62
     7
370
    25
100
AcDbCircle
 10
949.7638876862
 20
700.6153280681
 30
0.0
 40
98.69999999999982
  0
SPLINE
  5
E8
330
1F
100
AcDbEntity
  8
0
  6
Continuous
 62
     7
370
    25
100
AcDbSpline
210
0.0
220
0.0
230
1.0
 70
     8
 71
     3
 72
    31
 73
    27
 74
     0
 42
0.00000001
 43
0.00000001
 40
0.0
 40
0.0
 40
0.0
 40
0.0
 40
0.03378811616271
 40
0.0671939323738809
 40
0.0998624108568261
 40
0.1325666121262603
 40
0.1651511732547866
 40
0.1979131873557938
 40
0.2313190035669632
 40
0.2650832782673745
 40
0.2992553087581146
 40
0.33439856650498
 40
0.3699428235093097
 40
0.4062835607000635
 40
0.4440638196985083
 40
0.4829977068727767
 40
0.5233544466133035
 40
0.565536589604149
 40
0.6096129240658222
 40
0.6563908113764184
 40
0.7058854949364578
 40
0.7583245002617308
 40
0.8138317829411496
 40
0.8727945590393935
 40
0.9347222295400731
 40
1.0
 40
1.0
 40
1.0
 40
1.0
 10
879.2769034985064
 20
565.0829951480296
 30
0.0
 10
879.3405274493276
 20
565.0818801419138
 30
0.0
 10
879.4670554696607
 20
565.0796627455612
 30
0.0
 10
879.6541191845085
 20
565.0583508769106
 30
0.0
 10
879.8368613141419
 20
565.0229883098319
 30
0.0
 10
880.0145027740356
 20
564.9728832250715
 30
0.0
 10
880.1885027431048
 20
564.9107216784215
 30
0.0
 10
880.3575002462948
 20
564.8328082678862
 30
0.0
 10
880.5225450043338
 20
564.742113713956
 30
0.0
 10
880.6810142329506
 20
564.6355448515408
 30
0.0
 10
880.8346476394561
 20
564.516728220234
 30
0.0
 10
880.9796715548208
 20
564.3824135486834
 30
0.0
 10
881.1160991797293
 20
564.233957047498
 30
0.0
 10
881.2456427348978
 20
564.0729470729
 30
0.0
 10
881.3646269570676
 20
563.8962954504233
 30
0.0
 10
881.4779376593199
 20
563.7070746279909
 30
0.0
 10
881.5793594556666
 20
563.5019755084622
 30
0.0
 10
881.6770387132177
 20
563.2844201533969
 30
0.0
 10
881.7613518257645
 20
563.0483889332673
 30
0.0
 10
881.8373889578155
 20
562.7952123377975
 30
0.0
 10
881.8988266002725
 20
562.5218999107041
 30
0.0
 10
881.9500020799024
 20
562.2298856357439
 30
0.0
 10
881.9896475563497
 20
561.9180971026236
 30
0.0
 10
882.0185221668148
 20
561.5872026671681
 30
0.0
 10
882.0337749326237
 20
561.2369846314178
 30
0.0
 10
882.0366473925246
 20
560.9975381190129
 30
0.0
 10
882.0381214472243
 20
560.8746618146962
 30
0.0
  0
SPLINE
  5
E9
330
1F
100
AcDbEntity
  8
0
  6
Continuous
 62
     7
370
    25
100
AcDbSpline
210
0.0
220
0.0
230
1.0
 70
     8
 71
     3
 72
    31
 73
    27
 74
     0
 42
0.00000001
 43
0.00000001
 40
0.0
 40
0.0
 40
0.0
 40
0.0
 40
0.0685946222587404
 40
0.133246042443298
 40
0.1943125864682526
 40
0.251279223116964
 40
0.3045134392563475
 40
0.3542349066533247
 40
0.4004805887739883
 40
0.4434107549384927
 40
0.4840148686163455
 40
0.523252300773201
 40
0.5610423727283619
 40
0.597900239364401
 40
0.6335184888561929
 40
0.6683143511696522
 40
0.7024956712863822
 40
0.7366853535134592
 40
0.7702931693607877
 40
0.803437255019249
 40
0.8359129516660294
 40
0.8684602457892905
 40
0.9008465382431826
 40
0.9334665246307086
 40
0.9662575752981225
 40
1.0
 40
1.0
 40
1.0
 40
1.0
 10
876.6022240113268
 20
560.8746618146962
 30
0.0
 10
876.6029737671154
 20
561.0028844152317
 30
0.0
 10
876.6044301785413
 20
561.2519586649402
 30
0.0
 10
876.6206322835521
 20
561.6148949896643
 30
0.0
 10
876.6475473516965
 20
561.9553756502247
 30
0.0
 10
876.6844327753543
 20
562.2734169440268
 30
0.0
 10
876.729319587294
 20
562.5691009772102
 30
0.0
 10
876.7892406995254
 20
562.8416375649504
 30
0.0
 10
876.8573842483597
 20
563.0922880943515
 30
0.0
 10
876.9363612673551
 20
563.3218699194396
 30
0.0
 10
877.0254762136827
 20
563.5334760977761
 30
0.0
 10
877.122468809619
 20
563.7310194150189
 30
0.0
 10
877.23118833973
 20
563.9142009746527
 30
0.0
 10
877.3454212835634
 20
564.0859444956126
 30
0.0
 10
877.4697917329984
 20
564.2434386551378
 30
0.0
 10
877.6007603969234
 20
564.3889075980372
 30
0.0
 10
877.7434389712485
 20
564.5189893133831
 30
0.0
 10
877.8929772758734
 20
564.6374951474063
 30
0.0
 10
878.050729194483
 20
564.741379654085
 30
0.0
 10
878.2121981456676
 20
564.8328830566353
 30
0.0
 10
878.3784955304811
 20
564.9110541817954
 30
0.0
 10
878.5500753771049
 20
564.9725180351887
 30
0.0
 10
878.7253955094242
 20
565.0232856849547
 30
0.0
 10
878.9050688047186
 20
565.0580032795755
 30
0.0
 10
879.0893919222873
 20
565.0798476418369
 30
0.0
 10
879.2138066303974
 20
565.0819360252431
 30
0.0
 10
879.2769034985064
 20
565.0829951480296
 30
0.0
  0
SPLINE
  5
EA
330
1F
100
AcDbEntity
  8
0
  6
Continuous
 62
     7
370
    25
100
AcDbSpline
210
0.0
220
0.0
230
1.0
 70
     8
 71
     3
 72
    31
 73
    27
 74
     0
 42
0.00000001
 43
0.00000001
 40
0.0
 40
0.0
 40
0.0
 40
0.0
 40
0.0337871463469914
 40
0.0666216577242928
 40
0.0992848780959719
 40
0.1313611650426514
 40
0.1635851875953439
 40
0.1961039269870672
 40
0.228902254323816
 40
0.2621580559050084
 40
0.2959912222583135
 40
0.3302178457247986
 40
0.3650598258919543
 40
0.400950737340109
 40
0.437620382076739
 40
0.4757075294370908
 40
0.5153806916250478
 40
0.5564135414931631
 40
0.5997648298727302
 40
0.6464241555840855
 40
0.6964314445175633
 40
0.7497815178015563
 40
0.8065733069755332
 40
0.8674355315654004
 40
0.9318867532508699
 40
1.0
 40
1.0
 40
1.0
 40
1.0
 10
879.2769034985064
 20
556.6727387377732
 30
0.0
 10
879.2138083808258
 20
556.6738046931076
 30
0.0
 10
879.0893971242189
 20
556.6759065489646
 30
0.0
 10
878.9050487232143
 20
556.6976522209375
 30
0.0
 10
878.7261174239231
 20
556.7326133711373
 30
0.0
 10
878.5517202718371
 20
556.7815656090597
 30
0.0
 10
878.3809625230745
 20
556.8414852349237
 30
0.0
 10
878.2161710107183
 20
556.9195507974446
 30
0.0
 10
878.0555134479969
 20
557.0094572407727
 30
0.0
 10
877.8994184628126
 20
557.1118467754887
 30
0.0
 10
877.7508192375786
 20
557.2291534797821
 30
0.0
 10
877.6088795682899
 20
557.3589004253512
 30
0.0
 10
877.4771652389255
 20
557.5043253654596
 30
0.0
 10
877.3545730203716
 20
557.6631320468487
 30
0.0
 10
877.2380608187813
 20
557.833859457895
 30
0.0
 10
877.1308851083372
 20
558.0188385962846
 30
0.0
 10
877.0317517276103
 20
558.2173359916893
 30
0.0
 10
876.9411380346537
 20
558.4306340732323
 30
0.0
 10
876.8607982323339
 20
558.6618453369119
 30
0.0
 10
876.7898320423602
 20
558.9136148877747
 30
0.0
 10
876.7337996824288
 20
559.1881649131783
 30
0.0
 10
876.6858386416678
 20
559.4832903237049
 30
0.0
 10
876.6471543375685
 20
559.800259307444
 30
0.0
 10
876.6207444511265
 20
560.1392439432997
 30
0.0
 10
876.6044214453304
 20
560.5000329922738
 30
0.0
 10
876.6029698557986
 20
560.7475067621402
 30
0.0
 10
876.6022240113268
 20
560.8746618146962
 30
0.0
  0
SPLINE
  5
EB
330
1F
100
AcDbEntity
  8
0
  6
Continuous
 62
     7
370
    25
100
AcDbSpline
210
0.0
220
0.0
230
1.0
 70
     8
 71
     3
 72
    31
 73
    27
 74
     0
 42
0.00000001
 43
0.00000001
 40
0.0
 40
0.0
 40
0.0
 40
0.0
 40
0.0650632896172805
 40
0.1267731664665252
 40
0.1855157632260813
 40
0.2407646791677175
 40
0.2929797960236004
 40
0.342250372779769
 40
0.3889192861856607
 40
0.4327756640583095
 40
0.4746284326311185
 40
0.5147746906379528
 40
0.5536058934984431
 40
0.5914264064311752
 40
0.6280281199460677
 40
0.6638036341103225
 40
0.6989843361316639
 40
0.7335914893067038
 40
0.7676284691511391
 40
0.8012083477865928
 40
0.8342638397266247
 40
0.8669806947287756
 40
0.8997197415181608
 40
0.9327019124985377
 40
0.9661758834327501
 40
1.0
 40
1.0
 40
1.0
 40
1.0
 10
882.0381214472243
 20
560.8746618146962
 30
0.0
 10
882.0366321111239
 20
560.7523214536885
 30
0.0
 10
882.033730200469
 20
560.5139462494398
 30
0.0
 10
882.0186931564285
 20
560.1653040201375
 30
0.0
 10
881.98907342802
 20
559.8361656354549
 30
0.0
 10
881.9520220261714
 20
559.5257417212636
 30
0.0
 10
881.900705539375
 20
559.2353243067882
 30
0.0
 10
881.8376080165149
 20
558.9639084245758
 30
0.0
 10
881.7675501357794
 20
558.7103219750549
 30
0.0
 10
881.6810706063857
 20
558.4766424056608
 30
0.0
 10
881.5864175541634
 20
558.2596098962556
 30
0.0
 10
881.4834342486197
 20
558.0569421286448
 30
0.0
 10
881.3731032175667
 20
557.866847745377
 30
0.0
 10
881.2529003718455
 20
557.6908483238201
 30
0.0
 10
881.1247782845394
 20
557.5276971076535
 30
0.0
 10
880.9859947672982
 20
557.3802739701644
 30
0.0
 10
880.8404620013508
 20
557.2450267199628
 30
0.0
 10
880.6863764794447
 20
557.1246801429065
 30
0.0
 10
880.525435790914
 20
557.0193434465948
 30
0.0
 10
880.3609579007999
 20
556.9251403599941
 30
0.0
 10
880.1900244531491
 20
556.8491799141658
 30
0.0
 10
880.0165091326245
 20
556.7839569633596
 30
0.0
 10
879.8379300100761
 20
556.7341273590483
 30
0.0
 10
879.6545096885001
 20
556.6996728321441
 30
0.0
 10
879.4671811492346
 20
556.6755086071047
 30
0.0
 10
879.3405490004774
 20
556.6736652245326
 30
0.0
 10
879.2769034985064
 20
556.6727387377732
 30
0.0
  0
SPLINE
  5
EC
330
1F
100
AcDbEntity
  8
0
  6
Continuous
 62
     7
370
    25
100
AcDbSpline
210
0.0
220
0.0
230
1.0
 70
     8
 71
     3
 72
    23
 73
    19
 74
     0
 42
0.00000001
 43
0.00000001
 40
0.0
 40
0.0
 40
0.0
 40
0.0
 40
0.0611602766365148
 40
0.1203345577262038
 40
0.1781802550631234
 40
0.2352351259863659
 40
0.2926829614441779
 40
0.3511862482150778
 40
0.4104566095096928
 40
0.4717198544629954
 40
0.5337612027725924
 40
0.5957390238870961
 40
0.6578875151248859
 40
0.7212951802914623
 40
0.7868225145418922
 40
0.8546861538286868
 40
0.9254779862699997
 40
1.0
 40
1.0
 40
1.0
 40
1.0
 10
888.9099163190192
 20
573.482033609568
 30
0.0
 10
888.9076835281087
 20
573.4039379018609
 30
0.0
 10
888.9032904494393
 20
573.2502824090465
 30
0.0
 10
888.8708790853325
 20
573.0245563872168
 30
0.0
 10
888.8160011264961
 20
572.8088422235303
 30
0.0
 10
888.7404099348054
 20
572.6017446630634
 30
0.0
 10
888.6417532157235
 20
572.4036643557018
 30
0.0
 10
888.5216892972517
 20
572.2143768951613
 30
0.0
 10
888.3785314375423
 20
572.0357841394743
 30
0.0
 10
888.2183877370809
 20
571.8659015723817
 30
0.0
 10
888.0372171188209
 20
571.7131523441765
 30
0.0
 10
887.8417525361408
 20
571.5771164431907
 30
0.0
 10
887.6295323763838
 20
571.4652397297839
 30
0.0
 10
887.4040421043463
 20
571.371260252063
 30
0.0
 10
887.1627522389424
 20
571.2994723698572
 30
0.0
 10
886.9067462792628
 20
571.2492493438017
 30
0.0
 10
886.6362450179257
 20
571.2154092592334
 30
0.0
 10
886.4506227296708
 20
571.2126270766165
 30
0.0
 10
886.355429139532
 20
571.2112002762348
 30
0.0
  0
SPLINE
  5
ED
330
1F
100
AcDbEntity
  8
0
  6
Continuous
 62
     7
370
    25
100
AcDbSpline
210
0.0
220
0.0
230
1.0
 70
     8
 71
     3
 72
    19
 73
    15
 74
     0
 42
0.00000001
 43
0.00000001
 40
0.0
 40
0.0
 40
0.0
 40
0.0
 40
0.1060574933033945
 40
0.2029142570846077
 40
0.2903001653958374
 40
0.3702225656250404
 40
0.4463837207709712
 40
0.5213968999648269
 40
0.5982910828464566
 40
0.6761424688569259
 40
0.755528699556025
 40
0.834887172457659
 40
0.9166460487466404
 40
1.0
 40
1.0
 40
1.0
 40
1.0
 10
887.369852216455
 20
575.5269054044398
 30
0.0
 10
887.4607331938146
 20
575.4920139782898
 30
0.0
 10
887.634611016396
 20
575.4252580368158
 30
0.0
 10
887.8738933305261
 20
575.3072341191082
 30
0.0
 10
888.0800529762316
 20
575.1788635810708
 30
0.0
 10
888.2546750241977
 20
575.0386764950282
 30
0.0
 10
888.4040182354358
 20
574.8875706417936
 30
0.0
 10
888.534424959031
 20
574.7233303806545
 30
0.0
 10
888.6456966713987
 20
574.5438132197918
 30
0.0
 10
888.7410404966915
 20
574.3508908532492
 30
0.0
 10
888.8154376533229
 20
574.1465332112906
 30
0.0
 10
888.871154006168
 20
573.9326571516395
 30
0.0
 10
888.9030796041927
 20
573.7100295969095
 30
0.0
 10
888.9076227842571
 20
573.5585201584215
 30
0.0
 10
888.9099163190192
 20
573.482033609568
 30
0.0
  0
SPLINE
  5
EE
330
1F
100
AcDbEntity
  8
0
  6
Continuous
 62
     7
370
    25
100
AcDbSpline
210
0.0
220
0.0
230
1.0
 70
     8
 71
     3
 72
    15
 73
    11
 74
     0
 42
0.00000001
 43
0.00000001
 40
0.0
 40
0.0
 40
0.0
 40
0.0
 40
0.1305691070873106
 40
0.2565806086940803
 40
0.3805516168036811
 40
0.5036229172007084
 40
0.6257393231697883
 40
0.7475485819596241
 40
0.8717661185648661
 40
1.0
 40
1.0
 40
1.0
 40
1.0
 10
888.2945317036346
 20
577.2288284813629
 30
0.0
 10
888.292032918623
 20
577.1404797826705
 30
0.0
 10
888.2871225704283
 20
576.9668662580509
 30
0.0
 10
888.2401676919535
 20
576.7129368654028
 30
0.0
 10
888.1666575926631
 20
576.4712197937973
 30
0.0
 10
888.0644741660027
 20
576.2425971985588
 30
0.0
 10
887.9316696032641
 20
576.0322346542257
 30
0.0
 10
887.774279160601
 20
575.8384351889799
 30
0.0
 10
887.584389326336
 20
575.6694042015629
 30
0.0
 10
887.4421190635064
 20
575.5749061385898
 30
0.0
 10
887.369852216455
 20
575.5269054044398
 30
0.0
  0
SPLINE
  5
EF
330
1F
100
AcDbEntity
  8
0
  6
Continuous
 62
     7
370
    25
100
AcDbSpline
210
0.0
220
0.0
230
1.0
 70
     8
 71
     3
 72
    23
 73
    19
 74
     0
 42
0.00000001
 43
0.00000001
 40
0.0
 40
0.0
 40
0.0
 40
0.0
 40
0.0625940971873324
 40
0.1213229386347502
 40
0.1766801421977652
 40
0.2283650957096766
 40
0.2768684458368049
 40
0.3218791276660435
 40
0.3640986251098912
 40
0.403355696242699
 40
0.4779679481633715
 40
0.550535461364775
 40
0.6235844567403224
 40
0.698174882264205
 40
0.7733536703408738
 40
0.8472811254977323
 40
0.9228183395566674
 40
1.0
 40
1.0
 40
1.0
 40
1.0
 10
885.7528650369679
 20
579.2112002762348
 30
0.0
 10
885.8292729871115
 20
579.2107985610307
 30
0.0
 10
885.9773706107376
 20
579.2100199369872
 30
0.0
 10
886.1927293349175
 20
579.1979442086514
 30
0.0
 10
886.394440902096
 20
579.1814786775002
 30
0.0
 10
886.5825638103256
 20
579.1553527514562
 30
0.0
 10
886.7570111300768
 20
579.1238286894097
 30
0.0
 10
886.9183085866204
 20
579.0856531097747
 30
0.0
 10
887.0659432660908
 20
579.0398779928397
 30
0.0
 10
887.2422009493048
 20
578.96708649288
 30
0.0
 10
887.4431624598851
 20
578.8589192509377
 30
0.0
 10
887.6607587860633
 20
578.6990825305971
 30
0.0
 10
887.8468256188846
 20
578.5035797577505
 30
0.0
 10
888.0072514868639
 20
578.2830479739235
 30
0.0
 10
888.1347969031182
 20
578.0404519242069
 30
0.0
 10
888.2270695826969
 20
577.7815737784298
 30
0.0
 10
888.2854875835167
 20
577.5097526540421
 30
0.0
 10
888.291495433153
 20
577.3231396760332
 30
0.0
 10
888.2945317036346
 20
577.2288284813629
 30
0.0
  0
LINE
  5
F0
330
1F
100
AcDbEntity
  8
0
  6
Continuous
 62
     7
370
    25
100
AcDbLine
 10
884.1919676011
 20
579.2112002762
 30
0.0
 11
885.752865037
 21
579.2112002762
 31
0.0
  0
LINE
  5
F1
330
1F
100
AcDbEntity
  8
0
  6
Continuous
 62
     7
370
    25
100
AcDbLine
 10
884.1919676011
 20
571.2112002762
 30
0.0
 11
884.1919676011
 21
579.2112002762
 31
0.0
  0
LINE
  5
F2
330
1F
100
AcDbEntity
  8
0
  6
Continuous
 62
     7
370
    25
100
AcDbLine
 10
886.3554291395
 20
571.2112002762
 30
0.0
 11
884.1919676011
 21
571.2112002762
 31
0.0
  0
LINE
  5
F3
330
1F
100
AcDbEntity
  8
0
  6
Continuous
 62
     7
370
    25
100
AcDbLine
 10
881.9772240113
 20
571.2112002762
 30
0.0
 11
876.7047881139
 21
577.4932515583
 31
0.0
  0
LINE
  5
F4
330
1F
100
AcDbEntity
  8
0
  6
Continuous
 62
     7
370
    25
100
AcDbLine
 10
882.1406855498
 20
571.2112002762
 30
0.0
 11
881.9772240113
 21
571.2112002762
 31
0.0
  0
LINE
  5
F5
330
1F
100
AcDbEntity
  8
0
  6
Continuous
 62
     7
370
    25
100
AcDbLine
 10
882.1406855498
 20
579.2112002762
 30
0.0
 11
882.1406855498
 21
571.2112002762
 31
0.0
  0
LINE
  5
F6
330
1F
100
AcDbEntity
  8
0
  6
Continuous
 62
     7
370
    25
100
AcDbLine
 10
881.4227368318
 20
579.2112002762
 30
0.0
 11
882.1406855498
 21
579.2112002762
 31
0.0
  0
LINE
  5
F7
330
1F
100
AcDbEntity
  8
0
  6
Continuous
 62
     7
370
    25
100
AcDbLine
 10
881.4227368318
 20
572.9147259173
 30
0.0
 11
881.4227368318
 21
579.2112002762
 31
0.0
  0
LINE
  5
F8
330
1F
100
AcDbEntity
  8
0
  6
Continuous
 62
     7
370
    25
100
AcDbLine
 10
876.1374804216
 20
579.2112002762
 30
0.0
 11
881.4227368318
 21
572.9147259173
 31
0.0
  0
LINE
  5
F9
330
1F
100
AcDbEntity
  8
0
  6
Continuous
 62
     7
370
    25
100
AcDbLine
 10
875.9868393959
 20
579.2112002762
 30
0.0
 11
876.1374804216
 21
579.2112002762
 31
0.0
  0
LINE
  5
FA
330
1F
100
AcDbEntity
  8
0
  6
Continuous
 62
     7
370
    25
100
AcDbLine
 10
875.9868393959
 20
571.2112002762
 30
0.0
 11
875.9868393959
 21
579.2112002762
 31
0.0
  0
LINE
  5
FB
330
1F
100
AcDbEntity
  8
0
  6
Continuous
 62
     7
370
    25
100
AcDbLine
 10
876.7047881139
 20
571.2112002762
 30
0.0
 11
875.9868393959
 21
571.2112002762
 31
0.0
  0
LINE
  5
FC
330
1F
100
AcDbEntity
  8
0
  6
Continuous
 62
     7
370
    25
100
AcDbLine
 10
876.7047881139
 20
577.4932515583
 30
0.0
 11
876.7047881139
 21
571.2112002762
 31
0.0
  0
LINE
  5
FD
330
1F
100
AcDbEntity
  8
0
  6
Continuous
 62
     7
370
    25
100
AcDbLine
 10
884.909916319
 20
578.3906874557
 30
0.0
 11
884.909916319
 21
575.8265848916
 31
0.0
  0
SPLINE
  5
FE
330
1F
100
AcDbEntity
  8
0
  6
Continuous
 62
     7
370
    25
100
AcDbSpline
210
0.0
220
0.0
230
1.0
 70
     8
 71
     3
 72
    23
 73
    19
 74
     0
 42
0.00000001
 43
0.00000001
 40
0.0
 40
0.0
 40
0.0
 40
0.0
 40
0.0723010339955039
 40
0.139700331739383
 40
0.2022885114847722
 40
0.2605995332222003
 40
0.313190329155335
 40
0.3617389329854263
 40
0.4057064756322212
 40
0.4455399848948702
 40
0.5188319558616108
 40
0.5897782395835754
 40
0.658867478656148
 40
0.7284304780610651
 40
0.7972827036080993
 40
0.8648153774014437
 40
0.9313637528792686
 40
0.9999999999999999
 40
0.9999999999999999
 40
0.9999999999999999
 40
0.9999999999999999
 10
885.3922881138909
 20
575.8265848916193
 30
0.0
 10
885.4627996461571
 20
575.8274990013485
 30
0.0
 10
885.5990422958771
 20
575.8292652476295
 30
0.0
 10
885.7963449165827
 20
575.8343247151996
 30
0.0
 10
885.9794878153169
 20
575.8484916715813
 30
0.0
 10
886.1481548623431
 20
575.8626545562776
 30
0.0
 10
886.3020804485525
 20
575.8856821852235
 30
0.0
 10
886.4409235605574
 20
575.9130927518803
 30
0.0
 10
886.5668632107025
 20
575.9420822492436
 30
0.0
 10
886.7120964576429
 20
575.9913839335873
 30
0.0
 10
886.8768346255472
 20
576.0642471911506
 30
0.0
 10
887.0524531493288
 20
576.1773256737105
 30
0.0
 10
887.2072747941033
 20
576.3120099095942
 30
0.0
 10
887.338011223176
 20
576.467417822177
 30
0.0
 10
887.4450088700985
 20
576.63854053271
 30
0.0
 10
887.5193259333082
 20
576.8226476879893
 30
0.0
 10
887.5697197257255
 20
577.0151508469277
 30
0.0
 10
887.5742717973991
 20
577.1473068533044
 30
0.0
 10
887.5765829856858
 20
577.21440540444
 30
0.0
  0
SPLINE
  5
FF
330
1F
100
AcDbEntity
  8
0
  6
Continuous
 62
     7
370
    25
100
AcDbSpline
210
0.0
220
0.0
230
1.0
 70
     8
 71
     3
 72
    23
 73
    19
 74
     0
 42
0.00000001
 43
0.00000001
 40
0.0
 40
0.0
 40
0.0
 40
0.0
 40
0.0570031325129265
 40
0.1118178691207242
 40
0.1644023722182129
 40
0.2158698048987943
 40
0.2668411100818672
 40
0.317478963205357
 40
0.3699021362727584
 40
0.4234004494436392
 40
0.479718398299448
 40
0.539241496644296
 40
0.6024306889434249
 40
0.6710295461473333
 40
0.7444847975608468
 40
0.8234539713786808
 40
0.9087403127306636
 40
1.0
 40
1.0
 40
1.0
 40
1.0
 10
887.5765829856858
 20
577.2144054044398
 30
0.0
 10
887.5753802881229
 20
577.2588071678994
 30
0.0
 10
887.5730210655195
 20
577.3459060755623
 30
0.0
 10
887.553699230994
 20
577.4728760279199
 30
0.0
 10
887.5208590608554
 20
577.5922903193764
 30
0.0
 10
887.4786778191637
 20
577.705785428689
 30
0.0
 10
887.4197322449548
 20
577.8098125149069
 30
0.0
 10
887.3503300431219
 20
577.9079683907806
 30
0.0
 10
887.2664770367453
 20
577.9969103759165
 30
0.0
 10
887.1710317506745
 20
578.0800406577799
 30
0.0
 10
887.0612977555696
 20
578.1537424356042
 30
0.0
 10
886.9373405171254
 20
578.2182927514294
 30
0.0
 10
886.7974829695443
 20
578.2702716695549
 30
0.0
 10
886.6440821581582
 20
578.3157943037894
 30
0.0
 10
886.4747768153042
 20
578.3477675468025
 30
0.0
 10
886.2915206932273
 20
578.3744038614474
 30
0.0
 10
886.0928127640228
 20
578.3879644146006
 30
0.0
 10
885.9553382439641
 20
578.3897595297427
 30
0.0
 10
885.8842752933781
 20
578.3906874557218
 30
0.0
  0
LINE
  5
100
330
1F
100
AcDbEntity
  8
0
  6
Continuous
 62
     7
370
    25
100
AcDbLine
 10
885.8842752934
 20
578.3906874557
 30
0.0
 11
884.909916319
 21
578.3906874557
 31
0.0
  0
LINE
  5
101
330
1F
100
AcDbEntity
  8
0
  6
Continuous
 62
     7
370
    25
100
AcDbLine
 10
884.909916319
 20
575.8265848916
 30
0.0
 11
885.3922881139
 21
575.8265848916
 31
0.0
  0
SPLINE
  5
102
330
1F
100
AcDbEntity
  8
0
  6
Continuous
 62
     7
370
    25
100
AcDbSpline
210
0.0
220
0.0
230
1.0
 70
     8
 71
     3
 72
    27
 73
    23
 74
     0
 42
0.00000001
 43
0.00000001
 40
0.0
 40
0.0
 40
0.0
 40
0.0
 40
0.0729510658758662
 40
0.141583694186544
 40
0.2059264601708647
 40
0.2653013571846032
 40
0.3205972327139258
 40
0.3718165030988138
 40
0.4187897697094545
 40
0.4616987286157678
 40
0.5021335821035656
 40
0.5408043152926453
 40
0.5781805253279672
 40
0.6142968652075151
 40
0.6496782432647845
 40
0.6842994600896394
 40
0.7183589527723596
 40
0.7520808646475943
 40
0.8176524386023858
 40
0.8797220764054378
 40
0.9399655597309863
 40
1.0
 40
1.0
 40
1.0
 40
1.0
 10
869.8329932420961
 20
575.2112002762348
 30
0.0
 10
869.8332662639648
 20
575.1043461075402
 30
0.0
 10
869.833796145801
 20
574.8969631479993
 30
0.0
 10
869.8476388899775
 20
574.5956071229115
 30
0.0
 10
869.8664965631192
 20
574.3145320856152
 30
0.0
 10
869.8908195281139
 20
574.0533811451234
 30
0.0
 10
869.9269405533162
 20
573.8130382593866
 30
0.0
 10
869.9674132111852
 20
573.5918504123806
 30
0.0
 10
870.0166659874576
 20
573.3909881561204
 30
0.0
 10
870.0749403140107
 20
573.2090731602244
 30
0.0
 10
870.1413153926244
 20
573.0430181465207
 30
0.0
 10
870.213785938156
 20
572.8885010833726
 30
0.0
 10
870.2916390190816
 20
572.7436966572337
 30
0.0
 10
870.3787685060598
 20
572.6099055523785
 30
0.0
 10
870.4736600791546
 20
572.4866914630691
 30
0.0
 10
870.5741703857545
 20
572.3718735606182
 30
0.0
 10
870.684050578308
 20
572.2694804604225
 30
0.0
 10
870.8360591326924
 20
572.1466762203551
 30
0.0
 10
871.0367367885258
 20
572.0197753432589
 30
0.0
 10
871.2895835433397
 20
571.9092699950723
 30
0.0
 10
871.5493971455832
 20
571.8398243803699
 30
0.0
 10
871.7257428600675
 20
571.8309929381867
 30
0.0
 10
871.8137624728654
 20
571.8265848916193
 30
0.0
  0
SPLINE
  5
103
330
1F
100
AcDbEntity
  8
0
  6
Continuous
 62
     7
370
    25
100
AcDbSpline
210
0.0
220
0.0
230
1.0
 70
     8
 71
     3
 72
    15
 73
    11
 74
     0
 42
0.00000001
 43
0.00000001
 40
0.0
 40
0.0
 40
0.0
 40
0.0
 40
0.1105883385953299
 40
0.224541754053598
 40
0.3425034940500986
 40
0.4643240984173584
 40
0.5907560327017588
 40
0.7222274753555104
 40
0.8588428362087219
 40
1.0
 40
1.0
 40
1.0
 40
1.0
 10
873.5301086267115
 20
573.1999823275168
 30
0.0
 10
873.5542269530972
 20
573.271364589154
 30
0.0
 10
873.603197499
 20
573.4163011931391
 30
0.0
 10
873.6663101259046
 20
573.6411323978945
 30
0.0
 10
873.716013895513
 20
573.8770244297527
 30
0.0
 10
873.7607301600832
 20
574.1225675536805
 30
0.0
 10
873.7912514307055
 20
574.3795725845629
 30
0.0
 10
873.8158178610673
 20
574.6472443192274
 30
0.0
 10
873.8302880026428
 20
574.9257845757656
 30
0.0
 10
873.8320817193772
 20
575.1150302699261
 30
0.0
 10
873.8329932420961
 20
575.2112002762348
 30
0.0
  0
SPLINE
  5
104
330
1F
100
AcDbEntity
  8
0
  6
Continuous
 62
     7
370
    25
100
AcDbSpline
210
0.0
220
0.0
230
1.0
 70
     8
 71
     3
 72
    27
 73
    23
 74
     0
 42
0.00000001
 43
0.00000001
 40
0.0
 40
0.0
 40
0.0
 40
0.0
 40
0.0656811979906399
 40
0.1284864641740657
 40
0.1881751303280079
 40
0.2451061306699845
 40
0.2994484245294766
 40
0.3508229360093821
 40
0.3999416805337763
 40
0.4466717436323699
 40
0.4912545333734973
 40
0.5333763442704377
 40
0.5738527549682229
 40
0.6125263117194523
 40
0.6495971364453295
 40
0.6855320415538495
 40
0.7201057860682002
 40
0.7538376629736502
 40
0.818925416046715
 40
0.880493461650164
 40
0.9403113338460578
 40
1.0
 40
1.0
 40
1.0
 40
1.0
 10
873.8329932420961
 20
575.2112002762348
 30
0.0
 10
873.8317356667065
 20
575.3073547277046
 30
0.0
 10
873.8292755804081
 20
575.4954533900601
 30
0.0
 10
873.8198721799483
 20
575.7709235172879
 30
0.0
 10
873.7955897239667
 20
576.0325641136517
 30
0.0
 10
873.7686203094192
 20
576.2815023368844
 30
0.0
 10
873.7288552326373
 20
576.5163601716374
 30
0.0
 10
873.6859802454824
 20
576.739103726509
 30
0.0
 10
873.6283774745333
 20
576.9469734975248
 30
0.0
 10
873.566846560307
 20
577.1432239700084
 30
0.0
 10
873.4964227990923
 20
577.3256254660101
 30
0.0
 10
873.4189011207893
 20
577.4950284062661
 30
0.0
 10
873.3361085293174
 20
577.6522506342816
 30
0.0
 10
873.2461834082675
 20
577.7968607864566
 30
0.0
 10
873.1501932755468
 20
577.9295065988248
 30
0.0
 10
873.0456045916668
 20
578.047528529241
 30
0.0
 10
872.936566025242
 20
578.1545844563462
 30
0.0
 10
872.7838410290735
 20
578.2767846143386
 30
0.0
 10
872.5838997952442
 20
578.4013827754428
 30
0.0
 10
872.3351097441757
 20
578.5160473694093
 30
0.0
 10
872.0762054144589
 20
578.5818948954001
 30
0.0
 10
871.9011803765342
 20
578.5911787514872
 30
0.0
 10
871.8137624728654
 20
578.59581566085
 30
0.0
  0
SPLINE
  5
105
330
1F
100
AcDbEntity
  8
0
  6
Continuous
 62
     7
370
    25
100
AcDbSpline
210
0.0
220
0.0
230
1.0
 70
     8
 71
     3
 72
    27
 73
    23
 74
     0
 42
0.00000001
 43
0.00000001
 40
0.0
 40
0.0
 40
0.0
 40
0.0
 40
0.0603866193110626
 40
0.1208832485859949
 40
0.1827546186251393
 40
0.2478110297583517
 40
0.2812991000432508
 40
0.3150876241506567
 40
0.3497023955502752
 40
0.3848565811185573
 40
0.420966197226102
 40
0.4585111882611391
 40
0.4971747221273137
 40
0.5376020478662709
 40
0.5805030184200128
 40
0.6274675400267059
 40
0.6783882095592452
 40
0.7339832205925612
 40
0.7937467045508348
 40
0.8577136721607319
 40
0.9266978643613873
 40
1.0
 40
1.0
 40
1.0
 40
1.0
 10
871.8137624728654
 20
578.5958156608501
 30
0.0
 10
871.7252811195241
 20
578.5911723542279
 30
0.0
 10
871.5481572209981
 20
578.5818772819902
 30
0.0
 10
871.2865618959083
 20
578.5162927023523
 30
0.0
 10
871.0358090921545
 20
578.4019773516377
 30
0.0
 10
870.836396578603
 20
578.2763719288608
 30
0.0
 10
870.6835650665855
 20
578.1567415027084
 30
0.0
 10
870.5759474817243
 20
578.053001036289
 30
0.0
 10
870.4750419452267
 20
577.9395238834545
 30
0.0
 10
870.382087202055
 20
577.8151766495108
 30
0.0
 10
870.2950259833299
 20
577.6815415242099
 30
0.0
 10
870.2150693831568
 20
577.537567204838
 30
0.0
 10
870.1430297724687
 20
577.3825240866084
 30
0.0
 10
870.0765508326283
 20
577.2165436627935
 30
0.0
 10
870.0180987457112
 20
577.0346443612265
 30
0.0
 10
869.9698839726141
 20
576.8340295187271
 30
0.0
 10
869.9253421369116
 20
576.6135451946376
 30
0.0
 10
869.8938100937102
 20
576.3719006050485
 30
0.0
 10
869.8657786519691
 20
576.1106842544903
 30
0.0
 10
869.847764142364
 20
575.828907527109
 30
0.0
 10
869.8337498395772
 20
575.5270460861893
 30
0.0
 10
869.8332504924623
 20
575.3185908667547
 30
0.0
 10
869.8329932420961
 20
575.2112002762348
 30
0.0
  0
SPLINE
  5
106
330
1F
100
AcDbEntity
  8
0
  6
Continuous
 62
     7
370
    25
100
AcDbSpline
210
0.0
220
0.0
230
1.0
 70
     8
 71
     3
 72
    19
 73
    15
 74
     0
 42
0.00000001
 43
0.00000001
 40
0.0
 40
0.0
 40
0.0
 40
0.0
 40
0.112813400744459
 40
0.2253938839207267
 40
0.3395948145627039
 40
0.4596754102248627
 40
0.521735190087932
 40
0.5839258387389138
 40
0.6481741447653644
 40
0.7138810381130691
 40
0.781004454907386
 40
0.851450927556557
 40
0.9240506926641737
 40
1.0
 40
1.0
 40
1.0
 40
1.0
 10
871.8137624728654
 20
571.8265848916193
 30
0.0
 10
871.9023514366498
 20
571.8302369620457
 30
0.0
 10
872.0793464610721
 20
571.8375335627361
 30
0.0
 10
872.3379379928306
 20
571.9079306767344
 30
0.0
 10
872.5889786101615
 20
572.0141467669371
 30
0.0
 10
872.7857144736561
 20
572.1397410650382
 30
0.0
 10
872.9353888588022
 20
572.2593486752126
 30
0.0
 10
873.04262769333
 20
572.3613250142135
 30
0.0
 10
873.1410552326059
 20
572.4755098537711
 30
0.0
 10
873.2344085465594
 20
572.5987082444337
 30
0.0
 10
873.320029290959
 20
572.7332739225452
 30
0.0
 10
873.3978878914053
 20
572.8785598088675
 30
0.0
 10
873.4689355429372
 20
573.0349693583812
 30
0.0
 10
873.509413362252
 20
573.144157333503
 30
0.0
 10
873.5301086267115
 20
573.1999823275168
 30
0.0
  0
LINE
  5
107
330
1F
100
AcDbEntity
  8
0
  6
Continuous
 62
     7
370
    25
100
AcDbLine
 10
874.2432496524
 20
559.5445336096
 30
0.0
 11
874.2432496524
 21
563.0188925839
 31
0.0
  0
LINE
  5
108
330
1F
100
AcDbEntity
  8
0
  6
Continuous
 62
     7
370
    25
100
AcDbLine
 10
874.2432496524
 20
563.0188925839
 30
0.0
 11
871.8586342677
 21
559.5445336096
 31
0.0
  0
LINE
  5
109
330
1F
100
AcDbEntity
  8
0
  6
Continuous
 62
     7
370
    25
100
AcDbLine
 10
871.8586342677
 20
559.5445336096
 30
0.0
 11
874.2432496524
 21
559.5445336096
 31
0.0
  0
LINE
  5
10A
330
1F
100
AcDbEntity
  8
0
  6
Continuous
 62
     7
370
    25
100
AcDbLine
 10
884.909916319
 20
575.0060720711
 30
0.0
 11
884.909916319
 21
572.0317130967
 31
0.0
  0
LINE
  5
10B
330
1F
100
AcDbEntity
  8
0
  6
Continuous
 62
     7
370
    25
100
AcDbLine
 10
884.909916319
 20
572.0317130967
 30
0.0
 11
885.9323522165
 21
572.0317130967
 31
0.0
  0
SPLINE
  5
10C
330
1F
100
AcDbEntity
  8
0
  6
Continuous
 62
     7
370
    25
100
AcDbSpline
210
0.0
220
0.0
230
1.0
 70
     8
 71
     3
 72
    23
 73
    19
 74
     0
 42
0.00000001
 43
0.00000001
 40
0.0
 40
0.0
 40
0.0
 40
0.0
 40
0.0725024889330345
 40
0.1397389892678963
 40
0.201795134825922
 40
0.2598219344148626
 40
0.3122059893845953
 40
0.360773434124337
 40
0.4045403426007512
 40
0.4436980985527638
 40
0.5168407942439686
 40
0.5878743359442812
 40
0.6579654175616313
 40
0.7289693886473085
 40
0.7993077199548877
 40
0.8666357778344691
 40
0.9331163290572759
 40
1.0
 40
1.0
 40
1.0
 40
1.0
 10
885.932352216455
 20
572.0317130967476
 30
0.0
 10
886.0055383328277
 20
572.0325902336543
 30
0.0
 10
886.1465949238614
 20
572.0342807994076
 30
0.0
 10
886.3502548784235
 20
572.0397997812609
 30
0.0
 10
886.5390162585403
 20
572.0523535542874
 30
0.0
 10
886.7120177116361
 20
572.0721154963759
 30
0.0
 10
886.8711273176492
 20
572.0935519516266
 30
0.0
 10
887.0144363531437
 20
572.1223777365902
 30
0.0
 10
887.143106509627
 20
572.1554039320771
 30
0.0
 10
887.2923049273171
 20
572.2064534686144
 30
0.0
 10
887.4603129462449
 20
572.2857596878538
 30
0.0
 10
887.6413663322692
 20
572.405335062524
 30
0.0
 10
887.8023405451698
 20
572.5477883374334
 30
0.0
 10
887.9390382804993
 20
572.7126589984017
 30
0.0
 10
888.0510679686043
 20
572.8919306028091
 30
0.0
 10
888.1325661516524
 20
573.0819771169866
 30
0.0
 10
888.1828309670104
 20
573.2796583225146
 30
0.0
 10
888.1889159253874
 20
573.4144393797555
 30
0.0
 10
888.1919676010705
 20
573.482033609568
 30
0.0
  0
SPLINE
  5
10D
330
1F
100
AcDbEntity
  8
0
  6
Continuous
 62
     7
370
    25
100
AcDbSpline
210
0.0
220
0.0
230
1.0
 70
     8
 71
     3
 72
    19
 73
    15
 74
     0
 42
0.00000001
 43
0.00000001
 40
0.0
 40
0.0
 40
0.0
 40
0.0
 40
0.0602873979279759
 40
0.119602354707522
 40
0.1775033710185434
 40
0.2351426637323251
 40
0.2921325932269301
 40
0.3508712086415664
 40
0.4100978625665913
 40
0.4707315215304481
 40
0.594828704080415
 40
0.7225788240942929
 40
0.8566913895440194
 40
1.0
 40
1.0
 40
1.0
 40
1.0
 10
888.1919676010705
 20
573.482033609568
 30
0.0
 10
888.191336505442
 20
573.5243041021739
 30
0.0
 10
888.1900844938145
 20
573.6081632605399
 30
0.0
 10
888.1712030882746
 20
573.7313994186836
 30
0.0
 10
888.1437428144604
 20
573.8507728433905
 30
0.0
 10
888.1082423941574
 20
573.9666076787843
 30
0.0
 10
888.0565407550922
 20
574.076809681865
 30
0.0
 10
887.9961829379102
 20
574.1835583893776
 30
0.0
 10
887.9254140198653
 20
574.2869949137747
 30
0.0
 10
887.8151416407394
 20
574.4177657788019
 30
0.0
 10
887.6547485332651
 20
574.5684332368668
 30
0.0
 10
887.4268473322527
 20
574.7159475277621
 30
0.0
 10
887.1677106511801
 20
574.834913943962
 30
0.0
 10
886.9797620959891
 20
574.8854270327356
 30
0.0
 10
886.8826727292756
 20
574.9115207890553
 30
0.0
  0
SPLINE
  5
10E
330
1F
100
AcDbEntity
  8
0
  6
Continuous
 62
     7
370
    25
100
AcDbSpline
210
0.0
220
0.0
230
1.0
 70
     8
 71
     3
 72
    15
 73
    11
 74
     0
 42
0.00000001
 43
0.00000001
 40
0.0
 40
0.0
 40
0.0
 40
0.0
 40
0.0793064855229951
 40
0.1719528189279322
 40
0.2770565073915969
 40
0.3947305758644803
 40
0.5261773212767594
 40
0.6713447665976177
 40
0.8292852571892532
 40
1.0
 40
1.0
 40
1.0
 40
1.0
 10
886.8826727292756
 20
574.9115207890553
 30
0.0
 10
886.8437490816133
 20
574.9194181238104
 30
0.0
 10
886.7593545848156
 20
574.9365411745198
 30
0.0
 10
886.6217372581212
 20
574.9546159251241
 30
0.0
 10
886.4646267006302
 20
574.9707189191632
 30
0.0
 10
886.2876601241136
 20
574.9826301366803
 30
0.0
 10
886.0906136301394
 20
574.9949422362188
 30
0.0
 10
885.8730663874294
 20
574.9997303987839
 30
0.0
 10
885.6359068110655
 20
575.005442993283
 30
0.0
 10
885.471352817009
 20
575.0058570144072
 30
0.0
 10
885.3858778574806
 20
575.0060720711066
 30
0.0
  0
LINE
  5
10F
330
1F
100
AcDbEntity
  8
0
  6
Continuous
 62
     7
370
    25
100
AcDbLine
 10
885.3858778575
 20
575.0060720711
 30
0.0
 11
884.909916319
 21
575.0060720711
 31
0.0
  0
SPLINE
  5
110
330
1F
100
AcDbEntity
  8
0
  6
Continuous
 62
     7
370
    25
100
AcDbSpline
210
0.0
220
0.0
230
1.0
 70
     8
 71
     3
 72
    27
 73
    23
 74
     0
 42
0.00000001
 43
0.00000001
 40
0.0
 40
0.0
 40
0.0
 40
0.0
 40
0.0729510658758663
 40
0.1415836941865439
 40
0.2059264601708647
 40
0.2653013571846032
 40
0.3205972327139258
 40
0.3718165030988133
 40
0.4187897697094487
 40
0.4616987286157619
 40
0.5021335821035657
 40
0.5408043152926467
 40
0.578180525327967
 40
0.6142968652075133
 40
0.6496782432647864
 40
0.6842994600896393
 40
0.7183589527723595
 40
0.7520808646475942
 40
0.8176524386023857
 40
0.8797220764054376
 40
0.9399655597309862
 40
1.0
 40
1.0
 40
1.0
 40
1.0
 10
877.3201727292756
 20
560.8778669429014
 30
0.0
 10
877.3204457511442
 20
560.771012774207
 30
0.0
 10
877.3209756329807
 20
560.5636298146659
 30
0.0
 10
877.334818377157
 20
560.2622737895781
 30
0.0
 10
877.3536760502986
 20
559.9811987522818
 30
0.0
 10
877.3779990152933
 20
559.7200478117901
 30
0.0
 10
877.4141200404957
 20
559.4797049260533
 30
0.0
 10
877.4545926983645
 20
559.2585170790471
 30
0.0
 10
877.5038454746372
 20
559.0576548227872
 30
0.0
 10
877.5621198011903
 20
558.875739826891
 30
0.0
 10
877.628494879804
 20
558.7096848131874
 30
0.0
 10
877.7009654253355
 20
558.5551677500392
 30
0.0
 10
877.7788185062609
 20
558.4103633239002
 30
0.0
 10
877.8659479932393
 20
558.2765722190452
 30
0.0
 10
877.9608395663341
 20
558.1533581297358
 30
0.0
 10
878.0613498729342
 20
558.0385402272848
 30
0.0
 10
878.1712300654875
 20
557.9361471270892
 30
0.0
 10
878.3232386198721
 20
557.8133428870218
 30
0.0
 10
878.5239162757052
 20
557.6864420099255
 30
0.0
 10
878.7767630305192
 20
557.575936661739
 30
0.0
 10
879.0365766327626
 20
557.5064910470365
 30
0.0
 10
879.2129223472471
 20
557.4976596048534
 30
0.0
 10
879.3009419600448
 20
557.493251558286
 30
0.0
  0
SPLINE
  5
111
330
1F
100
AcDbEntity
  8
0
  6
Continuous
 62
     7
370
    25
100
AcDbSpline
210
0.0
220
0.0
230
1.0
 70
     8
 71
     3
 72
    19
 73
    15
 74
     0
 42
0.00000001
 43
0.00000001
 40
0.0
 40
0.0
 40
0.0
 40
0.0
 40
0.112813400744459
 40
0.2253938839207268
 40
0.3395948145626985
 40
0.4596754102248624
 40
0.5217351900879318
 40
0.5839258387389136
 40
0.6481741447653642
 40
0.7138810381130655
 40
0.7810044549073887
 40
0.8514509275565568
 40
0.9240506926641736
 40
1.0
 40
1.0
 40
1.0
 40
1.0
 10
879.3009419600448
 20
557.493251558286
 30
0.0
 10
879.3895309238293
 20
557.4969036287124
 30
0.0
 10
879.5665259482515
 20
557.5042002294028
 30
0.0
 10
879.82511748001
 20
557.574597343401
 30
0.0
 10
880.076158097341
 20
557.6808134336038
 30
0.0
 10
880.2728939608355
 20
557.806407731705
 30
0.0
 10
880.4225683459816
 20
557.9260153418793
 30
0.0
 10
880.5298071805095
 20
558.0279916808803
 30
0.0
 10
880.6282347197855
 20
558.1421765204376
 30
0.0
 10
880.721588033739
 20
558.2653749111004
 30
0.0
 10
880.8072087781387
 20
558.399940589212
 30
0.0
 10
880.8850673785847
 20
558.5452264755342
 30
0.0
 10
880.9561150301166
 20
558.7016360250477
 30
0.0
 10
880.9965928494314
 20
558.8108240001696
 30
0.0
 10
881.0172881138909
 20
558.8666489941834
 30
0.0
  0
SPLINE
  5
112
330
1F
100
AcDbEntity
  8
0
  6
Continuous
 62
     7
370
    25
100
AcDbSpline
210
0.0
220
0.0
230
1.0
 70
     8
 71
     3
 72
    15
 73
    11
 74
     0
 42
0.00000001
 43
0.00000001
 40
0.0
 40
0.0
 40
0.0
 40
0.0
 40
0.1105883385953299
 40
0.2245417540535979
 40
0.3425034940500984
 40
0.4643240984173594
 40
0.590756032701759
 40
0.7222274753555104
 40
0.8588428362087219
 40
0.9999999999999999
 40
0.9999999999999999
 40
0.9999999999999999
 40
0.9999999999999999
 10
881.0172881138909
 20
558.8666489941835
 30
0.0
 10
881.0414064402768
 20
558.9380312558208
 30
0.0
 10
881.0903769861795
 20
559.082967859806
 30
0.0
 10
881.153489613084
 20
559.3077990645612
 30
0.0
 10
881.2031933826925
 20
559.5436910964194
 30
0.0
 10
881.2479096472626
 20
559.7892342203472
 30
0.0
 10
881.2784309178852
 20
560.0462392512295
 30
0.0
 10
881.3029973482468
 20
560.3139109858942
 30
0.0
 10
881.3174674898223
 20
560.5924512424323
 30
0.0
 10
881.3192612065568
 20
560.7816969365929
 30
0.0
 10
881.3201727292756
 20
560.8778669429014
 30
0.0
  0
SPLINE
  5
113
330
1F
100
AcDbEntity
  8
0
  6
Continuous
 62
     7
370
    25
100
AcDbSpline
210
0.0
220
0.0
230
1.0
 70
     8
 71
     3
 72
    27
 73
    23
 74
     0
 42
0.00000001
 43
0.00000001
 40
0.0
 40
0.0
 40
0.0
 40
0.0
 40
0.0656811979906398
 40
0.1284864641740622
 40
0.1881751303280046
 40
0.2451061306699842
 40
0.2994484245294757
 40
0.3508229360093825
 40
0.3999416805337788
 40
0.4466717436323693
 40
0.4912545333734996
 40
0.5333763442704341
 40
0.5738527549682221
 40
0.612526311719454
 40
0.6495971364453293
 40
0.6855320415538514
 40
0.7201057860681997
 40
0.7538376629736477
 40
0.8189254160467132
 40
0.880493461650165
 40
0.9403113338460578
 40
1.0
 40
1.0
 40
1.0
 40
1.0
 10
881.3201727292756
 20
560.8778669429014
 30
0.0
 10
881.318915153886
 20
560.9740213943712
 30
0.0
 10
881.3164550675876
 20
561.1621200567268
 30
0.0
 10
881.307051667128
 20
561.4375901839545
 30
0.0
 10
881.2827692111463
 20
561.6992307803182
 30
0.0
 10
881.2557997965987
 20
561.948169003551
 30
0.0
 10
881.2160347198168
 20
562.1830268383042
 30
0.0
 10
881.1731597326618
 20
562.4057703931758
 30
0.0
 10
881.1155569617127
 20
562.6136401641913
 30
0.0
 10
881.0540260474866
 20
562.809890636675
 30
0.0
 10
880.9836022862718
 20
562.9922921326769
 30
0.0
 10
880.9060806079689
 20
563.1616950729328
 30
0.0
 10
880.8232880164968
 20
563.3189173009483
 30
0.0
 10
880.733362895447
 20
563.4635274531232
 30
0.0
 10
880.6373727627264
 20
563.5961732654915
 30
0.0
 10
880.5327840788462
 20
563.7141951959077
 30
0.0
 10
880.4237455124214
 20
563.821251123013
 30
0.0
 10
880.2710205162531
 20
563.9434512810051
 30
0.0
 10
880.0710792824236
 20
564.0680494421096
 30
0.0
 10
879.8222892313552
 20
564.182714036076
 30
0.0
 10
879.5633849016383
 20
564.2485615620667
 30
0.0
 10
879.3883598637136
 20
564.2578454181538
 30
0.0
 10
879.3009419600448
 20
564.2624823275168
 30
0.0
  0
SPLINE
  5
114
330
1F
100
AcDbEntity
  8
0
  6
Continuous
 62
     7
370
    25
100
AcDbSpline
210
0.0
220
0.0
230
1.0
 70
     8
 71
     3
 72
    27
 73
    23
 74
     0
 42
0.00000001
 43
0.00000001
 40
0.0
 40
0.0
 40
0.0
 40
0.0
 40
0.0603866193110625
 40
0.120883248585997
 40
0.1827546186251385
 40
0.2478110297583543
 40
0.2812991000432514
 40
0.3150876241506573
 40
0.3497023955502734
 40
0.3848565811185579
 40
0.4209661972261026
 40
0.4585111882611368
 40
0.4971747221273143
 40
0.5376020478662684
 40
0.5805030184200104
 40
0.6274675400267034
 40
0.6783882095592426
 40
0.733983220592558
 40
0.7937467045508383
 40
0.8577136721607352
 40
0.9266978643613875
 40
1.0
 40
1.0
 40
1.0
 40
1.0
 10
879.3009419600448
 20
564.2624823275168
 30
0.0
 10
879.2124606067035
 20
564.2578390208944
 30
0.0
 10
879.0353367081776
 20
564.2485439486569
 30
0.0
 10
878.7737413830878
 20
564.1829593690188
 30
0.0
 10
878.522988579334
 20
564.0686440183044
 30
0.0
 10
878.3235760657824
 20
563.9430385955274
 30
0.0
 10
878.170744553765
 20
563.8234081693752
 30
0.0
 10
878.0631269689038
 20
563.7196677029557
 30
0.0
 10
877.9622214324062
 20
563.6061905501211
 30
0.0
 10
877.8692666892345
 20
563.4818433161774
 30
0.0
 10
877.7822054705093
 20
563.3482081908766
 30
0.0
 10
877.7022488703362
 20
563.2042338715046
 30
0.0
 10
877.6302092596482
 20
563.0491907532751
 30
0.0
 10
877.5637303198077
 20
562.8832103294601
 30
0.0
 10
877.5052782328908
 20
562.7013110278931
 30
0.0
 10
877.4570634597935
 20
562.5006961853937
 30
0.0
 10
877.412521624091
 20
562.2802118613042
 30
0.0
 10
877.3809895808897
 20
562.0385672717152
 30
0.0
 10
877.3529581391485
 20
561.777350921157
 30
0.0
 10
877.3349436295434
 20
561.4955741937756
 30
0.0
 10
877.3209293267566
 20
561.193712752856
 30
0.0
 10
877.3204299796417
 20
560.9852575334213
 30
0.0
 10
877.3201727292756
 20
560.8778669429013
 30
0.0
  0
CIRCLE
  5
115
330
1F
100
AcDbEntity
  8
0
  6
Continuous
 62
     7
370
    25
100
AcDbCircle
 10
949.7638876862
 20
700.6153280681
 30
0.0
 40
83.5
  0
CIRCLE
  5
116
330
1F
100
AcDbEntity
  8
0
  6
Continuous
 62
     7
370
    25
100
AcDbCircle
 10
949.7638876862
 20
700.6153280681
 30
0.0
 40
98.49999999999977
  0
ENDSEC
  0
SECTION
  2
OBJECTS
  0
DICTIONARY
  5
C
330
0
100
AcDbDictionary
281
     1
  3
ACAD_DETAILVIEWSTYLE
350
11E
  3
ACAD_GROUP
350
D
  3
ACAD_LAYOUT
350
1A
  3
ACAD_MATERIAL
350
43
  3
ACAD_MLEADERSTYLE
350
5B
  3
ACAD_MLINESTYLE
350
17
  3
ACAD_PLOTSETTINGS
350
19
  3
ACAD_PLOTSTYLENAME
350
E
  3
ACAD_SCALELIST
350
47
  3
ACAD_SECTIONVIEWSTYLE
350
11F
  3
ACAD_TABLESTYLE
350
59
  3
ACAD_VISUALSTYLE
350
2A
  3
ACDB_RECOMPOSE_DATA
350
11B
  3
AcDbVariableDictionary
350
117
  0
SUN
  5
5D
330
29
100
AcDbSun
 90
        1
290
     0
 63
     7
421
 16777215
 40
1.0
291
     1
 91
  2455826
 92
 54000000
292
     0
 70
     2
 71
   256
280
     1
  0
DICTIONARY
  5
11E
102
{ACAD_REACTORS
330
C
102
}
330
C
100
AcDbDictionary
281
     1
  0
DICTIONARY
  5
D
102
{ACAD_REACTORS
330
C
102
}
330
C
100
AcDbDictionary
281
     1
  0
DICTIONARY
  5
1A
102
{ACAD_REACTORS
330
C
102
}
330
C
100
AcDbDictionary
281
     1
  3
Layout1
350
1E
  3
Layout2
350
26
  3
Model
350
22
  0
DICTIONARY
  5
43
102
{ACAD_REACTORS
330
C
102
}
330
C
100
AcDbDictionary
281
     1
  3
ByBlock
350
45
  3
ByLayer
350
44
  3
Global
350
46
  0
DICTIONARY
  5
5B
102
{ACAD_REACTORS
330
C
102
}
330
C
100
AcDbDictionary
281
     1
  3
Standard
350
5C
  0
DICTIONARY
  5
17
102
{ACAD_REACTORS
330
C
102
}
330
C
100
AcDbDictionary
281
     1
  3
Standard
350
18
  0
DICTIONARY
  5
19
102
{ACAD_REACTORS
330
C
102
}
330
C
100
AcDbDictionary
281
     1
  0
ACDBDICTIONARYWDFLT
  5
E
102
{ACAD_REACTORS
330
C
102
}
330
C
100
AcDbDictionary
281
     1
  3
Normal
350
F
100
AcDbDictionaryWithDefault
340
F
  0
DICTIONARY
  5
47
102
{ACAD_REACTORS
330
C
102
}
330
C
100
AcDbDictionary
281
     1
  3
A0
350
48
  3
A1
350
49
  3
A2
350
4A
  3
A3
350
4B
  3
A4
350
4C
  3
A5
350
4D
  3
A6
350
4E
  3
A7
350
4F
  3
A8
350
50
  3
A9
350
51
  3
B0
350
52
  3
B1
350
53
  3
B2
350
54
  3
B3
350
55
  3
B4
350
56
  3
B5
350
57
  3
B6
350
58
  0
DICTIONARY
  5
11F
102
{ACAD_REACTORS
330
C
102
}
330
C
100
AcDbDictionary
281
     1
  0
DICTIONARY
  5
59
102
{ACAD_REACTORS
330
C
102
}
330
C
100
AcDbDictionary
281
     1
  3
Standard
350
5A
  0
DICTIONARY
  5
2A
102
{ACAD_REACTORS
330
C
102
}
330
C
100
AcDbDictionary
281
     1
  3
2dWireframe
350
2F
  3
Basic
350
32
  3
Brighten
350
36
  3
ColorChange
350
3A
  3
Conceptual
350
34
  3
Dim
350
35
  3
EdgeColorOff
350
3D
  3
Facepattern
350
39
  3
Flat
350
2B
  3
FlatWithEdges
350
2C
  3
Gouraud
350
2D
  3
GouraudWithEdges
350
2E
  3
Hidden
350
31
  3
JitterOff
350
3B
  3
Linepattern
350
38
  3
OverhangOff
350
3C
  3
Realistic
350
33
  3
Shaded
350
42
  3
Shaded with edges
350
41
  3
Shades of Gray
350
3E
  3
Sketchy
350
3F
  3
Thicken
350
37
  3
Wireframe
350
30
  3
X-Ray
350
40
  0
XRECORD
  5
11B
102
{ACAD_REACTORS
330
C
102
}
330
C
100
AcDbXrecord
280
     1
 90
        1
330
5A
  0
DICTIONARY
  5
117
102
{ACAD_REACTORS
330
C
102
}
330
C
100
AcDbDictionary
281
     1
  3
CANNOSCALE
350
118
  3
CENTEREXE
350
120
  3
CENTERLTYPEFILE
350
121
  3
CMLEADERSTYLE
350
11D
  3
CTABLESTYLE
350
11C
  0
LAYOUT
  5
1E
102
{ACAD_REACTORS
330
1A
102
}
330
1A
100
AcDbPlotSettings
  1

  2
none_device
  4

  6

 40
0.0
 41
0.0
 42
0.0
 43
0.0
 44
0.0
 45
0.0
 46
0.0
 47
0.0
 48
0.0
 49
0.0
140
0.0
141
0.0
142
1.0
143
1.0
 70
   688
 72
     1
 73
     0
 74
     5
  7

 75
    16
 76
     0
 77
     2
 78
   300
147
1.0
148
0.0
149
0.0
100
AcDbLayout
  1
Layout1
 70
     1
 71
     1
 10
0.0
 20
0.0
 11
420.0
 21
297.0
 12
0.0
 22
0.0
 32
0.0
 14
1.0000000000E+20
 24
1.0000000000E+20
 34
1.0000000000E+20
 15
-1.0000000000E+20
 25
-1.0000000000E+20
 35
-1.0000000000E+20
146
0.0
 13
0.0
 23
0.0
 33
0.0
 16
1.0
 26
0.0
 36
0.0
 17
0.0
 27
1.0
 37
0.0
 76
     0
330
1B
  0
LAYOUT
  5
26
102
{ACAD_REACTORS
330
1A
102
}
330
1A
100
AcDbPlotSettings
  1

  2
none_device
  4

  6

 40
0.0
 41
0.0
 42
0.0
 43
0.0
 44
0.0
 45
0.0
 46
0.0
 47
0.0
 48
0.0
 49
0.0
140
0.0
141
0.0
142
1.0
143
1.0
 70
   688
 72
     1
 73
     0
 74
     5
  7

 75
    16
 76
     0
 77
     2
 78
   300
147
1.0
148
0.0
149
0.0
100
AcDbLayout
  1
Layout2
 70
     1
 71
     2
 10
0.0
 20
0.0
 11
0.0
 21
0.0
 12
0.0
 22
0.0
 32
0.0
 14
0.0
 24
0.0
 34
0.0
 15
0.0
 25
0.0
 35
0.0
146
0.0
 13
0.0
 23
0.0
 33
0.0
 16
1.0
 26
0.0
 36
0.0
 17
0.0
 27
1.0
 37
0.0
 76
     0
330
23
  0
LAYOUT
  5
22
102
{ACAD_REACTORS
330
1A
102
}
330
1A
100
AcDbPlotSettings
  1

  2
none_device
  4
Letter_(8.50_x_11.00_Inches)
  6

 40
6.35
 41
6.35
 42
6.35000508
 43
6.35000508
 44
215.9
 45
279.4
 46
0.0
 47
0.0
 48
0.0
 49
0.0
140
0.0
141
0.0
142
1.0
143
1.0
 70
  1712
 72
     1
 73
     0
 74
     0
  7

 75
     0
 76
     0
 77
     2
 78
   300
147
1.0
148
0.0
149
0.0
100
AcDbLayout
  1
Model
 70
     1
 71
     0
 10
0.0
 20
0.0
 11
420.0
 21
297.0
 12
0.0
 22
0.0
 32
0.0
 14
0.0
 24
0.0
 34
0.0
 15
420.0
 25
297.0
 35
0.0
146
0.0
 13
0.0
 23
0.0
 33
0.0
 16
1.0
 26
0.0
 36
0.0
 17
0.0
 27
1.0
 37
0.0
 76
     0
330
1F
331
29
  0
MATERIAL
  5
45
102
{ACAD_REACTORS
330
43
102
}
330
43
100
AcDbMaterial
  1
ByBlock
 72
     1
 94
      127
  0
MATERIAL
  5
44
102
{ACAD_REACTORS
330
43
102
}
330
43
100
AcDbMaterial
  1
ByLayer
 72
     1
 94
      127
  0
MATERIAL
  5
46
102
{ACAD_REACTORS
330
43
102
}
330
43
100
AcDbMaterial
  1
Global
 72
     1
 94
      127
  0
MLEADERSTYLE
  5
5C
102
{ACAD_REACTORS
330
5B
102
}
330
5B
100
AcDbMLeaderStyle
179
     2
170
     2
171
     1
172
     0
 90
        2
 40
0.0
 41
0.0
173
     1
 91
-1056964608
340
14
 92
       -2
290
     1
 42
2.0
291
     1
 43
8.0
  3
Standard
341
0
 44
4.0
300

342
11
174
     1
178
     6
175
     1
176
     0
 93
-1056964608
 45
4.0
292
     0
297
     0
 46
4.0
343
0
 94
-1056964608
 47
1.0
 49
1.0
140
1.0
293
     1
141
0.0
294
     1
177
     0
142
1.0
295
     0
296
     0
143
3.75
271
     0
272
     9
273
     9
298
     0
  0
MLINESTYLE
  5
18
102
{ACAD_REACTORS
330
17
102
}
330
17
100
AcDbMlineStyle
  2
Standard
 70
     0
  3

 62
   256
 51
90.0
 52
90.0
 71
     2
 49
0.5
 62
   256
  6
BYLAYER
 49
-0.5
 62
   256
  6
BYLAYER
  0
ACDBPLACEHOLDER
  5
F
102
{ACAD_REACTORS
330
E
102
}
330
E
  0
SCALE
  5
48
102
{ACAD_REACTORS
330
47
102
}
330
47
100
AcDbScale
 70
     0
300
1:1
140
1.0
141
1.0
290
     1
  0
SCALE
  5
49
102
{ACAD_REACTORS
330
47
102
}
330
47
100
AcDbScale
 70
     0
300
1:2
140
1.0
141
2.0
290
     0
  0
SCALE
  5
4A
102
{ACAD_REACTORS
330
47
102
}
330
47
100
AcDbScale
 70
     0
300
1:4
140
1.0
141
4.0
290
     0
  0
SCALE
  5
4B
102
{ACAD_REACTORS
330
47
102
}
330
47
100
AcDbScale
 70
     0
300
1:5
140
1.0
141
5.0
290
     0
  0
SCALE
  5
4C
102
{ACAD_REACTORS
330
47
102
}
330
47
100
AcDbScale
 70
     0
300
1:8
140
1.0
141
8.0
290
     0
  0
SCALE
  5
4D
102
{ACAD_REACTORS
330
47
102
}
330
47
100
AcDbScale
 70
     0
300
1:10
140
1.0
141
10.0
290
     0
  0
SCALE
  5
4E
102
{ACAD_REACTORS
330
47
102
}
330
47
100
AcDbScale
 70
     0
300
1:16
140
1.0
141
16.0
290
     0
  0
SCALE
  5
4F
102
{ACAD_REACTORS
330
47
102
}
330
47
100
AcDbScale
 70
     0
300
1:20
140
1.0
141
20.0
290
     0
  0
SCALE
  5
50
102
{ACAD_REACTORS
330
47
102
}
330
47
100
AcDbScale
 70
     0
300
1:30
140
1.0
141
30.0
290
     0
  0
SCALE
  5
51
102
{ACAD_REACTORS
330
47
102
}
330
47
100
AcDbScale
 70
     0
300
1:40
140
1.0
141
40.0
290
     0
  0
SCALE
  5
52
102
{ACAD_REACTORS
330
47
102
}
330
47
100
AcDbScale
 70
     0
300
1:50
140
1.0
141
50.0
290
     0
  0
SCALE
  5
53
102
{ACAD_REACTORS
330
47
102
}
330
47
100
AcDbScale
 70
     0
300
1:100
140
1.0
141
100.0
290
     0
  0
SCALE
  5
54
102
{ACAD_REACTORS
330
47
102
}
330
47
100
AcDbScale
 70
     0
300
2:1
140
2.0
141
1.0
290
     0
  0
SCALE
  5
55
102
{ACAD_REACTORS
330
47
102
}
330
47
100
AcDbScale
 70
     0
300
4:1
140
4.0
141
1.0
290
     0
  0
SCALE
  5
56
102
{ACAD_REACTORS
330
47
102
}
330
47
100
AcDbScale
 70
     0
300
8:1
140
8.0
141
1.0
290
     0
  0
SCALE
  5
57
102
{ACAD_REACTORS
330
47
102
}
330
47
100
AcDbScale
 70
     0
300
10:1
140
10.0
141
1.0
290
     0
  0
SCALE
  5
58
102
{ACAD_REACTORS
330
47
102
}
330
47
100
AcDbScale
 70
     0
300
100:1
140
100.0
141
1.0
290
     0
  0
TABLESTYLE
  5
5A
102
{ACAD_REACTORS
330
59
102
}
102
{ACAD_XDICTIONARY
360
119
102
}
330
59
100
AcDbTableStyle
  3
Standard
 70
     0
 71
     0
 40
0.06
 41
0.06
280
     0
281
     0
  7
Standard
140
4.5
170
     2
 62
     0
 63
   257
283
     0
 90
        4
 91
        0
  1

274
    -2
284
     1
 64
     0
275
    -2
285
     1
 65
     0
276
    -2
286
     1
 66
     0
277
    -2
287
     1
 67
     0
278
    -2
288
     1
 68
     0
279
    -2
289
     1
 69
     0
  7
Standard
140
6.0
170
     5
 62
     0
 63
   257
283
     0
 90
        4
 91
        0
  1

274
    -2
284
     1
 64
     0
275
    -2
285
     1
 65
     0
276
    -2
286
     1
 66
     0
277
    -2
287
     1
 67
     0
278
    -2
288
     1
 68
     0
279
    -2
289
     1
 69
     0
  7
Standard
140
4.5
170
     5
 62
     0
 63
   257
283
     0
 90
        4
 91
        0
  1

274
    -2
284
     1
 64
     0
275
    -2
285
     1
 65
     0
276
    -2
286
     1
 66
     0
277
    -2
287
     1
 67
     0
278
    -2
288
     1
 68
     0
279
    -2
289
     1
 69
     0
  0
VISUALSTYLE
  5
2F
102
{ACAD_REACTORS
330
2A
102
}
330
2A
100
AcDbVisualStyle
  2
2dWireframe
 70
     4
177
     3
291
     0
 70
    58
 90
        0
176
     1
 90
        2
176
     1
 90
        0
176
     1
 90
        0
176
     1
 40
0.6
176
     1
 40
30.0
176
     1
 62
     7
420
 16777215
176
     1
 90
        1
176
     1
 90
        4
176
     1
 62
     7
176
     1
 62
   257
176
     1
 90
        1
176
     1
 90
        1
176
     1
 40
1.0
176
     1
 90
        0
176
     1
 62
   257
176
     1
 40
1.0
176
     1
 90
        1
176
     1
 90
        6
176
     1
 90
        2
176
     1
 62
     7
176
     1
 90
        5
176
     1
 90
        0
176
     1
 90
        0
176
     1
290
     0
176
     1
 90
        1
176
     1
 40
0.0
176
     1
 90
        0
176
     1
290
     1
176
     1
290
     1
176
     1
290
     0
176
     1
290
     0
176
     1
290
     0
176
     1
290
     0
176
     1
290
     0
176
     1
290
     0
176
     1
290
     0
176
     1
 90
       50
176
     1
 40
0.0
176
     1
 40
1.0
176
     1
 90
        0
176
     1
 62
    18
420
        0
176
     1
 90
       50
176
     1
 90
        3
176
     1
 62
     5
420
      255
176
     1
290
     0
176
     1
 90
       50
176
     1
 90
       50
176
     1
 90
       50
176
     1
290
     0
176
     1
 90
       50
176
     1
 62
   256
176
     0
 40
1.0
176
     0
 90
        2
176
     1
  1
strokes_ogs.tif
176
     1
290
     0
176
     1
 40
1.0
176
     1
 40
1.0
176
     1
  0
VISUALSTYLE
  5
32
102
{ACAD_REACTORS
330
2A
102
}
330
2A
100
AcDbVisualStyle
  2
Basic
 70
     7
177
     3
291
     1
 70
    58
 90
        1
176
     1
 90
        0
176
     1
 90
        1
176
     1
 90
        0
176
     1
 40
0.6
176
     1
 40
30.0
176
     1
 62
     7
420
 16777215
176
     1
 90
        0
176
     1
 90
        4
176
     1
 62
     7
176
     1
 62
   257
176
     1
 90
        1
176
     1
 90
        1
176
     1
 40
1.0
176
     1
 90
        8
176
     1
 62
     7
176
     1
 40
1.0
176
     1
 90
        1
176
     1
 90
        6
176
     1
 90
        2
176
     1
 62
     7
176
     1
 90
        5
176
     1
 90
        0
176
     1
 90
        0
176
     1
290
     0
176
     1
 90
        1
176
     1
 40
0.0
176
     1
 90
        0
176
     1
290
     0
176
     1
290
     1
176
     1
290
     1
176
     1
290
     0
176
     1
290
     0
176
     1
290
     0
176
     1
290
     0
176
     1
290
     0
176
     1
290
     0
176
     1
 90
       50
176
     1
 40
0.0
176
     1
 40
1.0
176
     1
 90
        0
176
     1
 62
    18
420
        0
176
     1
 90
       50
176
     1
 90
        3
176
     1
 62
     5
420
      255
176
     1
290
     0
176
     1
 90
       50
176
     1
 90
       50
176
     1
 90
       50
176
     1
290
     0
176
     1
 90
       50
176
     1
 62
   256
176
     0
 40
1.0
176
     0
 90
        2
176
     1
  1
strokes_ogs.tif
176
     1
290
     0
176
     1
 40
1.0
176
     1
 40
1.0
176
     1
  0
VISUALSTYLE
  5
36
102
{ACAD_REACTORS
330
2A
102
}
330
2A
100
AcDbVisualStyle
  2
Brighten
 70
    12
177
     3
291
     1
 70
    58
 90
        2
176
     1
 90
        2
176
     1
 90
        0
176
     1
 90
        0
176
     1
 40
0.6
176
     1
 40
30.0
176
     1
 62
     7
420
 16777215
176
     1
 90
        1
176
     1
 90
        4
176
     1
 62
     7
176
     1
 62
   257
176
     1
 90
        1
176
     1
 90
        1
176
     1
 40
1.0
176
     1
 90
        8
176
     1
 62
     7
176
     1
 40
1.0
176
     1
 90
        1
176
     1
 90
        6
176
     1
 90
        2
176
     1
 62
     7
176
     1
 90
        5
176
     1
 90
        0
176
     1
 90
        0
176
     1
290
     0
176
     1
 90
        1
176
     1
 40
50.0
176
     1
 90
        0
176
     1
290
     0
176
     1
290
     1
176
     1
290
     1
176
     1
290
     0
176
     1
290
     0
176
     1
290
     0
176
     1
290
     0
176
     1
290
     0
176
     1
290
     0
176
     1
 90
       50
176
     1
 40
0.0
176
     1
 40
1.0
176
     1
 90
        0
176
     1
 62
    18
420
        0
176
     1
 90
       50
176
     1
 90
        3
176
     1
 62
     5
420
      255
176
     1
290
     0
176
     1
 90
       50
176
     1
 90
       50
176
     1
 90
       50
176
     1
290
     0
176
     1
 90
       50
176
     1
 62
   256
176
     0
 40
1.0
176
     0
 90
        2
176
     1
  1
strokes_ogs.tif
176
     1
290
     0
176
     1
 40
1.0
176
     1
 40
1.0
176
     1
  0
VISUALSTYLE
  5
3A
102
{ACAD_REACTORS
330
2A
102
}
330
2A
100
AcDbVisualStyle
  2
ColorChange
 70
    16
177
     3
291
     1
 70
    58
 90
        2
176
     1
 90
        2
176
     1
 90
        3
176
     1
 90
        0
176
     1
 40
0.6
176
     1
 40
30.0
176
     1
 62
     8
420
  8421504
176
     1
 90
        1
176
     1
 90
        4
176
     1
 62
     7
176
     1
 62
   257
176
     1
 90
        1
176
     1
 90
        1
176
     1
 40
1.0
176
     1
 90
        8
176
     1
 62
     8
420
  8421504
176
     1
 40
1.0
176
     1
 90
        1
176
     1
 90
        6
176
     1
 90
        2
176
     1
 62
     7
176
     1
 90
        5
176
     1
 90
        0
176
     1
 90
        0
176
     1
290
     0
176
     1
 90
        1
176
     1
 40
0.0
176
     1
 90
        0
176
     1
290
     0
176
     1
290
     1
176
     1
290
     1
176
     1
290
     0
176
     1
290
     0
176
     1
290
     0
176
     1
290
     0
176
     1
290
     0
176
     1
290
     0
176
     1
 90
       50
176
     1
 40
0.0
176
     1
 40
1.0
176
     1
 90
        0
176
     1
 62
    18
420
        0
176
     1
 90
       50
176
     1
 90
        3
176
     1
 62
     5
420
      255
176
     1
290
     0
176
     1
 90
       50
176
     1
 90
       50
176
     1
 90
       50
176
     1
290
     0
176
     1
 90
       50
176
     1
 62
   256
176
     0
 40
1.0
176
     0
 90
        2
176
     1
  1
strokes_ogs.tif
176
     1
290
     0
176
     1
 40
1.0
176
     1
 40
1.0
176
     1
  0
VISUALSTYLE
  5
34
102
{ACAD_REACTORS
330
2A
102
}
330
2A
100
AcDbVisualStyle
  2
Conceptual
 70
     9
177
     3
291
     0
 70
    58
 90
        3
176
     1
 90
        2
176
     1
 90
        0
176
     1
 90
        0
176
     1
 40
0.6
176
     1
 40
30.0
176
     1
 62
     7
420
 16777215
176
     1
 90
        2
176
     1
 90
        2
176
     1
 62
     7
176
     1
 62
   257
176
     1
 90
        1
176
     1
 90
        1
176
     1
 40
179.0
176
     1
 90
        8
176
     1
 62
     7
176
     1
 40
1.0
176
     1
 90
        1
176
     1
 90
        6
176
     1
 90
        2
176
     1
 62
     7
176
     1
 90
        3
176
     1
 90
        0
176
     1
 90
        0
176
     1
290
     0
176
     1
 90
        1
176
     1
 40
0.0
176
     1
 90
        0
176
     1
290
     0
176
     1
290
     1
176
     1
290
     1
176
     1
290
     0
176
     1
290
     0
176
     1
290
     0
176
     1
290
     0
176
     1
290
     0
176
     1
290
     0
176
     1
 90
       50
176
     1
 40
0.0
176
     1
 40
1.0
176
     1
 90
        0
176
     1
 62
    18
420
        0
176
     1
 90
       50
176
     1
 90
        3
176
     1
 62
     5
420
      255
176
     1
290
     0
176
     1
 90
       50
176
     1
 90
       50
176
     1
 90
       50
176
     1
290
     0
176
     1
 90
       50
176
     1
 62
   256
176
     0
 40
1.0
176
     0
 90
        2
176
     1
  1
strokes_ogs.tif
176
     1
290
     0
176
     1
 40
1.0
176
     1
 40
1.0
176
     1
  0
VISUALSTYLE
  5
35
102
{ACAD_REACTORS
330
2A
102
}
330
2A
100
AcDbVisualStyle
  2
Dim
 70
    11
177
     3
291
     1
 70
    58
 90
        2
176
     1
 90
        2
176
     1
 90
        0
176
     1
 90
        0
176
     1
 40
0.6
176
     1
 40
30.0
176
     1
 62
     7
420
 16777215
176
     1
 90
        1
176
     1
 90
        4
176
     1
 62
     7
176
     1
 62
   257
176
     1
 90
        1
176
     1
 90
        1
176
     1
 40
1.0
176
     1
 90
        8
176
     1
 62
     7
176
     1
 40
1.0
176
     1
 90
        1
176
     1
 90
        6
176
     1
 90
        2
176
     1
 62
     7
176
     1
 90
        5
176
     1
 90
        0
176
     1
 90
        0
176
     1
290
     0
176
     1
 90
        1
176
     1
 40
-50.0
176
     1
 90
        0
176
     1
290
     0
176
     1
290
     1
176
     1
290
     1
176
     1
290
     0
176
     1
290
     0
176
     1
290
     0
176
     1
290
     0
176
     1
290
     0
176
     1
290
     0
176
     1
 90
       50
176
     1
 40
0.0
176
     1
 40
1.0
176
     1
 90
        0
176
     1
 62
    18
420
        0
176
     1
 90
       50
176
     1
 90
        3
176
     1
 62
     5
420
      255
176
     1
290
     0
176
     1
 90
       50
176
     1
 90
       50
176
     1
 90
       50
176
     1
290
     0
176
     1
 90
       50
176
     1
 62
   256
176
     0
 40
1.0
176
     0
 90
        2
176
     1
  1
strokes_ogs.tif
176
     1
290
     0
176
     1
 40
1.0
176
     1
 40
1.0
176
     1
  0
VISUALSTYLE
  5
3D
102
{ACAD_REACTORS
330
2A
102
}
330
2A
100
AcDbVisualStyle
  2
EdgeColorOff
 70
    22
177
     3
291
     1
 70
    58
 90
        2
176
     0
 90
        2
176
     0
 90
        0
176
     0
 90
        0
176
     0
 40
0.6
176
     0
 40
30.0
176
     0
 62
     7
420
 16777215
176
     0
 90
        1
176
     0
 90
        4
176
     0
 62
     7
176
     0
 62
   257
176
     0
 90
        1
176
     0
 90
        1
176
     0
 40
1.0
176
     0
 90
        8
176
     2
 62
     7
176
     0
 40
1.0
176
     0
 90
        1
176
     0
 90
        6
176
     0
 90
        2
176
     0
 62
     7
176
     0
 90
        5
176
     0
 90
        0
176
     0
 90
        0
176
     0
290
     0
176
     0
 90
        1
176
     0
 40
0.0
176
     0
 90
        0
176
     0
290
     0
176
     0
290
     1
176
     0
290
     1
176
     0
290
     0
176
     0
290
     0
176
     0
290
     0
176
     0
290
     0
176
     0
290
     0
176
     0
290
     0
176
     0
 90
       50
176
     0
 40
0.0
176
     0
 40
1.0
176
     0
 90
        0
176
     0
 62
    18
420
        0
176
     0
 90
       50
176
     0
 90
        3
176
     0
 62
     5
420
      255
176
     0
290
     0
176
     0
 90
       50
176
     0
 90
       50
176
     0
 90
       50
176
     0
290
     0
176
     0
 90
       50
176
     0
 62
   256
176
     0
 40
1.0
176
     0
 90
        2
176
     0
  1
strokes_ogs.tif
176
     0
290
     0
176
     0
 40
1.0
176
     0
 40
1.0
176
     0
  0
VISUALSTYLE
  5
39
102
{ACAD_REACTORS
330
2A
102
}
330
2A
100
AcDbVisualStyle
  2
Facepattern
 70
    15
177
     3
291
     1
 70
    58
 90
        2
176
     1
 90
        2
176
     1
 90
        0
176
     1
 90
        0
176
     1
 40
0.6
176
     1
 40
30.0
176
     1
 62
     7
420
 16777215
176
     1
 90
        1
176
     1
 90
        4
176
     1
 62
     7
176
     1
 62
   257
176
     1
 90
        1
176
     1
 90
        1
176
     1
 40
1.0
176
     1
 90
        8
176
     1
 62
     7
176
     1
 40
1.0
176
     1
 90
        1
176
     1
 90
        6
176
     1
 90
        2
176
     1
 62
     7
176
     1
 90
        5
176
     1
 90
        0
176
     1
 90
        0
176
     1
290
     0
176
     1
 90
        1
176
     1
 40
0.0
176
     1
 90
        0
176
     1
290
     0
176
     1
290
     1
176
     1
290
     1
176
     1
290
     0
176
     1
290
     0
176
     1
290
     0
176
     1
290
     0
176
     1
290
     0
176
     1
290
     0
176
     1
 90
       50
176
     1
 40
0.0
176
     1
 40
1.0
176
     1
 90
        0
176
     1
 62
    18
420
        0
176
     1
 90
       50
176
     1
 90
        3
176
     1
 62
     5
420
      255
176
     1
290
     0
176
     1
 90
       50
176
     1
 90
       50
176
     1
 90
       50
176
     1
290
     0
176
     1
 90
       50
176
     1
 62
   256
176
     0
 40
1.0
176
     0
 90
        2
176
     1
  1
strokes_ogs.tif
176
     1
290
     0
176
     1
 40
1.0
176
     1
 40
1.0
176
     1
  0
VISUALSTYLE
  5
2B
102
{ACAD_REACTORS
330
2A
102
}
330
2A
100
AcDbVisualStyle
  2
Flat
 70
     0
177
     3
291
     1
 70
    58
 90
        2
176
     1
 90
        1
176
     1
 90
        1
176
     1
 90
        2
176
     1
 40
0.6
176
     1
 40
30.0
176
     1
 62
     7
420
 16777215
176
     1
 90
        0
176
     1
 90
        0
176
     1
 62
     7
176
     1
 62
   257
176
     1
 90
        1
176
     1
 90
        1
176
     1
 40
1.0
176
     1
 90
        8
176
     1
 62
     7
176
     1
 40
1.0
176
     1
 90
        1
176
     1
 90
        6
176
     1
 90
        2
176
     1
 62
     7
176
     1
 90
        5
176
     1
 90
        0
176
     1
 90
        0
176
     1
290
     0
176
     1
 90
       13
176
     1
 40
0.0
176
     1
 90
        0
176
     1
290
     0
176
     1
290
     1
176
     1
290
     1
176
     1
290
     0
176
     1
290
     0
176
     1
290
     0
176
     1
290
     0
176
     1
290
     0
176
     1
290
     0
176
     1
 90
       50
176
     1
 40
0.0
176
     1
 40
1.0
176
     1
 90
        0
176
     1
 62
    18
420
        0
176
     1
 90
       50
176
     1
 90
        3
176
     1
 62
     5
420
      255
176
     1
290
     0
176
     1
 90
       50
176
     1
 90
       50
176
     1
 90
       50
176
     1
290
     0
176
     1
 90
       50
176
     1
 62
   256
176
     0
 40
1.0
176
     0
 90
        2
176
     1
  1
strokes_ogs.tif
176
     1
290
     0
176
     1
 40
1.0
176
     1
 40
1.0
176
     1
  0
VISUALSTYLE
  5
2C
102
{ACAD_REACTORS
330
2A
102
}
330
2A
100
AcDbVisualStyle
  2
FlatWithEdges
 70
     1
177
     3
291
     1
 70
    58
 90
        2
176
     1
 90
        1
176
     1
 90
        1
176
     1
 90
        2
176
     1
 40
0.6
176
     1
 40
30.0
176
     1
 62
     7
420
 16777215
176
     1
 90
        1
176
     1
 90
        0
176
     1
 62
     7
176
     1
 62
   257
176
     1
 90
        1
176
     1
 90
        1
176
     1
 40
1.0
176
     1
 90
        0
176
     1
 62
   257
176
     1
 40
1.0
176
     1
 90
        1
176
     1
 90
        6
176
     1
 90
        2
176
     1
 62
     7
176
     1
 90
        5
176
     1
 90
        0
176
     1
 90
        0
176
     1
290
     0
176
     1
 90
       13
176
     1
 40
0.0
176
     1
 90
        0
176
     1
290
     0
176
     1
290
     1
176
     1
290
     1
176
     1
290
     0
176
     1
290
     0
176
     1
290
     0
176
     1
290
     0
176
     1
290
     0
176
     1
290
     0
176
     1
 90
       50
176
     1
 40
0.0
176
     1
 40
1.0
176
     1
 90
        0
176
     1
 62
    18
420
        0
176
     1
 90
       50
176
     1
 90
        3
176
     1
 62
     5
420
      255
176
     1
290
     0
176
     1
 90
       50
176
     1
 90
       50
176
     1
 90
       50
176
     1
290
     0
176
     1
 90
       50
176
     1
 62
   256
176
     0
 40
1.0
176
     0
 90
        2
176
     1
  1
strokes_ogs.tif
176
     1
290
     0
176
     1
 40
1.0
176
     1
 40
1.0
176
     1
  0
VISUALSTYLE
  5
2D
102
{ACAD_REACTORS
330
2A
102
}
330
2A
100
AcDbVisualStyle
  2
Gouraud
 70
     2
177
     3
291
     1
 70
    58
 90
        2
176
     1
 90
        2
176
     1
 90
        1
176
     1
 90
        2
176
     1
 40
0.6
176
     1
 40
30.0
176
     1
 62
     7
420
 16777215
176
     1
 90
        0
176
     1
 90
        0
176
     1
 62
     7
176
     1
 62
   257
176
     1
 90
        1
176
     1
 90
        1
176
     1
 40
1.0
176
     1
 90
        0
176
     1
 62
     7
176
     1
 40
1.0
176
     1
 90
        1
176
     1
 90
        6
176
     1
 90
        2
176
     1
 62
     7
176
     1
 90
        5
176
     1
 90
        0
176
     1
 90
        0
176
     1
290
     0
176
     1
 90
       13
176
     1
 40
0.0
176
     1
 90
        0
176
     1
290
     0
176
     1
290
     1
176
     1
290
     1
176
     1
290
     0
176
     1
290
     0
176
     1
290
     0
176
     1
290
     0
176
     1
290
     0
176
     1
290
     0
176
     1
 90
       50
176
     1
 40
0.0
176
     1
 40
1.0
176
     1
 90
        0
176
     1
 62
    18
420
        0
176
     1
 90
       50
176
     1
 90
        3
176
     1
 62
     5
420
      255
176
     1
290
     0
176
     1
 90
       50
176
     1
 90
       50
176
     1
 90
       50
176
     1
290
     0
176
     1
 90
       50
176
     1
 62
   256
176
     0
 40
1.0
176
     0
 90
        2
176
     1
  1
strokes_ogs.tif
176
     1
290
     0
176
     1
 40
1.0
176
     1
 40
1.0
176
     1
  0
VISUALSTYLE
  5
2E
102
{ACAD_REACTORS
330
2A
102
}
330
2A
100
AcDbVisualStyle
  2
GouraudWithEdges
 70
     3
177
     3
291
     1
 70
    58
 90
        2
176
     1
 90
        2
176
     1
 90
        1
176
     1
 90
        2
176
     1
 40
0.6
176
     1
 40
30.0
176
     1
 62
     7
420
 16777215
176
     1
 90
        1
176
     1
 90
        0
176
     1
 62
     7
176
     1
 62
   257
176
     1
 90
        1
176
     1
 90
        1
176
     1
 40
1.0
176
     1
 90
        0
176
     1
 62
   257
176
     1
 40
1.0
176
     1
 90
        1
176
     1
 90
        6
176
     1
 90
        2
176
     1
 62
     7
176
     1
 90
        5
176
     1
 90
        0
176
     1
 90
        0
176
     1
290
     0
176
     1
 90
       13
176
     1
 40
0.0
176
     1
 90
        0
176
     1
290
     0
176
     1
290
     1
176
     1
290
     1
176
     1
290
     0
176
     1
290
     0
176
     1
290
     0
176
     1
290
     0
176
     1
290
     0
176
     1
290
     0
176
     1
 90
       50
176
     1
 40
0.0
176
     1
 40
1.0
176
     1
 90
        0
176
     1
 62
    18
420
        0
176
     1
 90
       50
176
     1
 90
        3
176
     1
 62
     5
420
      255
176
     1
290
     0
176
     1
 90
       50
176
     1
 90
       50
176
     1
 90
       50
176
     1
290
     0
176
     1
 90
       50
176
     1
 62
   256
176
     0
 40
1.0
176
     0
 90
        2
176
     1
  1
strokes_ogs.tif
176
     1
290
     0
176
     1
 40
1.0
176
     1
 40
1.0
176
     1
  0
VISUALSTYLE
  5
31
102
{ACAD_REACTORS
330
2A
102
}
330
2A
100
AcDbVisualStyle
  2
Hidden
 70
     6
177
     3
291
     0
 70
    58
 90
        1
176
     1
 90
        2
176
     1
 90
        2
176
     1
 90
        0
176
     1
 40
0.6
176
     1
 40
30.0
176
     1
 62
     7
420
 16777215
176
     1
 90
        2
176
     1
 90
        2
176
     1
 62
     7
176
     1
 62
   257
176
     1
 90
        2
176
     1
 90
        1
176
     1
 40
40.0
176
     1
 90
        0
176
     1
 62
   257
176
     1
 40
1.0
176
     1
 90
        1
176
     1
 90
        6
176
     1
 90
        2
176
     1
 62
     7
176
     1
 90
        3
176
     1
 90
        0
176
     1
 90
        0
176
     1
290
     0
176
     1
 90
        1
176
     1
 40
0.0
176
     1
 90
        0
176
     1
290
     0
176
     1
290
     1
176
     1
290
     1
176
     1
290
     0
176
     1
290
     0
176
     1
290
     0
176
     1
290
     0
176
     1
290
     0
176
     1
290
     0
176
     1
 90
       50
176
     1
 40
0.0
176
     1
 40
1.0
176
     1
 90
        0
176
     1
 62
    18
420
        0
176
     1
 90
       50
176
     1
 90
        3
176
     1
 62
     5
420
      255
176
     1
290
     0
176
     1
 90
       50
176
     1
 90
       50
176
     1
 90
       50
176
     1
290
     0
176
     1
 90
       50
176
     1
 62
   256
176
     0
 40
1.0
176
     0
 90
        2
176
     1
  1
strokes_ogs.tif
176
     1
290
     0
176
     1
 40
1.0
176
     1
 40
1.0
176
     1
  0
VISUALSTYLE
  5
3B
102
{ACAD_REACTORS
330
2A
102
}
330
2A
100
AcDbVisualStyle
  2
JitterOff
 70
    20
177
     3
291
     1
 70
    58
 90
        2
176
     0
 90
        2
176
     0
 90
        0
176
     0
 90
        0
176
     0
 40
0.6
176
     0
 40
30.0
176
     0
 62
     7
420
 16777215
176
     0
 90
        1
176
     0
 90
        4
176
     0
 62
     7
176
     0
 62
   257
176
     0
 90
        1
176
     0
 90
        1
176
     0
 40
1.0
176
     0
 90
       10
176
     2
 62
     7
176
     0
 40
1.0
176
     0
 90
        1
176
     0
 90
        6
176
     0
 90
        2
176
     0
 62
     7
176
     0
 90
        5
176
     0
 90
        0
176
     0
 90
        0
176
     0
290
     0
176
     0
 90
        1
176
     0
 40
0.0
176
     0
 90
        0
176
     0
290
     0
176
     0
290
     1
176
     0
290
     1
176
     0
290
     0
176
     0
290
     0
176
     0
290
     0
176
     0
290
     0
176
     0
290
     0
176
     0
290
     0
176
     0
 90
       50
176
     0
 40
0.0
176
     0
 40
1.0
176
     0
 90
        0
176
     0
 62
    18
420
        0
176
     0
 90
       50
176
     0
 90
        3
176
     0
 62
     5
420
      255
176
     0
290
     0
176
     0
 90
       50
176
     0
 90
       50
176
     0
 90
       50
176
     0
290
     0
176
     0
 90
       50
176
     0
 62
   256
176
     0
 40
1.0
176
     0
 90
        2
176
     0
  1
strokes_ogs.tif
176
     0
290
     0
176
     0
 40
1.0
176
     0
 40
1.0
176
     0
  0
VISUALSTYLE
  5
38
102
{ACAD_REACTORS
330
2A
102
}
330
2A
100
AcDbVisualStyle
  2
Linepattern
 70
    14
177
     3
291
     1
 70
    58
 90
        2
176
     1
 90
        2
176
     1
 90
        0
176
     1
 90
        0
176
     1
 40
0.6
176
     1
 40
30.0
176
     1
 62
     7
420
 16777215
176
     1
 90
        1
176
     1
 90
        4
176
     1
 62
     7
176
     1
 62
   257
176
     1
 90
        7
176
     1
 90
        7
176
     1
 40
1.0
176
     1
 90
        8
176
     1
 62
     7
176
     1
 40
1.0
176
     1
 90
        1
176
     1
 90
        6
176
     1
 90
        2
176
     1
 62
     7
176
     1
 90
        5
176
     1
 90
        0
176
     1
 90
        0
176
     1
290
     0
176
     1
 90
        1
176
     1
 40
0.0
176
     1
 90
        0
176
     1
290
     0
176
     1
290
     1
176
     1
290
     1
176
     1
290
     0
176
     1
290
     0
176
     1
290
     0
176
     1
290
     0
176
     1
290
     0
176
     1
290
     0
176
     1
 90
       50
176
     1
 40
0.0
176
     1
 40
1.0
176
     1
 90
        0
176
     1
 62
    18
420
        0
176
     1
 90
       50
176
     1
 90
        3
176
     1
 62
     5
420
      255
176
     1
290
     0
176
     1
 90
       50
176
     1
 90
       50
176
     1
 90
       50
176
     1
290
     0
176
     1
 90
       50
176
     1
 62
   256
176
     0
 40
1.0
176
     0
 90
        2
176
     1
  1
strokes_ogs.tif
176
     1
290
     0
176
     1
 40
1.0
176
     1
 40
1.0
176
     1
  0
VISUALSTYLE
  5
3C
102
{ACAD_REACTORS
330
2A
102
}
330
2A
100
AcDbVisualStyle
  2
OverhangOff
 70
    21
177
     3
291
     1
 70
    58
 90
        2
176
     0
 90
        2
176
     0
 90
        0
176
     0
 90
        0
176
     0
 40
0.6
176
     0
 40
30.0
176
     0
 62
     7
420
 16777215
176
     0
 90
        1
176
     0
 90
        4
176
     0
 62
     7
176
     0
 62
   257
176
     0
 90
        1
176
     0
 90
        1
176
     0
 40
1.0
176
     0
 90
        9
176
     2
 62
     7
176
     0
 40
1.0
176
     0
 90
        1
176
     0
 90
        6
176
     0
 90
        2
176
     0
 62
     7
176
     0
 90
        5
176
     0
 90
        0
176
     0
 90
        0
176
     0
290
     0
176
     0
 90
        1
176
     0
 40
0.0
176
     0
 90
        0
176
     0
290
     0
176
     0
290
     1
176
     0
290
     1
176
     0
290
     0
176
     0
290
     0
176
     0
290
     0
176
     0
290
     0
176
     0
290
     0
176
     0
290
     0
176
     0
 90
       50
176
     0
 40
0.0
176
     0
 40
1.0
176
     0
 90
        0
176
     0
 62
    18
420
        0
176
     0
 90
       50
176
     0
 90
        3
176
     0
 62
     5
420
      255
176
     0
290
     0
176
     0
 90
       50
176
     0
 90
       50
176
     0
 90
       50
176
     0
290
     0
176
     0
 90
       50
176
     0
 62
   256
176
     0
 40
1.0
176
     0
 90
        2
176
     0
  1
strokes_ogs.tif
176
     0
290
     0
176
     0
 40
1.0
176
     0
 40
1.0
176
     0
  0
VISUALSTYLE
  5
33
102
{ACAD_REACTORS
330
2A
102
}
330
2A
100
AcDbVisualStyle
  2
Realistic
 70
     8
177
     3
291
     0
 70
    58
 90
        2
176
     1
 90
        3
176
     1
 90
        0
176
     1
 90
        2
176
     1
 40
0.6
176
     1
 40
30.0
176
     1
 62
     7
420
 16777215
176
     1
 90
        0
176
     1
 90
        0
176
     1
 62
     7
176
     1
 62
   257
176
     1
 90
        1
176
     1
 90
        1
176
     1
 40
1.0
176
     1
 90
        8
176
     1
 62
   257
176
     1
 40
1.0
176
     1
 90
        1
176
     1
 90
        6
176
     1
 90
        2
176
     1
 62
     7
176
     1
 90
        3
176
     1
 90
        0
176
     1
 90
        0
176
     1
290
     0
176
     1
 90
       13
176
     1
 40
0.0
176
     1
 90
        0
176
     1
290
     0
176
     1
290
     1
176
     1
290
     1
176
     1
290
     0
176
     1
290
     0
176
     1
290
     0
176
     1
290
     0
176
     1
290
     0
176
     1
290
     0
176
     1
 90
       50
176
     1
 40
0.0
176
     1
 40
1.0
176
     1
 90
        0
176
     1
 62
    18
420
        0
176
     1
 90
       50
176
     1
 90
        3
176
     1
 62
     5
420
      255
176
     1
290
     0
176
     1
 90
       50
176
     1
 90
       50
176
     1
 90
       50
176
     1
290
     0
176
     1
 90
       50
176
     1
 62
   256
176
     0
 40
1.0
176
     0
 90
        2
176
     1
  1
strokes_ogs.tif
176
     1
290
     0
176
     1
 40
1.0
176
     1
 40
1.0
176
     1
  0
VISUALSTYLE
  5
42
102
{ACAD_REACTORS
330
2A
102
}
330
2A
100
AcDbVisualStyle
  2
Shaded
 70
    27
177
     3
291
     0
 70
    58
 90
        2
176
     1
 90
        2
176
     1
 90
        1
176
     1
 90
        2
176
     1
 40
0.6
176
     1
 40
30.0
176
     1
 62
     7
420
 16777215
176
     1
 90
        0
176
     1
 90
        4
176
     1
 62
     7
176
     1
 62
   257
176
     1
 90
        1
176
     1
 90
        1
176
     1
 40
1.0
176
     1
 90
        8
176
     1
 62
   257
176
     1
 40
1.0
176
     1
 90
        1
176
     1
 90
        6
176
     1
 90
        2
176
     1
 62
     8
420
  7895160
176
     1
 90
        3
176
     1
 90
        0
176
     1
 90
        0
176
     1
290
     0
176
     1
 90
        5
176
     1
 40
0.0
176
     1
 90
        0
176
     1
290
     0
176
     1
290
     1
176
     1
290
     1
176
     1
290
     0
176
     1
290
     0
176
     1
290
     0
176
     1
290
     0
176
     1
290
     0
176
     1
290
     0
176
     1
 90
       50
176
     1
 40
0.0
176
     1
 40
1.0
176
     1
 90
        0
176
     1
 62
    18
420
        0
176
     1
 90
       50
176
     1
 90
        3
176
     1
 62
     5
420
      255
176
     1
290
     0
176
     1
 90
       50
176
     1
 90
       50
176
     1
 90
       50
176
     1
290
     0
176
     1
 90
       50
176
     1
 62
   256
176
     0
 40
1.0
176
     0
 90
        2
176
     1
  1
strokes_ogs.tif
176
     1
290
     0
176
     1
 40
1.0
176
     1
 40
1.0
176
     1
  0
VISUALSTYLE
  5
41
102
{ACAD_REACTORS
330
2A
102
}
330
2A
100
AcDbVisualStyle
  2
Shaded with edges
 70
    26
177
     3
291
     0
 70
    58
 90
        2
176
     1
 90
        2
176
     1
 90
        1
176
     1
 90
        2
176
     1
 40
0.6
176
     1
 40
30.0
176
     1
 62
     7
420
 16777215
176
     1
 90
        1
176
     1
 90
       10
176
     1
 62
     7
176
     1
 62
   257
176
     1
 90
        2
176
     1
 90
        1
176
     1
 40
1.0
176
     1
 90
        8
176
     1
 62
   257
176
     1
 40
1.0
176
     1
 90
        1
176
     1
 90
        6
176
     1
 90
        2
176
     1
 62
     7
176
     1
 90
        3
176
     1
 90
        0
176
     1
 90
        0
176
     1
290
     0
176
     1
 90
        5
176
     1
 40
0.0
176
     1
 90
        0
176
     1
290
     0
176
     1
290
     1
176
     1
290
     1
176
     1
290
     0
176
     1
290
     0
176
     1
290
     0
176
     1
290
     0
176
     1
290
     0
176
     1
290
     0
176
     1
 90
       50
176
     1
 40
0.0
176
     1
 40
1.0
176
     1
 90
        0
176
     1
 62
    18
420
        0
176
     1
 90
       50
176
     1
 90
        3
176
     1
 62
     5
420
      255
176
     1
290
     0
176
     1
 90
       50
176
     1
 90
       50
176
     1
 90
       50
176
     1
290
     0
176
     1
 90
       50
176
     1
 62
   256
176
     0
 40
1.0
176
     0
 90
        2
176
     1
  1
strokes_ogs.tif
176
     1
290
     0
176
     1
 40
1.0
176
     1
 40
1.0
176
     1
  0
VISUALSTYLE
  5
3E
102
{ACAD_REACTORS
330
2A
102
}
330
2A
100
AcDbVisualStyle
  2
Shades of Gray
 70
    23
177
     3
291
     0
 70
    58
 90
        2
176
     1
 90
        2
176
     1
 90
        3
176
     1
 90
        0
176
     1
 40
0.6
176
     1
 40
30.0
176
     1
 62
     7
420
 16777215
176
     1
 90
        2
176
     1
 90
        2
176
     1
 62
     7
176
     1
 62
     7
176
     1
 90
        1
176
     1
 90
        1
176
     1
 40
40.0
176
     1
 90
        8
176
     1
 62
     7
176
     1
 40
1.0
176
     1
 90
        1
176
     1
 90
        6
176
     1
 90
        2
176
     1
 62
     7
176
     1
 90
        3
176
     1
 90
        0
176
     1
 90
        0
176
     1
290
     0
176
     1
 90
        1
176
     1
 40
0.0
176
     1
 90
        0
176
     1
290
     0
176
     1
290
     1
176
     1
290
     1
176
     1
290
     0
176
     1
290
     0
176
     1
290
     0
176
     1
290
     0
176
     1
290
     0
176
     1
290
     0
176
     1
 90
       50
176
     1
 40
0.0
176
     1
 40
1.0
176
     1
 90
        0
176
     1
 62
    18
420
        0
176
     1
 90
       50
176
     1
 90
        3
176
     1
 62
     5
420
      255
176
     1
290
     0
176
     1
 90
       50
176
     1
 90
       50
176
     1
 90
       50
176
     1
290
     0
176
     1
 90
       50
176
     1
 62
   256
176
     0
 40
1.0
176
     0
 90
        2
176
     1
  1
strokes_ogs.tif
176
     1
290
     0
176
     1
 40
1.0
176
     1
 40
1.0
176
     1
  0
VISUALSTYLE
  5
3F
102
{ACAD_REACTORS
330
2A
102
}
330
2A
100
AcDbVisualStyle
  2
Sketchy
 70
    24
177
     3
291
     0
 70
    58
 90
        1
176
     1
 90
        2
176
     1
 90
        2
176
     1
 90
        0
176
     1
 40
0.6
176
     1
 40
30.0
176
     1
 62
     7
420
 16777215
176
     1
 90
        2
176
     1
 90
        2
176
     1
 62
     7
176
     1
 62
     7
176
     1
 90
        1
176
     1
 90
        1
176
     1
 40
40.0
176
     1
 90
       11
176
     1
 62
     7
176
     1
 40
1.0
176
     1
 90
        1
176
     1
 90
        6
176
     1
 90
        2
176
     1
 62
     7
176
     1
 90
        6
176
     1
 90
        0
176
     1
 90
        0
176
     1
290
     0
176
     1
 90
        1
176
     1
 40
0.0
176
     1
 90
        0
176
     1
290
     0
176
     1
290
     1
176
     1
290
     1
176
     1
290
     0
176
     1
290
     0
176
     1
290
     0
176
     1
290
     0
176
     1
290
     0
176
     1
290
     0
176
     1
 90
       50
176
     1
 40
0.0
176
     1
 40
1.0
176
     1
 90
        0
176
     1
 62
    18
420
        0
176
     1
 90
       50
176
     1
 90
        3
176
     1
 62
     5
420
      255
176
     1
290
     0
176
     1
 90
       50
176
     1
 90
       50
176
     1
 90
       50
176
     1
290
     0
176
     1
 90
       50
176
     1
 62
   256
176
     0
 40
1.0
176
     0
 90
        2
176
     1
  1
strokes_ogs.tif
176
     1
290
     0
176
     1
 40
1.0
176
     1
 40
1.0
176
     1
  0
VISUALSTYLE
  5
37
102
{ACAD_REACTORS
330
2A
102
}
330
2A
100
AcDbVisualStyle
  2
Thicken
 70
    13
177
     3
291
     1
 70
    58
 90
        2
176
     1
 90
        2
176
     1
 90
        0
176
     1
 90
        0
176
     1
 40
0.6
176
     1
 40
30.0
176
     1
 62
     7
420
 16777215
176
     1
 90
        1
176
     1
 90
        4
176
     1
 62
     7
176
     1
 62
   257
176
     1
 90
        1
176
     1
 90
        1
176
     1
 40
1.0
176
     1
 90
       12
176
     1
 62
     7
176
     1
 40
1.0
176
     1
 90
        1
176
     1
 90
        6
176
     1
 90
        2
176
     1
 62
     7
176
     1
 90
        5
176
     1
 90
        0
176
     1
 90
        0
176
     1
290
     0
176
     1
 90
        1
176
     1
 40
0.0
176
     1
 90
        0
176
     1
290
     0
176
     1
290
     1
176
     1
290
     1
176
     1
290
     0
176
     1
290
     0
176
     1
290
     0
176
     1
290
     0
176
     1
290
     0
176
     1
290
     0
176
     1
 90
       50
176
     1
 40
0.0
176
     1
 40
1.0
176
     1
 90
        0
176
     1
 62
    18
420
        0
176
     1
 90
       50
176
     1
 90
        3
176
     1
 62
     5
420
      255
176
     1
290
     0
176
     1
 90
       50
176
     1
 90
       50
176
     1
 90
       50
176
     1
290
     0
176
     1
 90
       50
176
     1
 62
   256
176
     0
 40
1.0
176
     0
 90
        2
176
     1
  1
strokes_ogs.tif
176
     1
290
     0
176
     1
 40
1.0
176
     1
 40
1.0
176
     1
  0
VISUALSTYLE
  5
30
102
{ACAD_REACTORS
330
2A
102
}
330
2A
100
AcDbVisualStyle
  2
Wireframe
 70
     5
177
     3
291
     0
 70
    58
 90
        0
176
     1
 90
        2
176
     1
 90
        0
176
     1
 90
        0
176
     1
 40
0.6
176
     1
 40
30.0
176
     1
 62
     7
420
 16777215
176
     1
 90
        1
176
     1
 90
        4
176
     1
 62
     7
176
     1
 62
   257
176
     1
 90
        1
176
     1
 90
        1
176
     1
 40
1.0
176
     1
 90
        0
176
     1
 62
   257
176
     1
 40
1.0
176
     1
 90
        1
176
     1
 90
        6
176
     1
 90
        2
176
     1
 62
     7
176
     1
 90
        3
176
     1
 90
        0
176
     1
 90
        0
176
     1
290
     0
176
     1
 90
        1
176
     1
 40
0.0
176
     1
 90
        0
176
     1
290
     0
176
     1
290
     1
176
     1
290
     1
176
     1
290
     0
176
     1
290
     0
176
     1
290
     0
176
     1
290
     0
176
     1
290
     0
176
     1
290
     0
176
     1
 90
       50
176
     1
 40
0.0
176
     1
 40
1.0
176
     1
 90
        0
176
     1
 62
    18
420
        0
176
     1
 90
       50
176
     1
 90
        3
176
     1
 62
     5
420
      255
176
     1
290
     0
176
     1
 90
       50
176
     1
 90
       50
176
     1
 90
       50
176
     1
290
     0
176
     1
 90
       50
176
     1
 62
   256
176
     0
 40
1.0
176
     0
 90
        2
176
     1
  1
strokes_ogs.tif
176
     1
290
     0
176
     1
 40
1.0
176
     1
 40
1.0
176
     1
  0
VISUALSTYLE
  5
40
102
{ACAD_REACTORS
330
2A
102
}
330
2A
100
AcDbVisualStyle
  2
X-Ray
 70
    25
177
     3
291
     0
 70
    58
 90
        2
176
     1
 90
        2
176
     1
 90
        1
176
     1
 90
        1
176
     1
 40
0.5
176
     1
 40
30.0
176
     1
 62
     7
420
 16777215
176
     1
 90
        1
176
     1
 90
        0
176
     1
 62
     7
176
     1
 62
   257
176
     1
 90
        1
176
     1
 90
        1
176
     1
 40
1.0
176
     1
 90
        8
176
     1
 62
     7
176
     1
 40
1.0
176
     1
 90
        1
176
     1
 90
        6
176
     1
 90
        2
176
     1
 62
     7
176
     1
 90
        3
176
     1
 90
        0
176
     1
 90
        0
176
     1
290
     0
176
     1
 90
       13
176
     1
 40
0.0
176
     1
 90
        0
176
     1
290
     0
176
     1
290
     1
176
     1
290
     1
176
     1
290
     0
176
     1
290
     0
176
     1
290
     0
176
     1
290
     0
176
     1
290
     0
176
     1
290
     0
176
     1
 90
       50
176
     1
 40
0.0
176
     1
 40
1.0
176
     1
 90
        0
176
     1
 62
    18
420
        0
176
     1
 90
       50
176
     1
 90
        3
176
     1
 62
     5
420
      255
176
     1
290
     0
176
     1
 90
       50
176
     1
 90
       50
176
     1
 90
       50
176
     1
290
     0
176
     1
 90
       50
176
     1
 62
   256
176
     0
 40
1.0
176
     0
 90
        2
176
     1
  1
strokes_ogs.tif
176
     1
290
     0
176
     1
 40
1.0
176
     1
 40
1.0
176
     1
  0
DICTIONARYVAR
  5
118
102
{ACAD_REACTORS
330
117
102
}
330
117
100
DictionaryVariables
280
     0
  1
1:1
  0
DICTIONARYVAR
  5
120
102
{ACAD_REACTORS
330
117
102
}
330
117
100
DictionaryVariables
280
     0
  1
3.500000
  0
DICTIONARYVAR
  5
121
102
{ACAD_REACTORS
330
117
102
}
330
117
100
DictionaryVariables
280
     0
  1
acadiso.lin
  0
DICTIONARYVAR
  5
11D
102
{ACAD_REACTORS
330
117
102
}
330
117
100
DictionaryVariables
280
     0
  1
Standard
  0
DICTIONARYVAR
  5
11C
102
{ACAD_REACTORS
330
117
102
}
330
117
100
DictionaryVariables
280
     0
  1
Standard
  0
DICTIONARY
  5
119
330
5A
100
AcDbDictionary
280
     1
281
     1
  3
ACAD_ROUNDTRIP_2008_TABLESTYLE_CELLSTYLEMAP
360
11A
  0
CELLSTYLEMAP
  5
11A
102
{ACAD_REACTORS
330
119
102
}
330
119
100
AcDbCellStyleMap
 90
        3
300
CELLSTYLE
  1
TABLEFORMAT_BEGIN
 90
        5
170
     1
 91
        0
 92
    32768
 62
   257
 93
        1
300
CONTENTFORMAT
  1
CONTENTFORMAT_BEGIN
 90
        0
 91
        0
 92
        4
 93
        0
300

 40
0.0
140
1.0
 94
        5
 62
     0
340
11
144
6.0
309
CONTENTFORMAT_END
171
     1
301
MARGIN
  1
CELLMARGIN_BEGIN
 40
1.5
 40
1.5
 40
1.5
 40
1.5
 40
1.5
 40
1.5
309
CELLMARGIN_END
 94
        6
 95
        1
302
GRIDFORMAT
  1
GRIDFORMAT_BEGIN
 90
        0
 91
        1
 62
     0
 92
       -2
340
14
 93
        0
 40
0.045
309
GRIDFORMAT_END
 95
        2
302
GRIDFORMAT
  1
GRIDFORMAT_BEGIN
 90
        0
 91
        1
 62
     0
 92
       -2
340
14
 93
        0
 40
0.045
309
GRIDFORMAT_END
 95
        4
302
GRIDFORMAT
  1
GRIDFORMAT_BEGIN
 90
        0
 91
        1
 62
     0
 92
       -2
340
14
 93
        0
 40
0.045
309
GRIDFORMAT_END
 95
        8
302
GRIDFORMAT
  1
GRIDFORMAT_BEGIN
 90
        0
 91
        1
 62
     0
 92
       -2
340
14
 93
        0
 40
0.045
309
GRIDFORMAT_END
 95
       16
302
GRIDFORMAT
  1
GRIDFORMAT_BEGIN
 90
        0
 91
        1
 62
     0
 92
       -2
340
14
 93
        0
 40
0.045
309
GRIDFORMAT_END
 95
       32
302
GRIDFORMAT
  1
GRIDFORMAT_BEGIN
 90
        0
 91
        1
 62
     0
 92
       -2
340
14
 93
        0
 40
0.045
309
GRIDFORMAT_END
309
TABLEFORMAT_END
  1
CELLSTYLE_BEGIN
 90
        1
 91
        1
300
_TITLE
309
CELLSTYLE_END
300
CELLSTYLE
  1
TABLEFORMAT_BEGIN
 90
        5
170
     1
 91
        0
 92
        0
 62
   257
 93
        1
300
CONTENTFORMAT
  1
CONTENTFORMAT_BEGIN
 90
        0
 91
        0
 92
        4
 93
        0
300

 40
0.0
140
1.0
 94
        5
 62
     0
340
11
144
4.5
309
CONTENTFORMAT_END
171
     1
301
MARGIN
  1
CELLMARGIN_BEGIN
 40
1.5
 40
1.5
 40
1.5
 40
1.5
 40
1.5
 40
1.5
309
CELLMARGIN_END
 94
        6
 95
        1
302
GRIDFORMAT
  1
GRIDFORMAT_BEGIN
 90
        0
 91
        1
 62
     0
 92
       -2
340
14
 93
        0
 40
0.045
309
GRIDFORMAT_END
 95
        2
302
GRIDFORMAT
  1
GRIDFORMAT_BEGIN
 90
        0
 91
        1
 62
     0
 92
       -2
340
14
 93
        0
 40
0.045
309
GRIDFORMAT_END
 95
        4
302
GRIDFORMAT
  1
GRIDFORMAT_BEGIN
 90
        0
 91
        1
 62
     0
 92
       -2
340
14
 93
        0
 40
0.045
309
GRIDFORMAT_END
 95
        8
302
GRIDFORMAT
  1
GRIDFORMAT_BEGIN
 90
        0
 91
        1
 62
     0
 92
       -2
340
14
 93
        0
 40
0.045
309
GRIDFORMAT_END
 95
       16
302
GRIDFORMAT
  1
GRIDFORMAT_BEGIN
 90
        0
 91
        1
 62
     0
 92
       -2
340
14
 93
        0
 40
0.045
309
GRIDFORMAT_END
 95
       32
302
GRIDFORMAT
  1
GRIDFORMAT_BEGIN
 90
        0
 91
        1
 62
     0
 92
       -2
340
14
 93
        0
 40
0.045
309
GRIDFORMAT_END
309
TABLEFORMAT_END
  1
CELLSTYLE_BEGIN
 90
        2
 91
        1
300
_HEADER
309
CELLSTYLE_END
300
CELLSTYLE
  1
TABLEFORMAT_BEGIN
 90
        5
170
     1
 91
        0
 92
        0
 62
   257
 93
        1
300
CONTENTFORMAT
  1
CONTENTFORMAT_BEGIN
 90
        0
 91
        0
 92
        4
 93
        0
300

 40
0.0
140
1.0
 94
        2
 62
     0
340
11
144
4.5
309
CONTENTFORMAT_END
171
     1
301
MARGIN
  1
CELLMARGIN_BEGIN
 40
1.5
 40
1.5
 40
1.5
 40
1.5
 40
1.5
 40
1.5
309
CELLMARGIN_END
 94
        6
 95
        1
302
GRIDFORMAT
  1
GRIDFORMAT_BEGIN
 90
        0
 91
        1
 62
     0
 92
       -2
340
14
 93
        0
 40
0.045
309
GRIDFORMAT_END
 95
        2
302
GRIDFORMAT
  1
GRIDFORMAT_BEGIN
 90
        0
 91
        1
 62
     0
 92
       -2
340
14
 93
        0
 40
0.045
309
GRIDFORMAT_END
 95
        4
302
GRIDFORMAT
  1
GRIDFORMAT_BEGIN
 90
        0
 91
        1
 62
     0
 92
       -2
340
14
 93
        0
 40
0.045
309
GRIDFORMAT_END
 95
        8
302
GRIDFORMAT
  1
GRIDFORMAT_BEGIN
 90
        0
 91
        1
 62
     0
 92
       -2
340
14
 93
        0
 40
0.045
309
GRIDFORMAT_END
 95
       16
302
GRIDFORMAT
  1
GRIDFORMAT_BEGIN
 90
        0
 91
        1
 62
     0
 92
       -2
340
14
 93
        0
 40
0.045
309
GRIDFORMAT_END
 95
       32
302
GRIDFORMAT
  1
GRIDFORMAT_BEGIN
 90
        0
 91
        1
 62
     0
 92
       -2
340
14
 93
        0
 40
0.045
309
GRIDFORMAT_END
309
TABLEFORMAT_END
  1
CELLSTYLE_BEGIN
 90
        3
 91
        2
300
_DATA
309
CELLSTYLE_END
  0
ENDSEC
  0
EOF
