  0
SECTION
  2
HEADER
  9
$ACADVER
  1
AC1027
  9
$ACADMAINTVER
 70
   105
  9
$DWGCODEPAGE
  3
ANSI_1252
  9
$LASTSAVEDBY
  1
Nick
  9
$REQUIREDVERSIONS
160
                 0
  9
$INSBASE
 10
0.0
 20
0.0
 30
0.0
  9
$EXTMIN
 10
0.0
 20
0.0
 30
0.0
  9
$EXTMAX
 10
420.0
 20
297.0
 30
0.0
  9
$LIMMIN
 10
0.0
 20
0.0
  9
$LIMMAX
 10
420.0
 20
297.0
  9
$ORTHOMODE
 70
     0
  9
$REGENMODE
 70
     1
  9
$FILLMODE
 70
     1
  9
$QTEXTMODE
 70
     0
  9
$MIRRTEXT
 70
     1
  9
$LTSCALE
 40
1.0
  9
$ATTMODE
 70
     1
  9
$TEXTSIZE
 40
4.2333333333
  9
$TRACEWID
 40
1.0
  9
$TEXTSTYLE
  7
Standard
  9
$CLAYER
  8
0
  9
$CELTYPE
  6
ByLayer
  9
$CECOLOR
 62
   256
  9
$CELTSCALE
 40
1.0
  9
$DISPSILH
 70
     0
  9
$DIMSCALE
 40
1.0
  9
$DIMASZ
 40
3.302
  9
$DIMEXO
 40
1.0
  9
$DIMDLI
 40
3.75
  9
$DIMRND
 40
0.0
  9
$DIMDLE
 40
0.0
  9
$DIMEXE
 40
1.0
  9
$DIMTP
 40
0.0
  9
$DIMTM
 40
0.0
  9
$DIMTXT
 40
4.2333333333
  9
$DIMCEN
 40
2.5
  9
$DIMTSZ
 40
0.0
  9
$DIMTOL
 70
     0
  9
$DIMLIM
 70
     0
  9
$DIMTIH
 70
     1
  9
$DIMTOH
 70
     1
  9
$DIMSE1
 70
     0
  9
$DIMSE2
 70
     0
  9
$DIMTAD
 70
     1
  9
$DIMZIN
 70
     1
  9
$DIMBLK
  1

  9
$DIMASO
 70
     1
  9
$DIMSHO
 70
     1
  9
$DIMPOST
  1

  9
$DIMAPOST
  1

  9
$DIMALT
 70
     0
  9
$DIMALTD
 70
     3
  9
$DIMALTF
 40
0.0393700787
  9
$DIMLFAC
 40
1.0
  9
$DIMTOFL
 70
     1
  9
$DIMTVP
 40
0.0
  9
$DIMTIX
 70
     0
  9
$DIMSOXD
 70
     0
  9
$DIMSAH
 70
     0
  9
$DIMBLK1
  1

  9
$DIMBLK2
  1

  9
$DIMSTYLE
  2
ISO-25
  9
$DIMCLRD
 70
     0
  9
$DIMCLRE
 70
     0
  9
$DIMCLRT
 70
     0
  9
$DIMTFAC
 40
1.0
  9
$DIMGAP
 40
1.524
  9
$DIMJUST
 70
     0
  9
$DIMSD1
 70
     0
  9
$DIMSD2
 70
     0
  9
$DIMTOLJ
 70
     0
  9
$DIMTZIN
 70
     1
  9
$DIMALTZ
 70
     0
  9
$DIMALTTZ
 70
     0
  9
$DIMUPT
 70
     0
  9
$DIMDEC
 70
     0
  9
$DIMTDEC
 70
     0
  9
$DIMALTU
 70
     2
  9
$DIMALTTD
 70
     3
  9
$DIMTXSTY
  7
Standard
  9
$DIMAUNIT
 70
     0
  9
$DIMADEC
 70
     2
  9
$DIMALTRND
 40
0.0
  9
$DIMAZIN
 70
     0
  9
$DIMDSEP
 70
    44
  9
$DIMATFIT
 70
     3
  9
$DIMFRAC
 70
     0
  9
$DIMLDRBLK
  1

  9
$DIMLUNIT
 70
     2
  9
$DIMLWD
 70
    -2
  9
$DIMLWE
 70
    -2
  9
$DIMTMOVE
 70
     0
  9
$DIMFXL
 40
1.0
  9
$DIMFXLON
 70
     0
  9
$DIMJOGANG
 40
0.7853981634
  9
$DIMTFILL
 70
     0
  9
$DIMTFILLCLR
 70
     0
  9
$DIMARCSYM
 70
     0
  9
$DIMLTYPE
  6

  9
$DIMLTEX1
  6

  9
$DIMLTEX2
  6

  9
$DIMTXTDIRECTION
 70
     0
  9
$LUNITS
 70
     2
  9
$LUPREC
 70
     0
  9
$SKETCHINC
 40
1.0
  9
$FILLETRAD
 40
0.0
  9
$AUNITS
 70
     0
  9
$AUPREC
 70
     2
  9
$MENU
  1
.
  9
$ELEVATION
 40
0.0
  9
$PELEVATION
 40
0.0
  9
$THICKNESS
 40
0.0
  9
$LIMCHECK
 70
     0
  9
$CHAMFERA
 40
0.0
  9
$CHAMFERB
 40
0.0
  9
$CHAMFERC
 40
0.0
  9
$CHAMFERD
 40
0.0
  9
$SKPOLY
 70
     0
  9
$TDCREATE
 40
2460951.440400764
  9
$TDUCREATE
 40
2460951.023734098
  9
$TDUPDATE
 40
2460951.440401204
  9
$TDUUPDATE
 40
2460951.023734537
  9
$TDINDWG
 40
0.0000000116
  9
$TDUSRTIMER
 40
0.0000000116
  9
$USRTIMER
 70
     1
  9
$ANGBASE
 50
0.0
  9
$ANGDIR
 70
     0
  9
$PDMODE
 70
     0
  9
$PDSIZE
 40
-1.0
  9
$PLINEWID
 40
0.0
  9
$SPLFRAME
 70
     0
  9
$SPLINETYPE
 70
     6
  9
$SPLINESEGS
 70
     8
  9
$HANDSEED
  5
143
  9
$SURFTAB1
 70
     6
  9
$SURFTAB2
 70
     6
  9
$SURFTYPE
 70
     6
  9
$SURFU
 70
     6
  9
$SURFV
 70
     6
  9
$UCSBASE
  2

  9
$UCSNAME
  2

  9
$UCSORG
 10
0.0
 20
0.0
 30
0.0
  9
$UCSXDIR
 10
1.0
 20
0.0
 30
0.0
  9
$UCSYDIR
 10
0.0
 20
1.0
 30
0.0
  9
$UCSORTHOREF
  2

  9
$UCSORTHOVIEW
 70
     0
  9
$UCSORGTOP
 10
0.0
 20
0.0
 30
0.0
  9
$UCSORGBOTTOM
 10
0.0
 20
0.0
 30
0.0
  9
$UCSORGLEFT
 10
0.0
 20
0.0
 30
0.0
  9
$UCSORGRIGHT
 10
0.0
 20
0.0
 30
0.0
  9
$UCSORGFRONT
 10
0.0
 20
0.0
 30
0.0
  9
$UCSORGBACK
 10
0.0
 20
0.0
 30
0.0
  9
$PUCSBASE
  2

  9
$PUCSNAME
  2

  9
$PUCSORG
 10
0.0
 20
0.0
 30
0.0
  9
$PUCSXDIR
 10
1.0
 20
0.0
 30
0.0
  9
$PUCSYDIR
 10
0.0
 20
1.0
 30
0.0
  9
$PUCSORTHOREF
  2

  9
$PUCSORTHOVIEW
 70
     0
  9
$PUCSORGTOP
 10
0.0
 20
0.0
 30
0.0
  9
$PUCSORGBOTTOM
 10
0.0
 20
0.0
 30
0.0
  9
$PUCSORGLEFT
 10
0.0
 20
0.0
 30
0.0
  9
$PUCSORGRIGHT
 10
0.0
 20
0.0
 30
0.0
  9
$PUCSORGFRONT
 10
0.0
 20
0.0
 30
0.0
  9
$PUCSORGBACK
 10
0.0
 20
0.0
 30
0.0
  9
$USERI1
 70
     0
  9
$USERI2
 70
     0
  9
$USERI3
 70
     0
  9
$USERI4
 70
     0
  9
$USERI5
 70
     0
  9
$USERR1
 40
0.0
  9
$USERR2
 40
0.0
  9
$USERR3
 40
0.0
  9
$USERR4
 40
0.0
  9
$USERR5
 40
0.0
  9
$WORLDVIEW
 70
     1
  9
$SHADEDGE
 70
     3
  9
$SHADEDIF
 70
    70
  9
$TILEMODE
 70
     1
  9
$MAXACTVP
 70
    64
  9
$PINSBASE
 10
0.0
 20
0.0
 30
0.0
  9
$PLIMCHECK
 70
     0
  9
$PEXTMIN
 10
1.0000000000E+20
 20
1.0000000000E+20
 30
1.0000000000E+20
  9
$PEXTMAX
 10
-1.0000000000E+20
 20
-1.0000000000E+20
 30
-1.0000000000E+20
  9
$PLIMMIN
 10
0.0
 20
0.0
  9
$PLIMMAX
 10
420.0
 20
297.0
  9
$UNITMODE
 70
     0
  9
$VISRETAIN
 70
     1
  9
$PLINEGEN
 70
     0
  9
$PSLTSCALE
 70
     1
  9
$TREEDEPTH
 70
  3020
  9
$CMLSTYLE
  2
Standard
  9
$CMLJUST
 70
     0
  9
$CMLSCALE
 40
20.0
  9
$PROXYGRAPHICS
 70
     1
  9
$MEASUREMENT
 70
     1
  9
$CELWEIGHT
370
    -1
  9
$ENDCAPS
280
     0
  9
$JOINSTYLE
280
     0
  9
$LWDISPLAY
290
     1
  9
$INSUNITS
 70
     4
  9
$HYPERLINKBASE
  1

  9
$STYLESHEET
  1

  9
$XEDIT
290
     1
  9
$CEPSNTYPE
380
     0
  9
$PSTYLEMODE
290
     1
  9
$FINGERPRINTGUID
  2
{d7a1f9a2-a4de-4793-a762-74d5e3ed0202}
  9
$VERSIONGUID
  2
{FAEB1C32-E019-11D5-929B-00C0DF256EC4}
  9
$EXTNAMES
290
     1
  9
$PSVPSCALE
 40
0.0
  9
$OLESTARTUP
290
     0
  9
$SORTENTS
280
   127
  9
$INDEXCTL
280
     0
  9
$HIDETEXT
280
     1
  9
$XCLIPFRAME
280
     2
  9
$HALOGAP
280
     0
  9
$OBSCOLOR
 70
   257
  9
$OBSLTYPE
280
     0
  9
$INTERSECTIONDISPLAY
280
     0
  9
$INTERSECTIONCOLOR
 70
   257
  9
$DIMASSOC
280
     2
  9
$PROJECTNAME
  1

  9
$CAMERADISPLAY
290
     0
  9
$LENSLENGTH
 40
50.0
  9
$CAMERAHEIGHT
 40
0.0
  9
$STEPSPERSEC
 40
2.0
  9
$STEPSIZE
 40
6.0
  9
$3DDWFPREC
 40
2.0
  9
$PSOLWIDTH
 40
5.0
  9
$PSOLHEIGHT
 40
80.0
  9
$LOFTANG1
 40
1.5707963268
  9
$LOFTANG2
 40
1.5707963268
  9
$LOFTMAG1
 40
0.0
  9
$LOFTMAG2
 40
0.0
  9
$LOFTPARAM
 70
     7
  9
$LOFTNORMALS
280
     1
  9
$LATITUDE
 40
37.795
  9
$LONGITUDE
 40
-122.394
  9
$NORTHDIRECTION
 40
0.0
  9
$TIMEZONE
 70
 -8000
  9
$LIGHTGLYPHDISPLAY
280
     1
  9
$TILEMODELIGHTSYNCH
280
     1
  9
$CMATERIAL
347
44
  9
$SOLIDHIST
280
     0
  9
$SHOWHIST
280
     1
  9
$DWFFRAME
280
     2
  9
$DGNFRAME
280
     2
  9
$REALWORLDSCALE
290
     1
  9
$INTERFERECOLOR
 62
   256
  9
$CSHADOW
280
     0
  9
$SHADOWPLANELOCATION
 40
0.0
  0
ENDSEC
  0
SECTION
  2
CLASSES
  0
CLASS
  1
ACDBDICTIONARYWDFLT
  2
AcDbDictionaryWithDefault
  3
ObjectDBX Classes
 90
        0
 91
        3
280
     0
281
     0
  0
CLASS
  1
VISUALSTYLE
  2
AcDbVisualStyle
  3
ObjectDBX Classes
 90
     4095
 91
        3
280
     0
281
     0
  0
CLASS
  1
MATERIAL
  2
AcDbMaterial
  3
ObjectDBX Classes
 90
     1153
 91
        3
280
     0
281
     0
  0
CLASS
  1
SCALE
  2
AcDbScale
  3
ObjectDBX Classes
 90
     1153
 91
        3
280
     0
281
     0
  0
CLASS
  1
TABLESTYLE
  2
AcDbTableStyle
  3
ObjectDBX Classes
 90
     4095
 91
        3
280
     0
281
     0
  0
CLASS
  1
MLEADERSTYLE
  2
AcDbMLeaderStyle
  3
ACDB_MLEADERSTYLE_CLASS
 90
     4095
 91
        3
280
     0
281
     0
  0
CLASS
  1
SUN
  2
AcDbSun
  3
SCENEOE
 90
     1153
 91
        3
280
     0
281
     0
  0
CLASS
  1
DICTIONARYVAR
  2
AcDbDictionaryVar
  3
ObjectDBX Classes
 90
        0
 91
        3
280
     0
281
     0
  0
CLASS
  1
CELLSTYLEMAP
  2
AcDbCellStyleMap
  3
ObjectDBX Classes
 90
     1152
 91
        3
280
     0
281
     0
  0
ENDSEC
  0
SECTION
  2
TABLES
  0
TABLE
  2
VPORT
  5
8
330
0
100
AcDbSymbolTable
 70
     1
  0
VPORT
  5
29
330
8
100
AcDbSymbolTableRecord
100
AcDbViewportTableRecord
  2
*Active
 70
     0
 10
0.0
 20
0.0
 11
1.0
 21
1.0
 12
210.0
 22
148.5
 13
0.0
 23
0.0
 14
10.0
 24
10.0
 15
10.0
 25
10.0
 16
0.0
 26
0.0
 36
1.0
 17
0.0
 27
0.0
 37
0.0
 40
297.0
 41
1.4141414141
 42
50.0
 43
0.0
 44
0.0
 50
0.0
 51
0.0
 71
     0
 72
  2000
 73
     1
 74
     3
 75
     0
 76
     0
 77
     0
 78
     0
281
     0
 65
     1
110
0.0
120
0.0
130
0.0
111
1.0
121
0.0
131
0.0
112
0.0
122
1.0
132
0.0
 79
     0
146
0.0
348
2F
 60
     3
 61
     5
292
     1
282
     1
141
0.0
142
0.0
 63
   250
361
5D
  0
ENDTAB
  0
TABLE
  2
LTYPE
  5
5
330
0
100
AcDbSymbolTable
 70
     6
  0
LTYPE
  5
14
330
5
100
AcDbSymbolTableRecord
100
AcDbLinetypeTableRecord
  2
ByBlock
 70
     0
  3

 72
    65
 73
     0
 40
0.0
  0
LTYPE
  5
15
330
5
100
AcDbSymbolTableRecord
100
AcDbLinetypeTableRecord
  2
ByLayer
 70
     0
  3

 72
    65
 73
     0
 40
0.0
  0
LTYPE
  5
16
330
5
100
AcDbSymbolTableRecord
100
AcDbLinetypeTableRecord
  2
Continuous
 70
     0
  3
Solid line
 72
    65
 73
     0
 40
0.0
  0
LTYPE
  5
5E
330
5
100
AcDbSymbolTableRecord
100
AcDbLinetypeTableRecord
  2
HIDDEN
 70
     0
  3
Hidden __ __ __ __ __ __ __ __ __ __ __ __ __ __
 72
    65
 73
     2
 40
1.905
 49
1.27
 74
     0
 49
-0.635
 74
     0
  0
LTYPE
  5
5F
330
5
100
AcDbSymbolTableRecord
100
AcDbLinetypeTableRecord
  2
PHANTOM
 70
     0
  3
Phantom ______  __  __  ______  __  __  ______
 72
    65
 73
     6
 40
12.7
 49
6.35
 74
     0
 49
-1.27
 74
     0
 49
1.27
 74
     0
 49
-1.27
 74
     0
 49
1.27
 74
     0
 49
-1.27
 74
     0
  0
LTYPE
  5
60
330
5
100
AcDbSymbolTableRecord
100
AcDbLinetypeTableRecord
  2
CENTER
 70
     0
  3
Center ____ _ ____ _ ____ _ ____ _ ____ _ ____
 72
    65
 73
     4
 40
10.16
 49
6.35
 74
     0
 49
-1.27
 74
     0
 49
1.27
 74
     0
 49
-1.27
 74
     0
  0
LTYPE
  5
61
330
5
100
AcDbSymbolTableRecord
100
AcDbLinetypeTableRecord
  2
CENTERX2
 70
     0
  3
Center (2x) ________  __  ________  __  _____
 72
    65
 73
     4
 40
20.32
 49
12.7
 74
     0
 49
-2.54
 74
     0
 49
2.54
 74
     0
 49
-2.54
 74
     0
  0
LTYPE
  5
62
330
5
100
AcDbSymbolTableRecord
100
AcDbLinetypeTableRecord
  2
DOT2
 70
     0
  3
Dot (.5x) ........................................
 72
    65
 73
     2
 40
0.635
 49
0.0
 74
     0
 49
-0.635
 74
     0
  0
ENDTAB
  0
TABLE
  2
LAYER
  5
2
330
0
100
AcDbSymbolTable
 70
    13
  0
LAYER
  5
10
330
2
100
AcDbSymbolTableRecord
100
AcDbLayerTableRecord
  2
0
 70
     0
 62
     7
  6
Continuous
370
    -3
390
F
347
46
348
0
  0
LAYER
  5
63
330
2
100
AcDbSymbolTableRecord
100
AcDbLayerTableRecord
  2
DRAWING-SHEET
 70
     0
 62
   179
  6
Continuous
370
    -3
390
F
347
46
348
0
  0
LAYER
  5
64
330
2
100
AcDbSymbolTableRecord
100
AcDbLayerTableRecord
  2
BORDER
 70
     0
 62
   179
  6
Continuous
370
    -3
390
F
347
46
348
0
  0
LAYER
  5
65
330
2
100
AcDbSymbolTableRecord
100
AcDbLayerTableRecord
  2
DIMENSIONS
 70
     0
 62
     7
  6
Continuous
370
    -3
390
F
347
46
348
0
  0
LAYER
  5
66
330
2
100
AcDbSymbolTableRecord
100
AcDbLayerTableRecord
  2
CENTRE_LINES
 70
     0
 62
     7
  6
Continuous
370
    -3
390
F
347
46
348
0
  0
LAYER
  5
67
330
2
100
AcDbSymbolTableRecord
100
AcDbLayerTableRecord
  2
FORMAT
 70
     0
 62
     7
  6
Continuous
370
    -3
390
F
347
46
348
0
  0
LAYER
  5
68
330
2
100
AcDbSymbolTableRecord
100
AcDbLayerTableRecord
  2
SLD-0
 70
     0
 62
   179
  6
Continuous
370
    -3
390
F
347
46
348
0
  0
LAYER
  5
69
330
2
100
AcDbSymbolTableRecord
100
AcDbLayerTableRecord
  2
OUTLINE
 70
     0
 62
     4
  6
Continuous
370
    -3
390
F
347
46
348
0
  0
LAYER
  5
6A
330
2
100
AcDbSymbolTableRecord
100
AcDbLayerTableRecord
  2
4
 70
     0
 62
     7
  6
Continuous
370
    70
390
F
347
46
348
0
  0
LAYER
  5
6B
330
2
100
AcDbSymbolTableRecord
100
AcDbLayerTableRecord
  2
TEXT25
 70
     0
 62
   179
  6
Continuous
370
    -3
390
F
347
46
348
0
  0
LAYER
  5
6C
330
2
100
AcDbSymbolTableRecord
100
AcDbLayerTableRecord
  2
TEXT35
 70
     0
 62
     7
  6
Continuous
370
    -3
390
F
347
46
348
0
  0
LAYER
  5
6D
330
2
100
AcDbSymbolTableRecord
100
AcDbLayerTableRecord
  2
TEXT5
 70
     0
 62
     7
  6
Continuous
370
    -3
390
F
347
46
348
0
  0
LAYER
  5
6E
330
2
100
AcDbSymbolTableRecord
100
AcDbLayerTableRecord
  2
5
 70
     0
 62
     7
  6
Continuous
370
    35
390
F
347
46
348
0
  0
ENDTAB
  0
TABLE
  2
STYLE
  5
3
330
0
100
AcDbSymbolTable
 70
     3
  0
STYLE
  5
11
330
3
100
AcDbSymbolTableRecord
100
AcDbTextStyleTableRecord
  2
Standard
 70
     0
 40
0.0
 41
1.0
 50
0.0
 71
     0
 42
4.2333333333
  3
txt
  4

  0
STYLE
  5
75
330
3
100
AcDbSymbolTableRecord
100
AcDbTextStyleTableRecord
  2
SLDTEXTSTYLE0
 70
     0
 40
0.0
 41
0.75
 50
0.0
 71
     0
 42
4.2333333333
  3
TXT
  4

  0
STYLE
  5
7B
330
3
100
AcDbSymbolTableRecord
100
AcDbTextStyleTableRecord
  2
SLDTEXTSTYLE1
 70
     0
 40
0.0
 41
0.6
 50
0.0
 71
     0
 42
4.2333333333
  3
TXT
  4

  0
ENDTAB
  0
TABLE
  2
VIEW
  5
6
330
0
100
AcDbSymbolTable
 70
     0
  0
ENDTAB
  0
TABLE
  2
UCS
  5
7
330
0
100
AcDbSymbolTable
 70
     0
  0
ENDTAB
  0
TABLE
  2
APPID
  5
9
330
0
100
AcDbSymbolTable
 70
     1
  0
APPID
  5
12
330
9
100
AcDbSymbolTableRecord
100
AcDbRegAppTableRecord
  2
ACAD
 70
     0
  0
ENDTAB
  0
TABLE
  2
DIMSTYLE
  5
A
330
0
100
AcDbSymbolTable
 70
     1
100
AcDbDimStyleTable
  0
DIMSTYLE
105
27
330
A
100
AcDbSymbolTableRecord
100
AcDbDimStyleTableRecord
  2
ISO-25
 70
     0
 41
2.5
 42
0.625
 43
3.75
 44
1.25
 73
     0
 74
     0
 77
     1
 78
     8
140
2.5
141
2.5
143
0.0393700787
147
0.625
171
     3
172
     1
178
     0
271
     2
272
     2
274
     3
278
    44
283
     0
284
     8
340
11
  0
ENDTAB
  0
TABLE
  2
BLOCK_RECORD
  5
1
330
0
100
AcDbSymbolTable
 70
     6
  0
BLOCK_RECORD
  5
1F
330
1
100
AcDbSymbolTableRecord
100
AcDbBlockTableRecord
  2
*Model_Space
340
22
 70
     0
280
     1
281
     0
  0
BLOCK_RECORD
  5
1B
330
1
100
AcDbSymbolTableRecord
100
AcDbBlockTableRecord
  2
*Paper_Space
340
1E
 70
     0
280
     1
281
     0
  0
BLOCK_RECORD
  5
23
330
1
100
AcDbSymbolTableRecord
100
AcDbBlockTableRecord
  2
*Paper_Space0
340
26
 70
     0
280
     1
281
     0
  0
BLOCK_RECORD
  5
6F
330
1
100
AcDbSymbolTableRecord
100
AcDbBlockTableRecord
  2
Block1
340
0
 70
     0
280
     1
281
     0
  0
BLOCK_RECORD
  5
72
330
1
100
AcDbSymbolTableRecord
100
AcDbBlockTableRecord
  2
SW_NOTE_0
340
0
102
{BLKREFS
331
77
102
}
 70
     0
280
     1
281
     0
  0
BLOCK_RECORD
  5
78
330
1
100
AcDbSymbolTableRecord
100
AcDbBlockTableRecord
  2
SW_NOTE_0_1
340
0
102
{BLKREFS
331
7D
102
}
 70
     0
280
     1
281
     0
  0
BLOCK_RECORD
  5
7E
330
1
100
AcDbSymbolTableRecord
100
AcDbBlockTableRecord
  2
SW_NOTE_0_2
340
0
102
{BLKREFS
331
82
102
}
 70
     0
280
     1
281
     0
  0
BLOCK_RECORD
  5
83
330
1
100
AcDbSymbolTableRecord
100
AcDbBlockTableRecord
  2
SW_NOTE_0_3
340
0
102
{BLKREFS
331
87
102
}
 70
     0
280
     1
281
     0
  0
ENDTAB
  0
ENDSEC
  0
SECTION
  2
BLOCKS
  0
BLOCK
  5
20
330
1F
100
AcDbEntity
  8
0
100
AcDbBlockBegin
  2
*Model_Space
 70
     0
 10
0.0
 20
0.0
 30
0.0
  3
*Model_Space
  1

  0
ENDBLK
  5
21
330
1F
100
AcDbEntity
  8
0
100
AcDbBlockEnd
  0
BLOCK
  5
1C
330
1B
100
AcDbEntity
 67
     1
  8
0
100
AcDbBlockBegin
  2
*Paper_Space
 70
     0
 10
0.0
 20
0.0
 30
0.0
  3
*Paper_Space
  1

  0
ENDBLK
  5
1D
330
1B
100
AcDbEntity
 67
     1
  8
0
100
AcDbBlockEnd
  0
BLOCK
  5
24
330
23
100
AcDbEntity
  8
0
100
AcDbBlockBegin
  2
*Paper_Space0
 70
     0
 10
0.0
 20
0.0
 30
0.0
  3
*Paper_Space0
  1

  0
ENDBLK
  5
25
330
23
100
AcDbEntity
  8
0
100
AcDbBlockEnd
  0
BLOCK
  5
70
330
6F
100
AcDbEntity
  8
0
100
AcDbBlockBegin
  2
Block1
 70
     0
 10
0.0
 20
0.0
 30
0.0
  3
Block1
  1

  0
INSERT
  5
77
330
6F
100
AcDbEntity
  8
0
  6
Continuous
 62
     7
370
     0
100
AcDbBlockReference
  2
SW_NOTE_0
 10
40.5248655077
 20
20.5912386523
 30
0.0
  0
INSERT
  5
7D
330
6F
100
AcDbEntity
  8
DRAWING-SHEET
 62
     7
100
AcDbBlockReference
  2
SW_NOTE_0_1
 10
3.556761253
 20
-0.3611706024
 30
0.0
  0
INSERT
  5
82
330
6F
100
AcDbEntity
  8
DRAWING-SHEET
 62
     7
100
AcDbBlockReference
  2
SW_NOTE_0_2
 10
7.9590819428
 20
3.0109637777
 30
0.0
  0
INSERT
  5
87
330
6F
100
AcDbEntity
  8
DRAWING-SHEET
 62
     7
100
AcDbBlockReference
  2
SW_NOTE_0_3
 10
0.0721004934
 20
6.5234823937
 30
0.0
  0
ENDBLK
  5
71
330
6F
100
AcDbEntity
  8
0
100
AcDbBlockEnd
  0
BLOCK
  5
73
330
72
100
AcDbEntity
  8
0
100
AcDbBlockBegin
  2
SW_NOTE_0
 70
     0
 10
0.0
 20
0.0
 30
0.0
  3
SW_NOTE_0
  1

  0
MTEXT
  5
76
330
72
100
AcDbEntity
  8
0
  6
Continuous
 62
     0
370
     0
100
AcDbMText
 10
0.0
 20
1.9336016097
 30
0.0
 40
1.5
 41
0.0
 46
0.0
 71
     1
 72
     1
  1
TITLE:
  7
SLDTEXTSTYLE0
 73
     1
 44
1.0
  0
ENDBLK
  5
74
330
72
100
AcDbEntity
  8
0
100
AcDbBlockEnd
  0
BLOCK
  5
79
330
78
100
AcDbEntity
  8
0
100
AcDbBlockBegin
  2
SW_NOTE_0_1
 70
     0
 10
0.0
 20
0.0
 30
0.0
  3
SW_NOTE_0_1
  1

  0
MTEXT
  5
7C
330
78
100
AcDbEntity
  8
DRAWING-SHEET
 62
     0
100
AcDbMText
 10
0.0
 20
2.7285267159
 30
0.0
 40
2.1166666667
 41
0.0
 46
0.0
 71
     1
 72
     1
  1
Email: roddyeng.com.au
  7
SLDTEXTSTYLE1
 73
     1
 44
1.0
  0
ENDBLK
  5
7A
330
78
100
AcDbEntity
  8
0
100
AcDbBlockEnd
  0
BLOCK
  5
7F
330
7E
100
AcDbEntity
  8
0
100
AcDbBlockBegin
  2
SW_NOTE_0_2
 70
     0
 10
0.0
 20
0.0
 30
0.0
  3
SW_NOTE_0_2
  1

  0
MTEXT
  5
81
330
7E
100
AcDbEntity
  8
DRAWING-SHEET
 62
     0
100
AcDbMText
 10
0.0
 20
2.7285267159
 30
0.0
 40
2.1166666667
 41
0.0
 46
0.0
 71
     1
 72
     1
  1
Ph: - 02 6947 4039
  7
SLDTEXTSTYLE1
 73
     1
 44
1.0
  0
ENDBLK
  5
80
330
7E
100
AcDbEntity
  8
0
100
AcDbBlockEnd
  0
BLOCK
  5
84
330
83
100
AcDbEntity
  8
0
100
AcDbBlockBegin
  2
SW_NOTE_0_3
 70
     0
 10
0.0
 20
0.0
 30
0.0
  3
SW_NOTE_0_3
  1

  0
MTEXT
  5
86
330
83
100
AcDbEntity
  8
DRAWING-SHEET
 62
     0
100
AcDbMText
 10
0.0
 20
2.7285267159
 30
0.0
 40
2.1166666667
 41
0.0
 46
0.0
 71
     1
 72
     1
  1
14 Waratah St TUMUT NSW 2720
  7
SLDTEXTSTYLE1
 73
     1
 44
1.0
  0
ENDBLK
  5
85
330
83
100
AcDbEntity
  8
0
100
AcDbBlockEnd
  0
ENDSEC
  0
SECTION
  2
ENTITIES
  0
SPLINE
  5
88
330
1F
100
AcDbEntity
  8
0
  6
Continuous
 62
     7
370
    25
100
AcDbSpline
210
0.0
220
0.0
230
1.0
 70
     8
 71
     3
 72
    15
 73
    11
 74
     0
 42
0.00000001
 43
0.00000001
 40
0.0
 40
0.0
 40
0.0
 40
0.0
 40
0.1022030370352183
 40
0.2110233423738785
 40
0.32509966156521
 40
0.4465020971348875
 40
0.5737877176488552
 40
0.708900709766064
 40
0.8503578712933987
 40
0.9999999999999999
 40
0.9999999999999999
 40
0.9999999999999999
 40
0.9999999999999999
 10
869.0495784433336
 20
546.7849159285033
 30
0.0
 10
868.9875694632047
 20
546.7835888630003
 30
0.0
 10
868.859536651034
 20
546.7808488094155
 30
0.0
 10
868.6631416185099
 20
546.7606739595268
 30
0.0
 10
868.4567605374202
 20
546.728127000834
 30
0.0
 10
868.2411845475776
 20
546.6833584351901
 30
0.0
 10
868.0157662433421
 20
546.6247731168846
 30
0.0
 10
867.780981327394
 20
546.5545685440262
 30
0.0
 10
867.5363361465957
 20
546.4706325469666
 30
0.0
 10
867.3714956336842
 20
546.4072446298312
 30
0.0
 10
867.2867579305132
 20
546.374659518247
 30
0.0
  0
SPLINE
  5
89
330
1F
100
AcDbEntity
  8
0
  6
Continuous
 62
     7
370
    25
100
AcDbSpline
210
0.0
220
0.0
230
1.0
 70
     8
 71
     3
 72
    23
 73
    19
 74
     0
 42
0.00000001
 43
0.00000001
 40
0.0
 40
0.0
 40
0.0
 40
0.0
 40
0.0653513820266008
 40
0.1279160318306173
 40
0.1883602055717012
 40
0.2472160772654511
 40
0.3056301291974124
 40
0.3637698398318239
 40
0.4226609139127813
 40
0.4826872940903935
 40
0.5433002212395597
 40
0.604117955323101
 40
0.664964891265286
 40
0.7274134941125667
 40
0.7914676251494231
 40
0.8580554427291022
 40
0.9270368146149474
 40
0.9999999999999999
 40
0.9999999999999999
 40
0.9999999999999999
 40
0.9999999999999999
 10
870.9790656228209
 20
545.0188902874777
 30
0.0
 10
870.977560526909
 20
545.0830634340405
 30
0.0
 10
870.9746145158133
 20
545.2086732375951
 30
0.0
 10
870.9505446408351
 20
545.392442852318
 30
0.0
 10
870.9086772754551
 20
545.5663240918644
 30
0.0
 10
870.850565549862
 20
545.7311566266575
 30
0.0
 10
870.7767838178996
 20
545.8870959234531
 30
0.0
 10
870.6866208183137
 20
546.0343029181963
 30
0.0
 10
870.5783844801571
 20
546.1708373941358
 30
0.0
 10
870.4547458776688
 20
546.2967632309576
 30
0.0
 10
870.3192989269417
 20
546.4129800878103
 30
0.0
 10
870.1697132295768
 20
546.5120522854148
 30
0.0
 10
870.0091191111879
 20
546.5953983829046
 30
0.0
 10
869.8394514552591
 20
546.6673252362594
 30
0.0
 10
869.6566745442022
 20
546.7189840828865
 30
0.0
 10
869.4644079559064
 20
546.7577678210399
 30
0.0
 10
869.2605754805991
 20
546.7802029357332
 30
0.0
 10
869.1212139077215
 20
546.7833158234492
 30
0.0
 10
869.0495784433338
 20
546.7849159285033
 30
0.0
  0
SPLINE
  5
8A
330
1F
100
AcDbEntity
  8
0
  6
Continuous
 62
     7
370
    25
100
AcDbSpline
210
0.0
220
0.0
230
1.0
 70
     8
 71
     3
 72
    23
 73
    19
 74
     0
 42
0.00000001
 43
0.00000001
 40
0.0
 40
0.0
 40
0.0
 40
0.0
 40
0.0642072952829855
 40
0.1264246897797411
 40
0.1876802842649215
 40
0.2482164244552134
 40
0.3083050600086138
 40
0.3696609913251415
 40
0.4316985517867805
 40
0.4959468922087673
 40
0.5597580239721177
 40
0.6222954078261597
 40
0.6839106352841751
 40
0.745092408056629
 40
0.8067402253892925
 40
0.869086618121207
 40
0.9332900029748019
 40
1.0
 40
1.0
 40
1.0
 40
1.0
 10
868.9486169048721
 20
542.9900441336315
 30
0.0
 10
869.0170933492545
 20
542.9919201974146
 30
0.0
 10
869.1519240285427
 20
542.9956141823542
 30
0.0
 10
869.3503500552696
 20
543.0240462099881
 30
0.0
 10
869.5419223391601
 20
543.0678349444056
 30
0.0
 10
869.7247505831807
 20
543.1333660415113
 30
0.0
 10
869.9020341022414
 20
543.2130111121988
 30
0.0
 10
870.069288434637
 20
543.315216999778
 30
0.0
 10
870.2313521538157
 20
543.4328398990808
 30
0.0
 10
870.3831878875781
 20
543.5675979106087
 30
0.0
 10
870.5222494858856
 20
543.7161000697383
 30
0.0
 10
870.645120619906
 20
543.8749055404238
 30
0.0
 10
870.7474678505943
 20
544.044315475379
 30
0.0
 10
870.8337172422965
 20
544.2213969676097
 30
0.0
 10
870.8992104967482
 20
544.4080908125889
 30
0.0
 10
870.9459327395432
 20
544.603522070126
 30
0.0
 10
870.9733683025569
 20
544.8081734534549
 30
0.0
 10
870.9771424282071
 20
544.9477604472291
 30
0.0
 10
870.9790656228209
 20
545.0188902874777
 30
0.0
  0
SPLINE
  5
8B
330
1F
100
AcDbEntity
  8
0
  6
Continuous
 62
     7
370
    25
100
AcDbSpline
210
0.0
220
0.0
230
1.0
 70
     8
 71
     3
 72
    19
 73
    15
 74
     0
 42
0.00000001
 43
0.00000001
 40
0.0
 40
0.0
 40
0.0
 40
0.0
 40
0.0946872518675574
 40
0.1819941557072732
 40
0.2643769486105076
 40
0.3421798619477691
 40
0.4186176108621417
 40
0.4965090753719062
 40
0.5773690916117314
 40
0.6615105924541944
 40
0.746732550829193
 40
0.8312579843277434
 40
0.9152056162136546
 40
1.0
 40
1.0
 40
1.0
 40
1.0
 10
867.1841938279491
 20
544.425941569529
 30
0.0
 10
867.2018591019838
 20
544.3496525353606
 30
0.0
 10
867.235812739563
 20
544.2030207756533
 30
0.0
 10
867.3103401652818
 20
543.9970062811777
 30
0.0
 10
867.4014621663622
 20
543.8134194842039
 30
0.0
 10
867.5098149627446
 20
543.649831865293
 30
0.0
 10
867.6390721752845
 20
543.5071827286706
 30
0.0
 10
867.786568012863
 20
543.3800580156699
 30
0.0
 10
867.9519342373185
 20
543.2653720057785
 30
0.0
 10
868.1356901905068
 20
543.1697771093275
 30
0.0
 10
868.3295486575248
 20
543.0882485301274
 30
0.0
 10
868.5324451375467
 20
543.0339589416664
 30
0.0
 10
868.7388550723379
 20
542.9957854723115
 30
0.0
 10
868.878462775644
 20
542.9919643047647
 30
0.0
 10
868.9486169048721
 20
542.9900441336315
 30
0.0
  0
LINE
  5
8C
330
1F
100
AcDbEntity
  8
0
  6
Continuous
 62
     7
370
    25
100
AcDbLine
 10
866.46624511
 20
544.4259415695
 30
0.0
 11
867.1841938279
 21
544.4259415695
 31
0.0
  0
SPLINE
  5
8D
330
1F
100
AcDbEntity
  8
0
  6
Continuous
 62
     7
370
    25
100
AcDbSpline
210
0.0
220
0.0
230
1.0
 70
     8
 71
     3
 72
    23
 73
    19
 74
     0
 42
0.00000001
 43
0.00000001
 40
0.0
 40
0.0
 40
0.0
 40
0.0
 40
0.0654211437588898
 40
0.1287083718818806
 40
0.1902361418635371
 40
0.2507244020335377
 40
0.3106371794134433
 40
0.3707664082897262
 40
0.4316147444123553
 40
0.4935229735663522
 40
0.5558834553775358
 40
0.6173423673185091
 40
0.6786680390972771
 40
0.7407113595451511
 40
0.802985362512742
 40
0.8668025802655146
 40
0.9323471713458897
 40
1.0
 40
1.0
 40
1.0
 40
1.0
 10
868.9069502382055
 20
542.1695313131187
 30
0.0
 10
868.8272378251719
 20
542.1711103713682
 30
0.0
 10
868.6704130692773
 20
542.1742169819336
 30
0.0
 10
868.4406517731138
 20
542.2067163768002
 30
0.0
 10
868.2195898172429
 20
542.2532624714116
 30
0.0
 10
868.0090067288832
 20
542.323288231065
 30
0.0
 10
867.8070152689854
 20
542.4110306189283
 30
0.0
 10
867.6163347711824
 20
542.5219247252037
 30
0.0
 10
867.4320929973587
 20
542.6475912480539
 30
0.0
 10
867.2617797705026
 20
542.7958891976878
 30
0.0
 10
867.1037086540006
 20
542.9579821851906
 30
0.0
 10
866.962208062297
 20
543.133885364998
 30
0.0
 10
866.8361884583275
 20
543.3206955183377
 30
0.0
 10
866.7276678937815
 20
543.5193198705108
 30
0.0
 10
866.6351009879155
 20
543.729236512654
 30
0.0
 10
866.5623810147116
 20
543.9512319432641
 30
0.0
 10
866.5036876319845
 20
544.1841462379828
 30
0.0
 10
866.47885695661
 20
544.344497118921
 30
0.0
 10
866.4662451100004
 20
544.425941569529
 30
0.0
  0
SPLINE
  5
8E
330
1F
100
AcDbEntity
  8
0
  6
Continuous
 62
     7
370
    25
100
AcDbSpline
210
0.0
220
0.0
230
1.0
 70
     8
 71
     3
 72
    31
 73
    27
 74
     0
 42
0.00000001
 43
0.00000001
 40
0.0
 40
0.0
 40
0.0
 40
0.0
 40
0.0440144705761366
 40
0.0874341236677008
 40
0.130118398657895
 40
0.1725536945581828
 40
0.2145547559681398
 40
0.2562980920971293
 40
0.2984382251332475
 40
0.3408490025880941
 40
0.3827151889670255
 40
0.4239240454075285
 40
0.4642462432504154
 40
0.5040736714617917
 40
0.5438619058684873
 40
0.5835667249796522
 40
0.6230943188523324
 40
0.6632290607685812
 40
0.7035512586114696
 40
0.7439378946861838
 40
0.7845412548000915
 40
0.8257501112405956
 40
0.8677573633885066
 40
0.9107451640323067
 40
0.9549144468914778
 40
0.9999999999999999
 40
0.9999999999999999
 40
0.9999999999999999
 40
0.9999999999999999
 10
871.6970143407697
 20
544.988441569529
 30
0.0
 10
871.6954941687162
 20
544.9232479230102
 30
0.0
 10
871.6924743684192
 20
544.7937416656939
 30
0.0
 10
871.6771175966529
 20
544.6014120641275
 30
0.0
 10
871.647550245649
 20
544.4131541599393
 30
0.0
 10
871.6078525905541
 20
544.2289429785939
 30
0.0
 10
871.5563270637757
 20
544.0491272707557
 30
0.0
 10
871.4939520834276
 20
543.8731923497804
 30
0.0
 10
871.4176183062622
 20
543.702233248653
 30
0.0
 10
871.3338894485277
 20
543.5346323457417
 30
0.0
 10
871.2396117844468
 20
543.3741786150108
 30
0.0
 10
871.1349751962435
 20
543.2241237886275
 30
0.0
 10
871.024425502021
 20
543.0822168595305
 30
0.0
 10
870.9054737638306
 20
542.9499797555095
 30
0.0
 10
870.7770143464304
 20
542.8282814288968
 30
0.0
 10
870.6406029936037
 20
542.7163996425977
 30
0.0
 10
870.4973282072514
 20
542.6124423161906
 30
0.0
 10
870.3449733676607
 20
542.5206292986467
 30
0.0
 10
870.186933406601
 20
542.4361425417259
 30
0.0
 10
870.020926053137
 20
542.3668315992452
 30
0.0
 10
869.850730166377
 20
542.3048646779081
 30
0.0
 10
869.6738961650175
 20
542.2554714719388
 30
0.0
 10
869.4908245933243
 20
542.2167684901804
 30
0.0
 10
869.3012136779366
 20
542.1904814030889
 30
0.0
 10
869.1060578607395
 20
542.1713352602998
 30
0.0
 10
868.9737721176998
 20
542.170136730127
 30
0.0
 10
868.9069502382055
 20
542.1695313131187
 30
0.0
  0
SPLINE
  5
8F
330
1F
100
AcDbEntity
  8
0
  6
Continuous
 62
     7
370
    25
100
AcDbSpline
210
0.0
220
0.0
230
1.0
 70
     8
 71
     3
 72
    23
 73
    19
 74
     0
 42
0.00000001
 43
0.00000001
 40
0.0
 40
0.0
 40
0.0
 40
0.0
 40
0.065807645810693
 40
0.1293942736680565
 40
0.1908940606321875
 40
0.2512810689298345
 40
0.3108149644652744
 40
0.3703709874482429
 40
0.4307682625897246
 40
0.4928812506175039
 40
0.5551039481552502
 40
0.6160670509938422
 40
0.67725603317465
 40
0.7382598051991143
 40
0.8007621343762915
 40
0.8647775815744837
 40
0.9310452949994044
 40
1.0
 40
1.0
 40
1.0
 40
1.0
 10
869.1793861356414
 20
547.6054287490161
 30
0.0
 10
869.2687203978408
 20
547.6034951817142
 30
0.0
 10
869.444373877441
 20
547.5996933052977
 30
0.0
 10
869.701377184855
 20
547.5631862208535
 30
0.0
 10
869.9467095122108
 20
547.5057235588415
 30
0.0
 10
870.1798577868996
 20
547.4254480805861
 30
0.0
 10
870.4012533312133
 20
547.3227972618563
 30
0.0
 10
870.6088591860259
 20
547.1945688267526
 30
0.0
 10
870.8057915585672
 20
547.0447783555534
 30
0.0
 10
870.9885174876053
 20
546.87256118536
 30
0.0
 10
871.1542873348405
 20
546.6830260613551
 30
0.0
 10
871.3000381683651
 20
546.4792366418271
 30
0.0
 10
871.4238383747748
 20
546.263173414091
 30
0.0
 10
871.5234058144924
 20
546.0327720226894
 30
0.0
 10
871.602912864266
 20
545.790579672037
 30
0.0
 10
871.6558317096233
 20
545.5340480547748
 30
0.0
 10
871.6910699015348
 20
545.2655952090299
 30
0.0
 10
871.6950067845511
 20
545.0820419059963
 30
0.0
 10
871.6970143407697
 20
544.988441569529
 30
0.0
  0
SPLINE
  5
90
330
1F
100
AcDbEntity
  8
0
  6
Continuous
 62
     7
370
    25
100
AcDbSpline
210
0.0
220
0.0
230
1.0
 70
     8
 71
     3
 72
    11
 73
     7
 74
     0
 42
0.00000001
 43
0.00000001
 40
0.0
 40
0.0
 40
0.0
 40
0.0
 40
0.275068369018757
 40
0.5329014600899419
 40
0.773973459592451
 40
1.0
 40
1.0
 40
1.0
 40
1.0
 10
868.2370784433338
 20
547.4499800310675
 30
0.0
 10
868.3217775847593
 20
547.4733635094908
 30
0.0
 10
868.4858687752333
 20
547.5186653005993
 30
0.0
 10
868.7280627431504
 20
547.5689642044382
 30
0.0
 10
868.9579877796554
 20
547.5992852194267
 30
0.0
 10
869.107188626308
 20
547.6034253577403
 30
0.0
 10
869.1793861356414
 20
547.6054287490161
 30
0.0
  0
LINE
  5
91
330
1F
100
AcDbEntity
  8
0
  6
Continuous
 62
     7
370
    25
100
AcDbLine
 10
868.6681681869
 20
549.5541466977
 30
0.0
 11
868.2370784433
 21
547.4499800311
 31
0.0
  0
LINE
  5
92
330
1F
100
AcDbEntity
  8
0
  6
Continuous
 62
     7
370
    25
100
AcDbLine
 10
871.3893220331
 20
549.5541466977
 30
0.0
 11
868.6681681869
 21
549.5541466977
 31
0.0
  0
LINE
  5
93
330
1F
100
AcDbEntity
  8
0
  6
Continuous
 62
     7
370
    25
100
AcDbLine
 10
871.3893220331
 20
550.3746595182
 30
0.0
 11
871.3893220331
 21
549.5541466977
 31
0.0
  0
LINE
  5
94
330
1F
100
AcDbEntity
  8
0
  6
Continuous
 62
     7
370
    25
100
AcDbLine
 10
868.107270751
 20
550.3746595182
 30
0.0
 11
871.3893220331
 21
550.3746595182
 31
0.0
  0
LINE
  5
95
330
1F
100
AcDbEntity
  8
0
  6
Continuous
 62
     7
370
    25
100
AcDbLine
 10
867.2867579305
 20
546.3746595182
 30
0.0
 11
868.107270751
 21
550.3746595182
 31
0.0
  0
SPLINE
  5
96
330
1F
100
AcDbEntity
  8
0
  6
Continuous
 62
     7
370
    25
100
AcDbSpline
210
0.0
220
0.0
230
1.0
 70
     8
 71
     3
 72
    31
 73
    27
 74
     0
 42
0.00000001
 43
0.00000001
 40
0.0
 40
0.0
 40
0.0
 40
0.0
 40
0.03378811616271
 40
0.0671939323738809
 40
0.0998624108568261
 40
0.1325666121262579
 40
0.1651511732547866
 40
0.1979131873557937
 40
0.2313190035669632
 40
0.2650832782673765
 40
0.2992553087581146
 40
0.33439856650498
 40
0.3699428235093098
 40
0.4062835607000636
 40
0.4440638196985083
 40
0.4829977068727755
 40
0.5233544466133079
 40
0.5655365896041489
 40
0.6096129240658221
 40
0.6563908113764183
 40
0.7058854949364578
 40
0.7583245002617308
 40
0.8138317829411496
 40
0.8727945590393935
 40
0.934722229540078
 40
1.0
 40
1.0
 40
1.0
 40
1.0
 10
875.1922066484618
 20
550.5797877233751
 30
0.0
 10
875.2558305992833
 20
550.5786727172593
 30
0.0
 10
875.3823586196162
 20
550.5764553209067
 30
0.0
 10
875.5694223344641
 20
550.5551434522562
 30
0.0
 10
875.7521644640974
 20
550.5197808851774
 30
0.0
 10
875.929805923991
 20
550.469675800417
 30
0.0
 10
876.1038058930603
 20
550.407514253767
 30
0.0
 10
876.2728033962503
 20
550.3296008432317
 30
0.0
 10
876.4378481542893
 20
550.2389062893016
 30
0.0
 10
876.5963173829062
 20
550.1323374268864
 30
0.0
 10
876.7499507894116
 20
550.0135207955796
 30
0.0
 10
876.8949747047762
 20
549.879206124029
 30
0.0
 10
877.0314023296849
 20
549.7307496228435
 30
0.0
 10
877.1609458848534
 20
549.5697396482456
 30
0.0
 10
877.2799301070231
 20
549.3930880257689
 30
0.0
 10
877.3932408092755
 20
549.2038672033364
 30
0.0
 10
877.4946626056221
 20
548.9987680838078
 30
0.0
 10
877.5923418631733
 20
548.7812127287425
 30
0.0
 10
877.67665497572
 20
548.5451815086128
 30
0.0
 10
877.752692107771
 20
548.292004913143
 30
0.0
 10
877.8141297502281
 20
548.0186924860498
 30
0.0
 10
877.8653052298581
 20
547.7266782110894
 30
0.0
 10
877.9049507063053
 20
547.4148896779691
 30
0.0
 10
877.9338253167705
 20
547.0839952425137
 30
0.0
 10
877.9490780825793
 20
546.7337772067633
 30
0.0
 10
877.9519505424802
 20
546.4943306943584
 30
0.0
 10
877.9534245971798
 20
546.3714543900418
 30
0.0
  0
SPLINE
  5
97
330
1F
100
AcDbEntity
  8
0
  6
Continuous
 62
     7
370
    25
100
AcDbSpline
210
0.0
220
0.0
230
1.0
 70
     8
 71
     3
 72
    31
 73
    27
 74
     0
 42
0.00000001
 43
0.00000001
 40
0.0
 40
0.0
 40
0.0
 40
0.0
 40
0.0685946222587404
 40
0.1332460424432979
 40
0.1943125864682528
 40
0.2512792231169642
 40
0.3045134392563477
 40
0.3542349066533243
 40
0.4004805887739886
 40
0.4434107549384929
 40
0.4840148686163466
 40
0.523252300773201
 40
0.5610423727283577
 40
0.5979002393644008
 40
0.6335184888561929
 40
0.6683143511696521
 40
0.7024956712863822
 40
0.7366853535134592
 40
0.7702931693607877
 40
0.803437255019249
 40
0.8359129516660294
 40
0.8684602457892905
 40
0.9008465382431826
 40
0.9334665246307086
 40
0.9662575752981225
 40
1.0
 40
1.0
 40
1.0
 40
1.0
 10
872.5175271612824
 20
546.3714543900418
 30
0.0
 10
872.5182769170709
 20
546.4996769905772
 30
0.0
 10
872.5197333284968
 20
546.7487512402857
 30
0.0
 10
872.5359354335076
 20
547.1116875650098
 30
0.0
 10
872.5628505016521
 20
547.4521682255702
 30
0.0
 10
872.5997359253098
 20
547.7702095193724
 30
0.0
 10
872.6446227372495
 20
548.0658935525557
 30
0.0
 10
872.7045438494811
 20
548.3384301402958
 30
0.0
 10
872.7726873983153
 20
548.5890806696972
 30
0.0
 10
872.8516644173106
 20
548.818662494785
 30
0.0
 10
872.9407793636383
 20
549.0302686731216
 30
0.0
 10
873.0377719595746
 20
549.2278119903644
 30
0.0
 10
873.1464914896856
 20
549.4109935499982
 30
0.0
 10
873.2607244335189
 20
549.582737070958
 30
0.0
 10
873.3850948829539
 20
549.7402312304835
 30
0.0
 10
873.5160635468791
 20
549.8857001733829
 30
0.0
 10
873.658742121204
 20
550.0157818887288
 30
0.0
 10
873.8082804258289
 20
550.1342877227518
 30
0.0
 10
873.9660323444386
 20
550.2381722294305
 30
0.0
 10
874.1275012956231
 20
550.3296756319808
 30
0.0
 10
874.2937986804367
 20
550.4078467571411
 30
0.0
 10
874.4653785270605
 20
550.4693106105343
 30
0.0
 10
874.6406986593797
 20
550.5200782603001
 30
0.0
 10
874.8203719546741
 20
550.554795854921
 30
0.0
 10
875.0046950722428
 20
550.5766402171824
 30
0.0
 10
875.1291097803529
 20
550.5787286005885
 30
0.0
 10
875.1922066484618
 20
550.5797877233751
 30
0.0
  0
SPLINE
  5
98
330
1F
100
AcDbEntity
  8
0
  6
Continuous
 62
     7
370
    25
100
AcDbSpline
210
0.0
220
0.0
230
1.0
 70
     8
 71
     3
 72
    31
 73
    27
 74
     0
 42
0.00000001
 43
0.00000001
 40
0.0
 40
0.0
 40
0.0
 40
0.0
 40
0.0337871463469916
 40
0.066621657724293
 40
0.099284878095972
 40
0.1313611650426514
 40
0.1635851875953439
 40
0.1961039269870672
 40
0.228902254323816
 40
0.2621580559050084
 40
0.2959912222583154
 40
0.3302178457247986
 40
0.3650598258919543
 40
0.400950737340109
 40
0.4376203820767348
 40
0.4757075294370909
 40
0.515380691625048
 40
0.5564135414931631
 40
0.5997648298727302
 40
0.6464241555840855
 40
0.6964314445175632
 40
0.7497815178015563
 40
0.8065733069755284
 40
0.8674355315653958
 40
0.9318867532508699
 40
1.0
 40
1.0
 40
1.0
 40
1.0
 10
875.1922066484618
 20
542.1695313131187
 30
0.0
 10
875.1291115307813
 20
542.1705972684532
 30
0.0
 10
875.0047002741744
 20
542.17269912431
 30
0.0
 10
874.82035187317
 20
542.1944447962829
 30
0.0
 10
874.6414205738787
 20
542.2294059464829
 30
0.0
 10
874.4670234217928
 20
542.2783581844052
 30
0.0
 10
874.29626567303
 20
542.3382778102691
 30
0.0
 10
874.131474160674
 20
542.4163433727903
 30
0.0
 10
873.9708165979524
 20
542.5062498161182
 30
0.0
 10
873.8147216127682
 20
542.6086393508342
 30
0.0
 10
873.6661223875343
 20
542.7259460551277
 30
0.0
 10
873.5241827182455
 20
542.8556930006968
 30
0.0
 10
873.392468388881
 20
543.0011179408052
 30
0.0
 10
873.2698761703272
 20
543.1599246221942
 30
0.0
 10
873.1533639687368
 20
543.3306520332407
 30
0.0
 10
873.0461882582929
 20
543.51563117163
 30
0.0
 10
872.9470548775658
 20
543.7141285670348
 30
0.0
 10
872.8564411846093
 20
543.9274266485779
 30
0.0
 10
872.7761013822894
 20
544.1586379122575
 30
0.0
 10
872.705135192316
 20
544.4104074631205
 30
0.0
 10
872.6491028323843
 20
544.6849574885238
 30
0.0
 10
872.6011417916235
 20
544.9800828990504
 30
0.0
 10
872.5624574875241
 20
545.2970518827896
 30
0.0
 10
872.5360476010819
 20
545.6360365186453
 30
0.0
 10
872.519724595286
 20
545.9968255676193
 30
0.0
 10
872.5182730057544
 20
546.2442993374858
 30
0.0
 10
872.5175271612824
 20
546.3714543900418
 30
0.0
  0
SPLINE
  5
99
330
1F
100
AcDbEntity
  8
0
  6
Continuous
 62
     7
370
    25
100
AcDbSpline
210
0.0
220
0.0
230
1.0
 70
     8
 71
     3
 72
    31
 73
    27
 74
     0
 42
0.00000001
 43
0.00000001
 40
0.0
 40
0.0
 40
0.0
 40
0.0
 40
0.0650632896172805
 40
0.1267731664665252
 40
0.1855157632260813
 40
0.2407646791677175
 40
0.2929797960236004
 40
0.3422503727797695
 40
0.3889192861856605
 40
0.4327756640583093
 40
0.4746284326311183
 40
0.5147746906379526
 40
0.5536058934984417
 40
0.5914264064311737
 40
0.6280281199460678
 40
0.6638036341103225
 40
0.698984336131664
 40
0.7335914893067058
 40
0.7676284691511411
 40
0.8012083477865906
 40
0.8342638397266223
 40
0.8669806947287756
 40
0.8997197415181608
 40
0.9327019124985375
 40
0.9661758834327498
 40
1.0
 40
1.0
 40
1.0
 40
1.0
 10
877.9534245971798
 20
546.3714543900418
 30
0.0
 10
877.9519352610795
 20
546.249114029034
 30
0.0
 10
877.9490333504247
 20
546.0107388247852
 30
0.0
 10
877.9339963063842
 20
545.6620965954829
 30
0.0
 10
877.9043765779757
 20
545.3329582108004
 30
0.0
 10
877.867325176127
 20
545.0225342966091
 30
0.0
 10
877.8160086893305
 20
544.7321168821337
 30
0.0
 10
877.7529111664704
 20
544.4607009999214
 30
0.0
 10
877.6828532857351
 20
544.2071145504004
 30
0.0
 10
877.5963737563411
 20
543.9734349810062
 30
0.0
 10
877.501720704119
 20
543.7564024716011
 30
0.0
 10
877.3987373985752
 20
543.5537347039902
 30
0.0
 10
877.2884063675223
 20
543.3636403207225
 30
0.0
 10
877.168203521801
 20
543.1876408991656
 30
0.0
 10
877.0400814344948
 20
543.024489682999
 30
0.0
 10
876.9012979172538
 20
542.8770665455098
 30
0.0
 10
876.7557651513064
 20
542.7418192953085
 30
0.0
 10
876.6016796294001
 20
542.621472718252
 30
0.0
 10
876.4407389408696
 20
542.5161360219404
 30
0.0
 10
876.2762610507555
 20
542.4219329353396
 30
0.0
 10
876.1053276031047
 20
542.3459724895114
 30
0.0
 10
875.9318122825802
 20
542.2807495387051
 30
0.0
 10
875.7532331600316
 20
542.2309199343939
 30
0.0
 10
875.5698128384557
 20
542.1964654074897
 30
0.0
 10
875.3824842991902
 20
542.1723011824502
 30
0.0
 10
875.255852150433
 20
542.170457799878
 30
0.0
 10
875.1922066484618
 20
542.1695313131187
 30
0.0
  0
SPLINE
  5
9A
330
1F
100
AcDbEntity
  8
0
  6
Continuous
 62
     7
370
    25
100
AcDbSpline
210
0.0
220
0.0
230
1.0
 70
     8
 71
     3
 72
    19
 73
    15
 74
     0
 42
0.00000001
 43
0.00000001
 40
0.0
 40
0.0
 40
0.0
 40
0.0
 40
0.1101655532114423
 40
0.2157872561749687
 40
0.318027434909415
 40
0.4175739541655057
 40
0.5116504876474458
 40
0.5961620971027579
 40
0.6729345334849955
 40
0.7436695573498564
 40
0.8106770010653608
 40
0.8740589623137399
 40
0.9366963019193723
 40
1.0
 40
1.0
 40
1.0
 40
1.0
 10
862.4662451100004
 20
532.8618390054264
 30
0.0
 10
862.5652192030752
 20
532.8635185567892
 30
0.0
 10
862.7590851380653
 20
532.8668083853212
 30
0.0
 10
863.0422721203736
 20
532.906598123367
 30
0.0
 10
863.313068262397
 20
532.9616395589228
 30
0.0
 10
863.5654722441134
 20
533.0459485698265
 30
0.0
 10
863.7955264460578
 20
533.1438692483621
 30
0.0
 10
863.9951141079594
 20
533.2578171558266
 30
0.0
 10
864.161439016014
 20
533.3844794398192
 30
0.0
 10
864.2936928937083
 20
533.5258111183159
 30
0.0
 10
864.3931882734743
 20
533.6773883697065
 30
0.0
 10
864.4659352390195
 20
533.8353693015636
 30
0.0
 10
864.508907413294
 20
534.0011385837038
 30
0.0
 10
864.5146437948206
 20
534.1142692532604
 30
0.0
 10
864.5175271612824
 20
534.1711338772212
 30
0.0
  0
LINE
  5
9B
330
1F
100
AcDbEntity
  8
0
  6
Continuous
 62
     7
370
    25
100
AcDbLine
 10
862.46624511
 20
532.0413261849
 30
0.0
 11
862.46624511
 21
532.8618390054
 31
0.0
  0
SPLINE
  5
9C
330
1F
100
AcDbEntity
  8
0
  6
Continuous
 62
     7
370
    25
100
AcDbSpline
210
0.0
220
0.0
230
1.0
 70
     8
 71
     3
 72
    23
 73
    19
 74
     0
 42
0.00000001
 43
0.00000001
 40
0.0
 40
0.0
 40
0.0
 40
0.0
 40
0.0669091856056546
 40
0.1334854404229665
 40
0.2010351165700762
 40
0.271234340018767
 40
0.3428799841615837
 40
0.4138361296100172
 40
0.4859766219744199
 40
0.5602295572555471
 40
0.5998841807523914
 40
0.6440548396425956
 40
0.691891931584254
 40
0.7446875244737728
 40
0.8014917751698756
 40
0.8628576982200934
 40
0.929328379394743
 40
1.0
 40
1.0
 40
1.0
 40
1.0
 10
864.9277835715388
 20
530.3490184926059
 30
0.0
 10
864.9242857394798
 20
530.4235586957375
 30
0.0
 10
864.917307480087
 20
530.5722682003318
 30
0.0
 10
864.8640307270782
 20
530.7910512272404
 30
0.0
 10
864.7763990374609
 20
531.0018475985296
 30
0.0
 10
864.6537190116139
 20
531.201060832948
 30
0.0
 10
864.5043802032817
 20
531.3856914650266
 30
0.0
 10
864.3298318447469
 20
531.5504262821194
 30
0.0
 10
864.1286244656079
 20
531.6863579188533
 30
0.0
 10
863.9434361935319
 20
531.7802748477644
 30
0.0
 10
863.7794015500758
 20
531.8443595910417
 30
0.0
 10
863.639023528504
 20
531.8870452240686
 30
0.0
 10
863.4818655779361
 20
531.9231907227569
 30
0.0
 10
863.3098282090743
 20
531.9568187719561
 30
0.0
 10
863.1216151429189
 20
531.9854389963033
 30
0.0
 10
862.9174312846832
 20
532.0093060037168
 30
0.0
 10
862.6972352581577
 20
532.0284032401613
 30
0.0
 10
862.5447983076243
 20
532.0369314579475
 30
0.0
 10
862.4662451100004
 20
532.0413261849136
 30
0.0
  0
SPLINE
  5
9D
330
1F
100
AcDbEntity
  8
0
  6
Continuous
 62
     7
370
    25
100
AcDbSpline
210
0.0
220
0.0
230
1.0
 70
     8
 71
     3
 72
    23
 73
    19
 74
     0
 42
0.00000001
 43
0.00000001
 40
0.0
 40
0.0
 40
0.0
 40
0.0
 40
0.0760717369555603
 40
0.1487517145745096
 40
0.2184027938458418
 40
0.2857595810623845
 40
0.3505980236748748
 40
0.4149640445981266
 40
0.4780693385717784
 40
0.5417606760069044
 40
0.6043498585387139
 40
0.6640750210708973
 40
0.7214636230801995
 40
0.7775871282364414
 40
0.832644446927127
 40
0.8878435110684586
 40
0.9434603426519439
 40
1.0
 40
1.0
 40
1.0
 40
1.0
 10
862.8909245971798
 20
528.6567108002982
 30
0.0
 10
862.9657897460903
 20
528.6581185837202
 30
0.0
 10
863.1121820819037
 20
528.6608713826722
 30
0.0
 10
863.3257931889456
 20
528.686187284035
 30
0.0
 10
863.529010211953
 20
528.7230568004793
 30
0.0
 10
863.7195768994246
 20
528.7800007612062
 30
0.0
 10
863.8999894876556
 20
528.8503569931079
 30
0.0
 10
864.0677189725083
 20
528.9386962055345
 30
0.0
 10
864.224967215236
 20
529.0423412835623
 30
0.0
 10
864.369720141925
 20
529.1601450747421
 30
0.0
 10
864.4998813019545
 20
529.2891084920701
 30
0.0
 10
864.6144859036491
 20
529.4239955117511
 30
0.0
 10
864.7119137013161
 20
529.5642374077732
 30
0.0
 10
864.7905047371767
 20
529.7106102555828
 30
0.0
 10
864.8525631378637
 20
529.8625079215944
 30
0.0
 10
864.8948104534497
 20
530.0203566744046
 30
0.0
 10
864.9241853451639
 20
530.1828647114423
 30
0.0
 10
864.9265776015699
 20
530.2933309261662
 30
0.0
 10
864.9277835715388
 20
530.3490184926059
 30
0.0
  0
SPLINE
  5
9E
330
1F
100
AcDbEntity
  8
0
  6
Continuous
 62
     7
370
    25
100
AcDbSpline
210
0.0
220
0.0
230
1.0
 70
     8
 71
     3
 72
    15
 73
    11
 74
     0
 42
0.00000001
 43
0.00000001
 40
0.0
 40
0.0
 40
0.0
 40
0.0
 40
0.1182713048357295
 40
0.2361775330837612
 40
0.3556629329485123
 40
0.4759041646706847
 40
0.6001273417110823
 40
0.7286081161551181
 40
0.8613134756739412
 40
1.0
 40
1.0
 40
1.0
 40
1.0
 10
861.5543861356414
 20
529.0894031079905
 30
0.0
 10
861.599178310556
 20
529.0548697733951
 30
0.0
 10
861.6886243971404
 20
528.9859097007447
 30
0.0
 10
861.8343803539369
 20
528.8979059783727
 30
0.0
 10
861.9876715221328
 20
528.821652206179
 30
0.0
 10
862.1518193489235
 20
528.7634037588276
 30
0.0
 10
862.32328168139
 20
528.7140833913095
 30
0.0
 10
862.5048299447769
 20
528.6818079190067
 30
0.0
 10
862.6948624410323
 20
528.659663527365
 30
0.0
 10
862.8246173289937
 20
528.6577093982394
 30
0.0
 10
862.8909245971798
 20
528.6567108002982
 30
0.0
  0
SPLINE
  5
9F
330
1F
100
AcDbEntity
  8
0
  6
Continuous
 62
     7
370
    25
100
AcDbSpline
210
0.0
220
0.0
230
1.0
 70
     8
 71
     3
 72
    15
 73
    11
 74
     0
 42
0.00000001
 43
0.00000001
 40
0.0
 40
0.0
 40
0.0
 40
0.0
 40
0.1497703860319626
 40
0.2913164099952361
 40
0.4259663731047384
 40
0.5521595739695171
 40
0.671527413523599
 40
0.7861216286916541
 40
0.8953250730704442
 40
1.0
 40
1.0
 40
1.0
 40
1.0
 10
860.9277835715388
 20
530.1951723387597
 30
0.0
 10
860.9464882376881
 20
530.1335745941457
 30
0.0
 10
860.982870438049
 20
530.0137616304472
 30
0.0
 10
861.0448002621291
 20
529.8413266460475
 30
0.0
 10
861.115356312576
 20
529.6832510958194
 30
0.0
 10
861.1910467323155
 20
529.5383753884411
 30
0.0
 10
861.2705403232246
 20
529.4052727542373
 30
0.0
 10
861.3594887235364
 20
529.2874627678736
 30
0.0
 10
861.4513039124445
 20
529.1797708771085
 30
0.0
 10
861.5205138629619
 20
529.119097478388
 30
0.0
 10
861.5543861356414
 20
529.0894031079905
 30
0.0
  0
LINE
  5
A0
330
1F
100
AcDbEntity
  8
0
  6
Continuous
 62
     7
370
    25
100
AcDbLine
 10
860.2098348536
 20
530.1951723388
 30
0.0
 11
860.9277835715
 21
530.1951723388
 31
0.0
  0
SPLINE
  5
A1
330
1F
100
AcDbEntity
  8
0
  6
Continuous
 62
     7
370
    25
100
AcDbSpline
210
0.0
220
0.0
230
1.0
 70
     8
 71
     3
 72
    23
 73
    19
 74
     0
 42
0.00000001
 43
0.00000001
 40
0.0
 40
0.0
 40
0.0
 40
0.0
 40
0.0655411703374026
 40
0.1289631677825945
 40
0.1903771361885623
 40
0.2500923616690554
 40
0.308548432459201
 40
0.3663979630552973
 40
0.4245421892666794
 40
0.4831699964229042
 40
0.5422433998311204
 40
0.6017393520173314
 40
0.6625060022496071
 40
0.724855513448846
 40
0.7891278292811826
 40
0.8563463998785136
 40
0.9262952349869068
 40
1.0
 40
1.0
 40
1.0
 40
1.0
 10
862.8781040843594
 20
527.8361979797854
 30
0.0
 10
862.7925742551407
 20
527.8381824672333
 30
0.0
 10
862.6242800721234
 20
527.8420872767813
 30
0.0
 10
862.3768663615261
 20
527.8687812223736
 30
0.0
 10
862.1407024772644
 20
527.9175355200598
 30
0.0
 10
861.9154691107348
 20
527.9831430751825
 30
0.0
 10
861.7009661704067
 20
528.0663241999379
 30
0.0
 10
861.4978482157147
 20
528.1699097954152
 30
0.0
 10
861.3048656019545
 20
528.2917646572478
 30
0.0
 10
861.1238394279098
 20
528.4333271436628
 30
0.0
 10
860.9547912731526
 20
528.5916844916784
 30
0.0
 10
860.8022136177696
 20
528.7696479430331
 30
0.0
 10
860.6635626624734
 20
528.963927723424
 30
0.0
 10
860.5425509168471
 20
529.1767804233067
 30
0.0
 10
860.4336664537251
 20
529.4054552970846
 30
0.0
 10
860.3441099813884
 20
529.6528804362426
 30
0.0
 10
860.2652858245054
 20
529.9168439150747
 30
0.0
 10
860.2286379062288
 20
530.1007930354765
 30
0.0
 10
860.2098348535901
 20
530.1951723387597
 30
0.0
  0
SPLINE
  5
A2
330
1F
100
AcDbEntity
  8
0
  6
Continuous
 62
     7
370
    25
100
AcDbSpline
210
0.0
220
0.0
230
1.0
 70
     8
 71
     3
 72
    19
 73
    15
 74
     0
 42
0.00000001
 43
0.00000001
 40
0.0
 40
0.0
 40
0.0
 40
0.0
 40
0.079648251180231
 40
0.1589216764181177
 40
0.2396194947370369
 40
0.3226094298185653
 40
0.4060346366179273
 40
0.4876020954923904
 40
0.5696846265959323
 40
0.6530361450088349
 40
0.7374357177222877
 40
0.8224778158555119
 40
0.9097476551184073
 40
1.0
 40
1.0
 40
1.0
 40
1.0
 10
865.6457322894875
 20
530.4179287490161
 30
0.0
 10
865.6416305443025
 20
530.3059065291595
 30
0.0
 10
865.6334463568109
 20
530.0823892678025
 30
0.0
 10
865.5602941869649
 20
529.7521613326405
 30
0.0
 10
865.4468924939499
 20
529.4293601845808
 30
0.0
 10
865.2858480688813
 20
529.1206176948763
 30
0.0
 10
865.0895794772732
 20
528.8317482525898
 30
0.0
 10
864.8560770220087
 20
528.5732881176461
 30
0.0
 10
864.5879938027851
 20
528.3511198791638
 30
0.0
 10
864.289009462555
 20
528.1654965007526
 30
0.0
 10
863.965084597448
 20
528.0171126785963
 30
0.0
 10
863.6186261014549
 20
527.9141242378042
 30
0.0
 10
863.2546259781062
 20
527.8470476671272
 30
0.0
 10
863.0050092979862
 20
527.8398548239498
 30
0.0
 10
862.8781040843594
 20
527.8361979797854
 30
0.0
  0
SPLINE
  5
A3
330
1F
100
AcDbEntity
  8
0
  6
Continuous
 62
     7
370
    25
100
AcDbSpline
210
0.0
220
0.0
230
1.0
 70
     8
 71
     3
 72
    15
 73
    11
 74
     0
 42
0.00000001
 43
0.00000001
 40
0.0
 40
0.0
 40
0.0
 40
0.0
 40
0.1281355097972525
 40
0.2541727119019864
 40
0.3781116451390067
 40
0.5017122630072809
 40
0.6239863093684818
 40
0.7470956136177481
 40
0.8728746366500689
 40
0.9999999999999999
 40
0.9999999999999999
 40
0.9999999999999999
 40
0.9999999999999999
 10
865.1681681869235
 20
531.8394031079905
 30
0.0
 10
865.2066626837297
 20
531.786699675742
 30
0.0
 10
865.2830213033037
 20
531.6821558664398
 30
0.0
 10
865.3772739518793
 20
531.5140726072764
 30
0.0
 10
865.4627804988651
 20
531.3441263460601
 30
0.0
 10
865.529409571612
 20
531.1677619894292
 30
0.0
 10
865.5810069815246
 20
530.9870236724048
 30
0.0
 10
865.61788934093
 20
530.8016010528428
 30
0.0
 10
865.6408016629432
 20
530.611342715873
 30
0.0
 10
865.6440829246907
 20
530.4826284753691
 30
0.0
 10
865.6457322894875
 20
530.4179287490161
 30
0.0
  0
SPLINE
  5
A4
330
1F
100
AcDbEntity
  8
0
  6
Continuous
 62
     7
370
    25
100
AcDbSpline
210
0.0
220
0.0
230
1.0
 70
     8
 71
     3
 72
    11
 73
     7
 74
     0
 42
0.00000001
 43
0.00000001
 40
0.0
 40
0.0
 40
0.0
 40
0.0
 40
0.2538796003266552
 40
0.5030089172783708
 40
0.7502910806899756
 40
1.0
 40
1.0
 40
1.0
 40
1.0
 10
864.3011810074363
 20
532.5220954156829
 30
0.0
 10
864.3862821607468
 20
532.4810024521594
 30
0.0
 10
864.5548921590718
 20
532.3995854061933
 30
0.0
 10
864.7847219408613
 20
532.2399151032968
 30
0.0
 10
864.9933570845343
 20
532.0555577379164
 30
0.0
 10
865.1097084422573
 20
531.911688816971
 30
0.0
 10
865.1681681869235
 20
531.8394031079905
 30
0.0
  0
SPLINE
  5
A5
330
1F
100
AcDbEntity
  8
0
  6
Continuous
 62
     7
370
    25
100
AcDbSpline
210
0.0
220
0.0
230
1.0
 70
     8
 71
     3
 72
    15
 73
    11
 74
     0
 42
0.00000001
 43
0.00000001
 40
0.0
 40
0.0
 40
0.0
 40
0.0
 40
0.1280675485958994
 40
0.2506083188676791
 40
0.3706301659145059
 40
0.4900722467299584
 40
0.6103747641546216
 40
0.734313069911531
 40
0.8632165042449939
 40
1.0
 40
1.0
 40
1.0
 40
1.0
 10
865.2354758792311
 20
534.1679287490161
 30
0.0
 10
865.2328162425521
 20
534.083341789689
 30
0.0
 10
865.2276117462982
 20
533.9178182366305
 30
0.0
 10
865.1834204192985
 20
533.6761691003148
 30
0.0
 10
865.1090518184385
 20
533.4484168710982
 30
0.0
 10
865.0060352182605
 20
533.2336027862445
 30
0.0
 10
864.8726831034257
 20
533.0330888666489
 30
0.0
 10
864.7111455105335
 20
532.8464239732534
 30
0.0
 10
864.5202822836181
 20
532.6727801832461
 30
0.0
 10
864.3756447109934
 20
532.5733071021592
 30
0.0
 10
864.3011810074363
 20
532.5220954156829
 30
0.0
  0
SPLINE
  5
A6
330
1F
100
AcDbEntity
  8
0
  6
Continuous
 62
     7
370
    25
100
AcDbSpline
210
0.0
220
0.0
230
1.0
 70
     8
 71
     3
 72
    19
 73
    15
 74
     0
 42
0.00000001
 43
0.00000001
 40
0.0
 40
0.0
 40
0.0
 40
0.0
 40
0.0902542493426786
 40
0.1785397915286868
 40
0.2660930338538225
 40
0.3546309779571745
 40
0.4418861533505663
 40
0.5257469151636504
 40
0.6081136336036423
 40
0.6901972728278873
 40
0.7708214843303349
 40
0.8483261812554177
 40
0.9240117400247452
 40
1.0
 40
1.0
 40
1.0
 40
1.0
 10
862.8989374176927
 20
536.2464543900418
 30
0.0
 10
863.0033551138642
 20
536.2433018637677
 30
0.0
 10
863.2099128531636
 20
536.2370655769681
 30
0.0
 10
863.5133712461933
 20
536.1801182935873
 30
0.0
 10
863.8060039755696
 20
536.0900037053491
 30
0.0
 10
864.0846079705784
 20
535.965492329036
 30
0.0
 10
864.3433929593698
 20
535.8119213275227
 30
0.0
 10
864.5736471005062
 20
535.6291447860489
 30
0.0
 10
864.7722494109152
 20
535.4206892397922
 30
0.0
 10
864.9388651312811
 20
535.1904433784924
 30
0.0
 10
865.0693222719754
 20
534.944373642751
 30
0.0
 10
865.1655196970718
 20
534.6911161406999
 30
0.0
 10
865.2240835393544
 20
534.4312716346682
 30
0.0
 10
865.2316733834921
 20
534.255826425125
 30
0.0
 10
865.2354758792311
 20
534.1679287490161
 30
0.0
  0
SPLINE
  5
A7
330
1F
100
AcDbEntity
  8
0
  6
Continuous
 62
     7
370
    25
100
AcDbSpline
210
0.0
220
0.0
230
1.0
 70
     8
 71
     3
 72
    23
 73
    19
 74
     0
 42
0.00000001
 43
0.00000001
 40
0.0
 40
0.0
 40
0.0
 40
0.0
 40
0.0726253460834359
 40
0.1419766113262384
 40
0.208984928418942
 40
0.2739568703644492
 40
0.3368893473968437
 40
0.3987449534945927
 40
0.4601158852788629
 40
0.5208249225900284
 40
0.580994458632488
 40
0.6401519276014631
 40
0.6986224507562576
 40
0.7572710809271649
 40
0.816426694004662
 40
0.8762540482034716
 40
0.9371652930625375
 40
1.0
 40
1.0
 40
1.0
 40
1.0
 10
860.5175271612824
 20
534.1951723387597
 30
0.0
 10
860.536977562839
 20
534.2757037307034
 30
0.0
 10
860.5750015069696
 20
534.433136015025
 30
0.0
 10
860.654310246327
 20
534.6580668969617
 30
0.0
 10
860.7407085439147
 20
534.8709206601405
 30
0.0
 10
860.8444550686341
 20
535.0677116857298
 30
0.0
 10
860.9576179354367
 20
535.2523948919761
 30
0.0
 10
861.0872698703757
 20
535.420781462189
 30
0.0
 10
861.2274292362407
 20
535.5771539546852
 30
0.0
 10
861.3824576917876
 20
535.7159270691017
 30
0.0
 10
861.5450374898238
 20
535.8415904501456
 30
0.0
 10
861.7174594778254
 20
535.9487334383567
 30
0.0
 10
861.8962546633583
 20
536.0409029306185
 30
0.0
 10
862.0826618243836
 20
536.1168348891907
 30
0.0
 10
862.2772359311082
 20
536.1740360861418
 30
0.0
 10
862.4782179272701
 20
536.2155373560637
 30
0.0
 10
862.6861344989607
 20
536.242488474268
 30
0.0
 10
862.8272718488996
 20
536.245118789894
 30
0.0
 10
862.8989374176927
 20
536.2464543900418
 30
0.0
  0
LINE
  5
A8
330
1F
100
AcDbEntity
  8
0
  6
Continuous
 62
     7
370
    25
100
AcDbLine
 10
861.2354758792
 20
534.1951723388
 30
0.0
 11
860.5175271613
 21
534.1951723388
 31
0.0
  0
SPLINE
  5
A9
330
1F
100
AcDbEntity
  8
0
  6
Continuous
 62
     7
370
    25
100
AcDbSpline
210
0.0
220
0.0
230
1.0
 70
     8
 71
     3
 72
    19
 73
    15
 74
     0
 42
0.00000001
 43
0.00000001
 40
0.0
 40
0.0
 40
0.0
 40
0.0
 40
0.122711942365775
 40
0.2396849640167716
 40
0.3518158552560912
 40
0.4637661328620808
 40
0.5208177931608281
 40
0.5794482914480019
 40
0.640604145120315
 40
0.7052975118059867
 40
0.7736338807131322
 40
0.8446693818863795
 40
0.9200565080211383
 40
1.0
 40
1.0
 40
1.0
 40
1.0
 10
862.908552802308
 20
535.425941569529
 30
0.0
 10
862.8174632754441
 20
535.4227613135218
 30
0.0
 10
862.6395442437037
 20
535.4165495338701
 30
0.0
 10
862.3830530050631
 20
535.3621426459841
 30
0.0
 10
862.1446088130617
 20
535.2753355979993
 30
0.0
 10
861.9623490037147
 20
535.1717172678693
 30
0.0
 10
861.827760262781
 20
535.0694305619243
 30
0.0
 10
861.7315844040307
 20
534.9800993930758
 30
0.0
 10
861.6371375231054
 20
534.8808243675638
 30
0.0
 10
861.5506331188786
 20
534.7654909383579
 30
0.0
 10
861.4631497436222
 20
534.6419097036362
 30
0.0
 10
861.3835050315569
 20
534.5037984315411
 30
0.0
 10
861.306111449268
 20
534.3547598159938
 30
0.0
 10
861.2594770501396
 20
534.2493983655894
 30
0.0
 10
861.2354758792311
 20
534.1951723387597
 30
0.0
  0
SPLINE
  5
AA
330
1F
100
AcDbEntity
  8
0
  6
Continuous
 62
     7
370
    25
100
AcDbSpline
210
0.0
220
0.0
230
1.0
 70
     8
 71
     3
 72
    23
 73
    19
 74
     0
 42
0.00000001
 43
0.00000001
 40
0.0
 40
0.0
 40
0.0
 40
0.0
 40
0.0552745490875203
 40
0.1099660938819878
 40
0.1632474428518046
 40
0.2180761854823544
 40
0.2733008743735906
 40
0.3309093000114353
 40
0.3909945233652135
 40
0.4541759534308217
 40
0.5188615408488274
 40
0.5833105320111658
 40
0.6485166818638292
 40
0.7150308870971844
 40
0.7825020728543309
 40
0.8523226850768536
 40
0.9249284897844292
 40
1.0
 40
1.0
 40
1.0
 40
1.0
 10
864.5175271612824
 20
534.1711338772212
 30
0.0
 10
864.5165799362271
 20
534.2129115804042
 30
0.0
 10
864.5146954769039
 20
534.2960263394793
 30
0.0
 10
864.4909302705415
 20
534.4174550679098
 30
0.0
 10
864.4552181768669
 20
534.5351715157412
 30
0.0
 10
864.4061216527368
 20
534.6486750820363
 30
0.0
 10
864.3404069128356
 20
534.7571785652318
 30
0.0
 10
864.261764657923
 20
534.8616070199523
 30
0.0
 10
864.1681232858555
 20
534.9613642291093
 30
0.0
 10
864.0608194069788
 20
535.0543478166627
 30
0.0
 10
863.9455924241925
 20
535.1429632158981
 30
0.0
 10
863.8193072240829
 20
535.2181943861368
 30
0.0
 10
863.6857715104555
 20
535.2825259565972
 30
0.0
 10
863.5448374422272
 20
535.3355762471205
 30
0.0
 10
863.3960476586423
 20
535.3754831916158
 30
0.0
 10
863.2401012411366
 20
535.4041365433914
 30
0.0
 10
863.0767008216797
 20
535.4220511827779
 30
0.0
 10
862.9652225770918
 20
535.4246304191399
 30
0.0
 10
862.908552802308
 20
535.425941569529
 30
0.0
  0
SPLINE
  5
AB
330
1F
100
AcDbEntity
  8
0
  6
Continuous
 62
     7
370
    25
100
AcDbSpline
210
0.0
220
0.0
230
1.0
 70
     8
 71
     3
 72
    31
 73
    27
 74
     0
 42
0.00000001
 43
0.00000001
 40
0.0
 40
0.0
 40
0.0
 40
0.0
 40
0.0337881161627101
 40
0.0671939323738786
 40
0.0998624108568237
 40
0.132566612126258
 40
0.1651511732547866
 40
0.1979131873557916
 40
0.2313190035669611
 40
0.2650832782673744
 40
0.2992553087581145
 40
0.33439856650498
 40
0.3699428235093098
 40
0.4062835607000636
 40
0.4440638196985084
 40
0.4829977068727756
 40
0.5233544466133025
 40
0.565536589604149
 40
0.6096129240658222
 40
0.6563908113764185
 40
0.7058854949364574
 40
0.7583245002617305
 40
0.8138317829411492
 40
0.8727945590393933
 40
0.9347222295400731
 40
1.0
 40
1.0
 40
1.0
 40
1.0
 10
869.0383604946159
 20
536.2464543900418
 30
0.0
 10
869.1019844454371
 20
536.2453393839261
 30
0.0
 10
869.2285124657701
 20
536.2431219875734
 30
0.0
 10
869.4155761806178
 20
536.2218101189228
 30
0.0
 10
869.5983183102512
 20
536.1864475518441
 30
0.0
 10
869.7759597701449
 20
536.1363424670838
 30
0.0
 10
869.9499597392141
 20
536.0741809204337
 30
0.0
 10
870.1189572424041
 20
535.9962675098984
 30
0.0
 10
870.2840020004433
 20
535.9055729559682
 30
0.0
 10
870.4424712290601
 20
535.799004093553
 30
0.0
 10
870.5961046355654
 20
535.6801874622462
 30
0.0
 10
870.7411285509302
 20
535.5458727906956
 30
0.0
 10
870.8775561758387
 20
535.3974162895103
 30
0.0
 10
871.0070997310072
 20
535.2364063149122
 30
0.0
 10
871.1260839531769
 20
535.0597546924355
 30
0.0
 10
871.2393946554294
 20
534.8705338700031
 30
0.0
 10
871.3408164517759
 20
534.6654347504744
 30
0.0
 10
871.4384957093271
 20
534.4478793954091
 30
0.0
 10
871.5228088218739
 20
534.2118481752796
 30
0.0
 10
871.5988459539249
 20
533.9586715798097
 30
0.0
 10
871.6602835963819
 20
533.6853591527164
 30
0.0
 10
871.711459076012
 20
533.3933448777561
 30
0.0
 10
871.7511045524591
 20
533.0815563446357
 30
0.0
 10
871.7799791629243
 20
532.7506619091803
 30
0.0
 10
871.7952319287331
 20
532.40044387343
 30
0.0
 10
871.798104388634
 20
532.160997361025
 30
0.0
 10
871.7995784433336
 20
532.0381210567084
 30
0.0
  0
SPLINE
  5
AC
330
1F
100
AcDbEntity
  8
0
  6
Continuous
 62
     7
370
    25
100
AcDbSpline
210
0.0
220
0.0
230
1.0
 70
     8
 71
     3
 72
    31
 73
    27
 74
     0
 42
0.00000001
 43
0.00000001
 40
0.0
 40
0.0
 40
0.0
 40
0.0
 40
0.0685946222587403
 40
0.1332460424432977
 40
0.1943125864682525
 40
0.2512792231169638
 40
0.3045134392563469
 40
0.354234906653324
 40
0.4004805887739882
 40
0.4434107549384925
 40
0.4840148686163452
 40
0.5232523007732006
 40
0.5610423727283603
 40
0.5979002393643994
 40
0.6335184888561928
 40
0.6683143511696504
 40
0.7024956712863804
 40
0.7366853535134573
 40
0.7702931693607881
 40
0.8034372550192471
 40
0.8359129516660274
 40
0.8684602457892908
 40
0.9008465382431803
 40
0.9334665246307062
 40
0.9662575752981226
 40
1.0
 40
1.0
 40
1.0
 40
1.0
 10
866.3636810074362
 20
532.0381210567084
 30
0.0
 10
866.3644307632247
 20
532.1663436572439
 30
0.0
 10
866.3658871746507
 20
532.4154179069525
 30
0.0
 10
866.3820892796615
 20
532.7783542316764
 30
0.0
 10
866.4090043478059
 20
533.1188348922369
 30
0.0
 10
866.4458897714637
 20
533.436876186039
 30
0.0
 10
866.4907765834033
 20
533.7325602192225
 30
0.0
 10
866.5506976956349
 20
534.0050968069623
 30
0.0
 10
866.6188412444691
 20
534.2557473363637
 30
0.0
 10
866.6978182634646
 20
534.4853291614518
 30
0.0
 10
866.7869332097922
 20
534.6969353397881
 30
0.0
 10
866.8839258057284
 20
534.8944786570311
 30
0.0
 10
866.9926453358393
 20
535.0776602166648
 30
0.0
 10
867.1068782796729
 20
535.2494037376248
 30
0.0
 10
867.2312487291077
 20
535.40689789715
 30
0.0
 10
867.3622173930329
 20
535.5523668400496
 30
0.0
 10
867.5048959673578
 20
535.6824485553955
 30
0.0
 10
867.6544342719827
 20
535.8009543894184
 30
0.0
 10
867.8121861905925
 20
535.9048388960972
 30
0.0
 10
867.9736551417769
 20
535.9963422986474
 30
0.0
 10
868.1399525265905
 20
536.0745134238077
 30
0.0
 10
868.3115323732144
 20
536.1359772772009
 30
0.0
 10
868.4868525055335
 20
536.186744926967
 30
0.0
 10
868.6665258008279
 20
536.2214625215877
 30
0.0
 10
868.8508489183967
 20
536.2433068838491
 30
0.0
 10
868.9752636265068
 20
536.2453952672554
 30
0.0
 10
869.0383604946159
 20
536.2464543900418
 30
0.0
  0
SPLINE
  5
AD
330
1F
100
AcDbEntity
  8
0
  6
Continuous
 62
     7
370
    25
100
AcDbSpline
210
0.0
220
0.0
230
1.0
 70
     8
 71
     3
 72
    31
 73
    27
 74
     0
 42
0.00000001
 43
0.00000001
 40
0.0
 40
0.0
 40
0.0
 40
0.0
 40
0.0337871463469914
 40
0.0666216577242952
 40
0.0992848780959742
 40
0.1313611650426513
 40
0.1635851875953438
 40
0.1961039269870671
 40
0.2289022543238158
 40
0.2621580559050082
 40
0.2959912222583153
 40
0.3302178457247985
 40
0.3650598258919541
 40
0.4009507373401088
 40
0.4376203820767387
 40
0.4757075294370918
 40
0.5153806916250487
 40
0.5564135414931639
 40
0.599764829872731
 40
0.6464241555840863
 40
0.6964314445175636
 40
0.7497815178015569
 40
0.8065733069755334
 40
0.8674355315654008
 40
0.93188675325087
 40
1.0
 40
1.0
 40
1.0
 40
1.0
 10
869.0383604946159
 20
527.8361979797854
 30
0.0
 10
868.9752653769351
 20
527.8372639351197
 30
0.0
 10
868.8508541203282
 20
527.8393657909768
 30
0.0
 10
868.6665057193238
 20
527.8611114629498
 30
0.0
 10
868.4875744200325
 20
527.8960726131494
 30
0.0
 10
868.3131772679466
 20
527.9450248510719
 30
0.0
 10
868.1424195191838
 20
528.0049444769356
 30
0.0
 10
867.9776280068278
 20
528.0830100394569
 30
0.0
 10
867.8169704441062
 20
528.1729164827848
 30
0.0
 10
867.6608754589221
 20
528.275306017501
 30
0.0
 10
867.5122762336881
 20
528.3926127217943
 30
0.0
 10
867.3703365643993
 20
528.5223596673635
 30
0.0
 10
867.2386222350349
 20
528.6677846074717
 30
0.0
 10
867.116030016481
 20
528.826591288861
 30
0.0
 10
866.9995178148907
 20
528.9973186999072
 30
0.0
 10
866.8923421044468
 20
529.1822978382968
 30
0.0
 10
866.7932087237197
 20
529.3807952337015
 30
0.0
 10
866.7025950307631
 20
529.5940933152445
 30
0.0
 10
866.6222552284432
 20
529.8253045789241
 30
0.0
 10
866.5512890384697
 20
530.0770741297869
 30
0.0
 10
866.4952566785382
 20
530.3516241551905
 30
0.0
 10
866.4472956377773
 20
530.646749565717
 30
0.0
 10
866.4086113336779
 20
530.9637185494561
 30
0.0
 10
866.3822014472358
 20
531.3027031853119
 30
0.0
 10
866.3658784414399
 20
531.663492234286
 30
0.0
 10
866.3644268519082
 20
531.9109660041524
 30
0.0
 10
866.3636810074362
 20
532.0381210567084
 30
0.0
  0
SPLINE
  5
AE
330
1F
100
AcDbEntity
  8
0
  6
Continuous
 62
     7
370
    25
100
AcDbSpline
210
0.0
220
0.0
230
1.0
 70
     8
 71
     3
 72
    31
 73
    27
 74
     0
 42
0.00000001
 43
0.00000001
 40
0.0
 40
0.0
 40
0.0
 40
0.0
 40
0.0650632896172806
 40
0.1267731664665255
 40
0.1855157632260817
 40
0.2407646791677176
 40
0.2929797960236005
 40
0.3422503727797697
 40
0.3889192861856607
 40
0.4327756640583096
 40
0.4746284326311187
 40
0.5147746906379541
 40
0.5536058934984432
 40
0.5914264064311753
 40
0.6280281199460679
 40
0.6638036341103227
 40
0.6989843361316641
 40
0.7335914893067059
 40
0.7676284691511414
 40
0.8012083477865929
 40
0.8342638397266248
 40
0.866980694728778
 40
0.8997197415181609
 40
0.9327019124985401
 40
0.9661758834327501
 40
1.0
 40
1.0
 40
1.0
 40
1.0
 10
871.7995784433336
 20
532.0381210567084
 30
0.0
 10
871.7980891072333
 20
531.9157806957006
 30
0.0
 10
871.7951871965785
 20
531.677405491452
 30
0.0
 10
871.780150152538
 20
531.3287632621496
 30
0.0
 10
871.7505304241295
 20
530.9996248774671
 30
0.0
 10
871.7134790222808
 20
530.6892009632758
 30
0.0
 10
871.6621625354844
 20
530.3987835488005
 30
0.0
 10
871.5990650126244
 20
530.127367666588
 30
0.0
 10
871.5290071318889
 20
529.8737812170671
 30
0.0
 10
871.442527602495
 20
529.6401016476729
 30
0.0
 10
871.3478745502729
 20
529.4230691382678
 30
0.0
 10
871.244891244729
 20
529.220401370657
 30
0.0
 10
871.1345602136761
 20
529.0303069873892
 30
0.0
 10
871.014357367955
 20
528.8543075658323
 30
0.0
 10
870.8862352806487
 20
528.6911563496657
 30
0.0
 10
870.7474517634076
 20
528.5437332121766
 30
0.0
 10
870.6019189974602
 20
528.408485961975
 30
0.0
 10
870.4478334755541
 20
528.2881393849187
 30
0.0
 10
870.2868927870236
 20
528.182802688607
 30
0.0
 10
870.1224148969094
 20
528.0885996020064
 30
0.0
 10
869.9514814492585
 20
528.0126391561779
 30
0.0
 10
869.777966128734
 20
527.9474162053716
 30
0.0
 10
869.5993870061855
 20
527.8975866010605
 30
0.0
 10
869.4159666846095
 20
527.8631320741563
 30
0.0
 10
869.228638145344
 20
527.8389678491168
 30
0.0
 10
869.1020059965869
 20
527.8371244665448
 30
0.0
 10
869.0383604946159
 20
527.8361979797854
 30
0.0
  0
LINE
  5
AF
330
1F
100
AcDbEntity
  8
0
  6
Continuous
 62
     7
370
    25
100
AcDbLine
 10
883.1841938279
 20
528.8618390054
 30
0.0
 11
883.1841938279
 21
528.0413261849
 31
0.0
  0
LINE
  5
B0
330
1F
100
AcDbEntity
  8
0
  6
Continuous
 62
     7
370
    25
100
AcDbLine
 10
880.107270751
 20
528.8618390054
 30
0.0
 11
883.1841938279
 21
528.8618390054
 31
0.0
  0
LINE
  5
B1
330
1F
100
AcDbEntity
  8
0
  6
Continuous
 62
     7
370
    25
100
AcDbLine
 10
880.107270751
 20
536.0413261849
 30
0.0
 11
880.107270751
 21
528.8618390054
 31
0.0
  0
LINE
  5
B2
330
1F
100
AcDbEntity
  8
0
  6
Continuous
 62
     7
370
    25
100
AcDbLine
 10
879.3893220331
 20
536.0413261849
 30
0.0
 11
880.107270751
 21
536.0413261849
 31
0.0
  0
LINE
  5
B3
330
1F
100
AcDbEntity
  8
0
  6
Continuous
 62
     7
370
    25
100
AcDbLine
 10
879.3893220331
 20
528.0413261849
 30
0.0
 11
879.3893220331
 21
536.0413261849
 31
0.0
  0
LINE
  5
B4
330
1F
100
AcDbEntity
  8
0
  6
Continuous
 62
     7
370
    25
100
AcDbLine
 10
883.1841938279
 20
528.0413261849
 30
0.0
 11
879.3893220331
 21
528.0413261849
 31
0.0
  0
SPLINE
  5
B5
330
1F
100
AcDbEntity
  8
0
  6
Continuous
 62
     7
370
    25
100
AcDbSpline
210
0.0
220
0.0
230
1.0
 70
     8
 71
     3
 72
    15
 73
    11
 74
     0
 42
0.00000001
 43
0.00000001
 40
0.0
 40
0.0
 40
0.0
 40
0.0
 40
0.1294759494946691
 40
0.2538797616588626
 40
0.3748625495355485
 40
0.4942828559514249
 40
0.6142927138995197
 40
0.7369702805339394
 40
0.8650762150057473
 40
1.0
 40
1.0
 40
1.0
 40
1.0
 10
887.3925271612825
 20
527.9387620823495
 30
0.0
 10
887.2737497618385
 20
527.9420549011883
 30
0.0
 10
887.0408479914403
 20
527.9485115447984
 30
0.0
 10
886.7001561855725
 20
528.0020406401928
 30
0.0
 10
886.3776840723699
 20
528.093152891979
 30
0.0
 10
886.0697582474307
 20
528.2155797621856
 30
0.0
 10
885.7807805951729
 20
528.3813595429929
 30
0.0
 10
885.5089164066311
 20
528.5869749723123
 30
0.0
 10
885.2558801261679
 20
528.8358141412455
 30
0.0
 10
885.1068131197657
 20
529.025668975161
 30
0.0
 10
885.0303476741029
 20
529.1230569541443
 30
0.0
  0
SPLINE
  5
B6
330
1F
100
AcDbEntity
  8
0
  6
Continuous
 62
     7
370
    25
100
AcDbSpline
210
0.0
220
0.0
230
1.0
 70
     8
 71
     3
 72
    23
 73
    19
 74
     0
 42
0.00000001
 43
0.00000001
 40
0.0
 40
0.0
 40
0.0
 40
0.0
 40
0.0640152523933063
 40
0.1262279962525578
 40
0.1872887630524839
 40
0.2478694726159584
 40
0.308511205787823
 40
0.3697268830978112
 40
0.4325358014028948
 40
0.4971982300414921
 40
0.5619230290139905
 40
0.6251330703809991
 40
0.6868547425652858
 40
0.7481170910764595
 40
0.809530191651881
 40
0.8714874851012563
 40
0.9349814827971763
 40
1.0
 40
1.0
 40
1.0
 40
1.0
 10
890.4662451100004
 20
530.9531851592726
 30
0.0
 10
890.463418960259
 20
530.8510136902468
 30
0.0
 10
890.4578462380465
 20
530.6495476438416
 30
0.0
 10
890.4152832479595
 20
530.353075515059
 30
0.0
 10
890.3450060716776
 20
530.067729917237
 30
0.0
 10
890.2445233668999
 20
529.7942481862266
 30
0.0
 10
890.1182035069875
 20
529.531345527231
 30
0.0
 10
889.9602348769483
 20
529.2820188892669
 30
0.0
 10
889.7778097352999
 20
529.0419298020387
 30
0.0
 10
889.5667671101227
 20
528.8187900728958
 30
0.0
 10
889.3383932748967
 20
528.6125423013913
 30
0.0
 10
889.094017862631
 20
528.4333288953791
 30
0.0
 10
888.8397963275108
 20
528.2785469067378
 30
0.0
 10
888.5717663566846
 20
528.1559058835622
 30
0.0
 10
888.293896547881
 20
528.0567037776256
 30
0.0
 10
888.0032099491331
 20
527.987863341491
 30
0.0
 10
887.7013511422788
 20
527.9476963586148
 30
0.0
 10
887.4962793973089
 20
527.9417636340322
 30
0.0
 10
887.3925271612825
 20
527.9387620823495
 30
0.0
  0
SPLINE
  5
B7
330
1F
100
AcDbEntity
  8
0
  6
Continuous
 62
     7
370
    25
100
AcDbSpline
210
0.0
220
0.0
230
1.0
 70
     8
 71
     3
 72
    23
 73
    19
 74
     0
 42
0.00000001
 43
0.00000001
 40
0.0
 40
0.0
 40
0.0
 40
0.0
 40
0.0646486173546828
 40
0.1278213343090071
 40
0.1894192519051234
 40
0.2503721856209427
 40
0.3111374751755924
 40
0.3728252975636834
 40
0.4354631820975398
 40
0.5001282495925018
 40
0.5647725372671512
 40
0.6273442527991425
 40
0.6889194464052637
 40
0.7498291996276859
 40
0.8105779045174683
 40
0.8721758221135875
 40
0.9350171406703073
 40
1.0
 40
1.0
 40
1.0
 40
1.0
 10
887.4149630587184
 20
533.9900441336316
 30
0.0
 10
887.5181999451048
 20
533.9872093263536
 30
0.0
 10
887.7223168637303
 20
533.9816044292409
 30
0.0
 10
888.0223903430034
 20
533.9390112969373
 30
0.0
 10
888.311106400565
 20
533.8699420354087
 30
0.0
 10
888.5883078811629
 20
533.7741884827003
 30
0.0
 10
888.8527013270577
 20
533.6471416773682
 30
0.0
 10
889.106550600235
 20
533.4950472597523
 30
0.0
 10
889.3485551363071
 20
533.3139310787196
 30
0.0
 10
889.5749663029875
 20
533.1068492254974
 30
0.0
 10
889.7836380430948
 20
532.8820340879148
 30
0.0
 10
889.9662952090599
 20
532.6416219388122
 30
0.0
 10
890.1205802288255
 20
532.3891074463506
 30
0.0
 10
890.2481946120728
 20
532.125335875015
 30
0.0
 10
890.3468713042622
 20
531.8492299298323
 30
0.0
 10
890.4148536294196
 20
531.5610603328793
 30
0.0
 10
890.4580386904624
 20
531.2611105760301
 30
0.0
 10
890.4634792534522
 20
531.0569670249664
 30
0.0
 10
890.4662451100004
 20
530.9531851592726
 30
0.0
  0
SPLINE
  5
B8
330
1F
100
AcDbEntity
  8
0
  6
Continuous
 62
     7
370
    25
100
AcDbSpline
210
0.0
220
0.0
230
1.0
 70
     8
 71
     3
 72
    15
 73
    11
 74
     0
 42
0.00000001
 43
0.00000001
 40
0.0
 40
0.0
 40
0.0
 40
0.0
 40
0.134636225658695
 40
0.2626808261854724
 40
0.3871896540458312
 40
0.5083896927558598
 40
0.6289661928681559
 40
0.7497231883803466
 40
0.8732482727673945
 40
1.0
 40
1.0
 40
1.0
 40
1.0
 10
885.0303476741029
 20
532.8265825951701
 30
0.0
 10
885.111246917525
 20
532.9197435823557
 30
0.0
 10
885.2690846762408
 20
533.1015045086033
 30
0.0
 10
885.5337165647754
 20
533.3388705654555
 30
0.0
 10
885.8112150096322
 20
533.5401333707144
 30
0.0
 10
886.1036910229318
 20
533.7060444988621
 30
0.0
 10
886.4115605842426
 20
533.8323841717671
 30
0.0
 10
886.7332339756547
 20
533.9247782058359
 30
0.0
 10
887.0695334972825
 20
533.9805196984564
 30
0.0
 10
887.2988344662185
 20
533.9868421515932
 30
0.0
 10
887.4149630587184
 20
533.9900441336316
 30
0.0
  0
LINE
  5
B9
330
1F
100
AcDbEntity
  8
0
  6
Continuous
 62
     7
370
    25
100
AcDbLine
 10
885.0303476741
 20
536.24645439
 30
0.0
 11
885.0303476741
 21
532.8265825952
 31
0.0
  0
LINE
  5
BA
330
1F
100
AcDbEntity
  8
0
  6
Continuous
 62
     7
370
    25
100
AcDbLine
 10
884.3123989562
 20
536.24645439
 30
0.0
 11
885.0303476741
 21
536.24645439
 31
0.0
  0
LINE
  5
BB
330
1F
100
AcDbEntity
  8
0
  6
Continuous
 62
     7
370
    25
100
AcDbLine
 10
884.3123989562
 20
528.0413261849
 30
0.0
 11
884.3123989562
 21
536.24645439
 31
0.0
  0
LINE
  5
BC
330
1F
100
AcDbEntity
  8
0
  6
Continuous
 62
     7
370
    25
100
AcDbLine
 10
885.0303476741
 20
528.0413261849
 30
0.0
 11
884.3123989562
 21
528.0413261849
 31
0.0
  0
LINE
  5
BD
330
1F
100
AcDbEntity
  8
0
  6
Continuous
 62
     7
370
    25
100
AcDbLine
 10
885.0303476741
 20
529.1230569541
 30
0.0
 11
885.0303476741
 21
528.0413261849
 31
0.0
  0
LINE
  5
BE
330
1F
100
AcDbEntity
  8
0
  6
Continuous
 62
     7
370
    25
100
AcDbLine
 10
909.5848348536
 20
528.0413261849
 30
0.0
 11
904.3123989562
 21
534.323377467
 31
0.0
  0
LINE
  5
BF
330
1F
100
AcDbEntity
  8
0
  6
Continuous
 62
     7
370
    25
100
AcDbLine
 10
909.7482963921
 20
528.0413261849
 30
0.0
 11
909.5848348536
 21
528.0413261849
 31
0.0
  0
LINE
  5
C0
330
1F
100
AcDbEntity
  8
0
  6
Continuous
 62
     7
370
    25
100
AcDbLine
 10
909.7482963921
 20
536.0413261849
 30
0.0
 11
909.7482963921
 21
528.0413261849
 31
0.0
  0
LINE
  5
C1
330
1F
100
AcDbEntity
  8
0
  6
Continuous
 62
     7
370
    25
100
AcDbLine
 10
909.0303476741
 20
536.0413261849
 30
0.0
 11
909.7482963921
 21
536.0413261849
 31
0.0
  0
LINE
  5
C2
330
1F
100
AcDbEntity
  8
0
  6
Continuous
 62
     7
370
    25
100
AcDbLine
 10
909.0303476741
 20
529.7448518259
 30
0.0
 11
909.0303476741
 21
536.0413261849
 31
0.0
  0
LINE
  5
C3
330
1F
100
AcDbEntity
  8
0
  6
Continuous
 62
     7
370
    25
100
AcDbLine
 10
903.7450912638
 20
536.0413261849
 30
0.0
 11
909.0303476741
 21
529.7448518259
 31
0.0
  0
LINE
  5
C4
330
1F
100
AcDbEntity
  8
0
  6
Continuous
 62
     7
370
    25
100
AcDbLine
 10
903.5944502382
 20
536.0413261849
 30
0.0
 11
903.7450912638
 21
536.0413261849
 31
0.0
  0
LINE
  5
C5
330
1F
100
AcDbEntity
  8
0
  6
Continuous
 62
     7
370
    25
100
AcDbLine
 10
903.5944502382
 20
528.0413261849
 30
0.0
 11
903.5944502382
 21
536.0413261849
 31
0.0
  0
LINE
  5
C6
330
1F
100
AcDbEntity
  8
0
  6
Continuous
 62
     7
370
    25
100
AcDbLine
 10
904.3123989562
 20
528.0413261849
 30
0.0
 11
903.5944502382
 21
528.0413261849
 31
0.0
  0
LINE
  5
C7
330
1F
100
AcDbEntity
  8
0
  6
Continuous
 62
     7
370
    25
100
AcDbLine
 10
904.3123989562
 20
534.323377467
 30
0.0
 11
904.3123989562
 21
528.0413261849
 31
0.0
  0
SPLINE
  5
C8
330
1F
100
AcDbEntity
  8
0
  6
Continuous
 62
     7
370
    25
100
AcDbSpline
210
0.0
220
0.0
230
1.0
 70
     8
 71
     3
 72
    19
 73
    15
 74
     0
 42
0.00000001
 43
0.00000001
 40
0.0
 40
0.0
 40
0.0
 40
0.0
 40
0.096972310381516
 40
0.1877734389628654
 40
0.2723961390136916
 40
0.35132099737529
 40
0.4243347744514694
 40
0.4919087840005265
 40
0.5542332197968005
 40
0.6112676582441536
 40
0.7163478449915511
 40
0.8145400858216122
 40
0.9084954561491878
 40
0.9999999999999999
 40
0.9999999999999999
 40
0.9999999999999999
 40
0.9999999999999999
 10
913.8123989561542
 20
532.5829928515802
 30
0.0
 10
913.8992239008569
 20
532.5198126011809
 30
0.0
 10
914.0673483725792
 20
532.3974728028884
 30
0.0
 10
914.3065656980912
 20
532.2136655342545
 30
0.0
 10
914.5234658308794
 20
532.0338992060846
 30
0.0
 10
914.7188102961826
 20
531.8593218184363
 30
0.0
 10
914.894528944045
 20
531.6912576058565
 30
0.0
 10
915.0486723055874
 20
531.5276846222448
 30
0.0
 10
915.1828110035237
 20
531.3697747418281
 30
0.0
 10
915.3272206457185
 20
531.1673231402485
 30
0.0
 10
915.4747813760508
 20
530.9186806619069
 30
0.0
 10
915.6015048215964
 20
530.6140446880893
 30
0.0
 10
915.6814096157783
 20
530.3082245269534
 30
0.0
 10
915.6918587939084
 20
530.1026774721532
 30
0.0
 10
915.6970143407696
 20
530.0012620823495
 30
0.0
  0
SPLINE
  5
C9
330
1F
100
AcDbEntity
  8
0
  6
Continuous
 62
     7
370
    25
100
AcDbSpline
210
0.0
220
0.0
230
1.0
 70
     8
 71
     3
 72
    15
 73
    11
 74
     0
 42
0.00000001
 43
0.00000001
 40
0.0
 40
0.0
 40
0.0
 40
0.0
 40
0.0525942815291407
 40
0.1249519739750411
 40
0.2180938989285899
 40
0.3335024107325218
 40
0.4687891785044512
 40
0.6249375859645987
 40
0.8016830479282309
 40
1.0
 40
1.0
 40
1.0
 40
1.0
 10
912.7370784433338
 20
533.3794672105546
 30
0.0
 10
912.7545901516942
 20
533.3638397229756
 30
0.0
 10
912.7961939622928
 20
533.3267123896514
 30
0.0
 10
912.8722532211264
 20
533.2659300338944
 30
0.0
 10
912.9726939027947
 20
533.1909522686481
 30
0.0
 10
913.0948932197705
 20
533.0981812595629
 30
0.0
 10
913.2411043322894
 20
532.9905664890091
 30
0.0
 10
913.4113433177628
 20
532.8694839469205
 30
0.0
 10
913.6037125356712
 20
532.7310028977619
 30
0.0
 10
913.7402197720131
 20
532.634185662082
 30
0.0
 10
913.8123989561542
 20
532.5829928515802
 30
0.0
  0
SPLINE
  5
CA
330
1F
100
AcDbEntity
  8
0
  6
Continuous
 62
     7
370
    25
100
AcDbSpline
210
0.0
220
0.0
230
1.0
 70
     8
 71
     3
 72
    15
 73
    11
 74
     0
 42
0.00000001
 43
0.00000001
 40
0.0
 40
0.0
 40
0.0
 40
0.0
 40
0.1072852142689609
 40
0.2147458609696305
 40
0.3229385595552882
 40
0.4341161625174617
 40
0.5534123109627993
 40
0.6860729848107378
 40
0.834255992059584
 40
1.0
 40
1.0
 40
1.0
 40
1.0
 10
912.2098348535901
 20
534.4131210567084
 30
0.0
 10
912.2107334287556
 20
534.3702605343302
 30
0.0
 10
912.2125320484338
 20
534.2844694041877
 30
0.0
 10
912.2376173002884
 20
534.1577232968646
 30
0.0
 10
912.2698443379064
 20
534.0312973781934
 30
0.0
 10
912.3209132104856
 20
533.9057600460009
 30
0.0
 10
912.3914167616074
 20
533.7789157967385
 30
0.0
 10
912.4840000208219
 20
533.6485803966048
 30
0.0
 10
912.6006018769361
 20
533.513605062497
 30
0.0
 10
912.6899207623109
 20
533.425816779583
 30
0.0
 10
912.7370784433338
 20
533.3794672105546
 30
0.0
  0
SPLINE
  5
CB
330
1F
100
AcDbEntity
  8
0
  6
Continuous
 62
     7
370
    25
100
AcDbSpline
210
0.0
220
0.0
230
1.0
 70
     8
 71
     3
 72
    15
 73
    11
 74
     0
 42
0.00000001
 43
0.00000001
 40
0.0
 40
0.0
 40
0.0
 40
0.0
 40
0.1430730837303631
 40
0.2759029640930102
 40
0.4023708562739942
 40
0.5284136450935956
 40
0.6503563791869446
 40
0.7658950861246847
 40
0.8807741308440141
 40
1.0
 40
1.0
 40
1.0
 40
1.0
 10
913.3829117766671
 20
535.425941569529
 30
0.0
 10
913.3002682968831
 20
535.4231719696389
 30
0.0
 10
913.1408981313646
 20
535.417831057155
 30
0.0
 10
912.9146347345473
 20
535.3594996622027
 30
0.0
 10
912.7109914772599
 20
535.267655410075
 30
0.0
 10
912.5360141857028
 20
535.138935460142
 30
0.0
 10
912.3903296667473
 20
534.9864303340046
 30
0.0
 10
912.2849457609991
 20
534.8109358081191
 30
0.0
 10
912.2215168134514
 20
534.6171474593087
 30
0.0
 10
912.2137767456776
 20
534.4819665305506
 30
0.0
 10
912.2098348535901
 20
534.4131210567084
 30
0.0
  0
SPLINE
  5
CC
330
1F
100
AcDbEntity
  8
0
  6
Continuous
 62
     7
370
    25
100
AcDbSpline
210
0.0
220
0.0
230
1.0
 70
     8
 71
     3
 72
    19
 73
    15
 74
     0
 42
0.00000001
 43
0.00000001
 40
0.0
 40
0.0
 40
0.0
 40
0.0
 40
0.0984694310255587
 40
0.1896291011376255
 40
0.2741840894379722
 40
0.3521831609671566
 40
0.4231988731834672
 40
0.4885509460005353
 40
0.5484733460279395
 40
0.6014401636178707
 40
0.7011980824257652
 40
0.7995918021381813
 40
0.8985450984822271
 40
1.0
 40
1.0
 40
1.0
 40
1.0
 10
914.945411776667
 20
534.400300543888
 30
0.0
 10
914.9062210738732
 20
534.4507889791397
 30
0.0
 10
914.8307489434227
 20
534.548017900795
 30
0.0
 10
914.71616725917
 20
534.684180907895
 30
0.0
 10
914.6081703496379
 20
534.8085614325394
 30
0.0
 10
914.5017694358455
 20
534.9165960108938
 30
0.0
 10
914.4025839924948
 20
535.0142008870946
 30
0.0
 10
914.3063164673588
 20
535.0977660455505
 30
0.0
 10
914.2143522359592
 20
535.1681102636765
 30
0.0
 10
914.0984278687681
 20
535.2431812578689
 30
0.0
 10
913.9527873697438
 20
535.3175961231369
 30
0.0
 10
913.7699655726252
 20
535.3805654444575
 30
0.0
 10
913.5789112296882
 20
535.4184055859861
 30
0.0
 10
913.4487863577094
 20
535.4234087575696
 30
0.0
 10
913.3829117766671
 20
535.425941569529
 30
0.0
  0
LINE
  5
CD
330
1F
100
AcDbEntity
  8
0
  6
Continuous
 62
     7
370
    25
100
AcDbLine
 10
915.5944502382
 20
534.8922877234
 30
0.0
 11
914.9454117767
 21
534.4003005439
 31
0.0
  0
SPLINE
  5
CE
330
1F
100
AcDbEntity
  8
0
  6
Continuous
 62
     7
370
    25
100
AcDbSpline
210
0.0
220
0.0
230
1.0
 70
     8
 71
     3
 72
    19
 73
    15
 74
     0
 42
0.00000001
 43
0.00000001
 40
0.0
 40
0.0
 40
0.0
 40
0.0
 40
0.1072327993600889
 40
0.2132518127818489
 40
0.3188304473075891
 40
0.4267935306342766
 40
0.4836459507827207
 40
0.5436038220211424
 40
0.6083076495640835
 40
0.6771267602600435
 40
0.7506856360204976
 40
0.8287134184432855
 40
0.9121903482234494
 40
1.0
 40
1.0
 40
1.0
 40
1.0
 10
913.4630399817952
 20
536.2464543900418
 30
0.0
 10
913.5573122110478
 20
536.2432028435294
 30
0.0
 10
913.7447895864691
 20
536.2367365553018
 30
0.0
 10
914.0205592220566
 20
536.1805136265709
 30
0.0
 10
914.2860694309724
 20
536.087483519627
 30
0.0
 10
914.499654036274
 20
535.9819094442496
 30
0.0
 10
914.666814633901
 20
535.8764662083336
 30
0.0
 10
914.7942951657614
 20
535.7804208956962
 30
0.0
 10
914.9234779104165
 20
535.6698492188867
 30
0.0
 10
915.0554048928822
 20
535.5444566564163
 30
0.0
 10
915.187840685886
 20
535.4030926539257
 30
0.0
 10
915.3227514338727
 20
535.2467253649904
 30
0.0
 10
915.4604526197256
 20
535.0763103801575
 30
0.0
 10
915.5490374428659
 20
534.9546543784329
 30
0.0
 10
915.5944502382055
 20
534.8922877233751
 30
0.0
  0
SPLINE
  5
CF
330
1F
100
AcDbEntity
  8
0
  6
Continuous
 62
     7
370
    25
100
AcDbSpline
210
0.0
220
0.0
230
1.0
 70
     8
 71
     3
 72
    19
 73
    15
 74
     0
 42
0.00000001
 43
0.00000001
 40
0.0
 40
0.0
 40
0.0
 40
0.0
 40
0.0837853706537074
 40
0.1657798879221366
 40
0.2462800078932568
 40
0.3274609277363845
 40
0.4087969540320698
 40
0.4897152412309897
 40
0.5713760321300495
 40
0.6555233211112778
 40
0.7410194827999709
 40
0.8265467605037601
 40
0.9119888516548339
 40
1.0
 40
1.0
 40
1.0
 40
1.0
 10
911.4918861356414
 20
534.3794672105546
 30
0.0
 10
911.4948694704834
 20
534.464106695274
 30
0.0
 10
911.5007723734828
 20
534.6315765552396
 30
0.0
 10
911.5506935558152
 20
534.8762184533931
 30
0.0
 10
911.6294887413111
 20
535.1097874070332
 30
0.0
 10
911.7398770564233
 20
535.3299710269754
 30
0.0
 10
911.8821795773792
 20
535.5310361261485
 30
0.0
 10
912.0468560902141
 20
535.7152955249646
 30
0.0
 10
912.2429966301855
 20
535.8701951414695
 30
0.0
 10
912.458202626216
 20
536.0055369892162
 30
0.0
 10
912.6937600481193
 20
536.1114705325467
 30
0.0
 10
912.9405963987425
 20
536.1913813443421
 30
0.0
 10
913.1991039919429
 20
536.2366596476357
 30
0.0
 10
913.3741968710822
 20
536.2431573960075
 30
0.0
 10
913.4630399817952
 20
536.2464543900418
 30
0.0
  0
SPLINE
  5
D0
330
1F
100
AcDbEntity
  8
0
  6
Continuous
 62
     7
370
    25
100
AcDbSpline
210
0.0
220
0.0
230
1.0
 70
     8
 71
     3
 72
    15
 73
    11
 74
     0
 42
0.00000001
 43
0.00000001
 40
0.0
 40
0.0
 40
0.0
 40
0.0
 40
0.133506768998514
 40
0.2625589787303765
 40
0.3882644471488688
 40
0.5126673546814323
 40
0.6337222699657596
 40
0.755393860137079
 40
0.8775529450912826
 40
1.0
 40
1.0
 40
1.0
 40
1.0
 10
911.9390015202567
 20
533.161518492606
 30
0.0
 10
911.9036357025856
 20
533.2086065768441
 30
0.0
 10
911.8340840758077
 20
533.301211614032
 30
0.0
 10
911.742276063316
 20
533.4459541460724
 30
0.0
 10
911.6642436912053
 20
533.5941216098649
 30
0.0
 10
911.6030726463225
 20
533.7461121574412
 30
0.0
 10
911.551561288975
 20
533.8997919948824
 30
0.0
 10
911.5169145901915
 20
534.0571662707673
 30
0.0
 10
911.4952199686696
 20
534.2175288272576
 30
0.0
 10
911.4929982851655
 20
534.325445400109
 30
0.0
 10
911.4918861356414
 20
534.3794672105546
 30
0.0
  0
SPLINE
  5
D1
330
1F
100
AcDbEntity
  8
0
  6
Continuous
 62
     7
370
    25
100
AcDbSpline
210
0.0
220
0.0
230
1.0
 70
     8
 71
     3
 72
    15
 73
    11
 74
     0
 42
0.00000001
 43
0.00000001
 40
0.0
 40
0.0
 40
0.0
 40
0.0
 40
0.181535301376285
 40
0.3470816724816276
 40
0.4955678164315568
 40
0.6283573018772156
 40
0.745519669992158
 40
0.8458307507576566
 40
0.9307818073847598
 40
1.0
 40
1.0
 40
1.0
 40
1.0
 10
913.2498989561543
 20
532.0733774669648
 30
0.0
 10
913.1657298220307
 20
532.1333285243804
 30
0.0
 10
913.0048048469902
 20
532.2479503809401
 30
0.0
 10
912.77975665877
 20
532.418063030114
 30
0.0
 10
912.5785121718902
 20
532.5735918747813
 30
0.0
 10
912.4019658484083
 20
532.7160010453013
 30
0.0
 10
912.2501953413315
 20
532.8453098561125
 30
0.0
 10
912.122004687585
 20
532.9602765741516
 30
0.0
 10
912.0206594142237
 20
533.0640104275651
 30
0.0
 10
911.9643038012899
 20
533.1313049229826
 30
0.0
 10
911.9390015202567
 20
533.161518492606
 30
0.0
  0
SPLINE
  5
D2
330
1F
100
AcDbEntity
  8
0
  6
Continuous
 62
     7
370
    25
100
AcDbSpline
210
0.0
220
0.0
230
1.0
 70
     8
 71
     3
 72
    15
 73
    11
 74
     0
 42
0.00000001
 43
0.00000001
 40
0.0
 40
0.0
 40
0.0
 40
0.0
 40
0.0902792146500098
 40
0.1895299184469504
 40
0.2991978724002808
 40
0.418925886773816
 40
0.5483762854012455
 40
0.6881363695386796
 40
0.8390835016589229
 40
0.9999999999999999
 40
0.9999999999999999
 40
0.9999999999999999
 40
0.9999999999999999
 10
914.6922066484619
 20
530.7977364413239
 30
0.0
 10
914.6563881017635
 20
530.8435577524172
 30
0.0
 10
914.5811915433865
 20
530.9397538634304
 30
0.0
 10
914.4519172288881
 20
531.0829429730884
 30
0.0
 10
914.3002232533329
 20
531.2306422164074
 30
0.0
 10
914.1313008421063
 20
531.3884914894346
 30
0.0
 10
913.938996639042
 20
531.5491493104357
 30
0.0
 10
913.7293337489776
 20
531.7202768028677
 30
0.0
 10
913.4969592141979
 20
531.8953661218316
 30
0.0
 10
913.3339889362139
 20
532.0127891287951
 30
0.0
 10
913.2498989561543
 20
532.0733774669648
 30
0.0
  0
SPLINE
  5
D3
330
1F
100
AcDbEntity
  8
0
  6
Continuous
 62
     7
370
    25
100
AcDbSpline
210
0.0
220
0.0
230
1.0
 70
     8
 71
     3
 72
    11
 73
     7
 74
     0
 42
0.00000001
 43
0.00000001
 40
0.0
 40
0.0
 40
0.0
 40
0.0
 40
0.2347233736739031
 40
0.4771583189289884
 40
0.7285562842030407
 40
1.0
 40
1.0
 40
1.0
 40
1.0
 10
914.9790656228208
 20
530.0124800310674
 30
0.0
 10
914.9756957697939
 20
530.0790876875417
 30
0.0
 10
914.9688453510213
 20
530.2144913198837
 30
0.0
 10
914.9109448251413
 20
530.414261955207
 30
0.0
 10
914.8198608323563
 20
530.6119592581197
 30
0.0
 10
914.7358319324593
 20
530.7342478651545
 30
0.0
 10
914.6922066484619
 20
530.7977364413239
 30
0.0
  0
SPLINE
  5
D4
330
1F
100
AcDbEntity
  8
0
  6
Continuous
 62
     7
370
    25
100
AcDbSpline
210
0.0
220
0.0
230
1.0
 70
     8
 71
     3
 72
    19
 73
    15
 74
     0
 42
0.00000001
 43
0.00000001
 40
0.0
 40
0.0
 40
0.0
 40
0.0
 40
0.0912636048966266
 40
0.1809303110850801
 40
0.2700882198317224
 40
0.3601561333877252
 40
0.4483425324981529
 40
0.5326658421383297
 40
0.6138337041070457
 40
0.6939815272835564
 40
0.772715977089002
 40
0.8493351720622502
 40
0.9239673265752378
 40
1.0
 40
1.0
 40
1.0
 40
1.0
 10
913.4117579305132
 20
528.6567108002982
 30
0.0
 10
913.481899325968
 20
528.658664337469
 30
0.0
 10
913.6209548072188
 20
528.662537229499
 30
0.0
 10
913.8256685054157
 20
528.699750491326
 30
0.0
 10
914.0244840534524
 20
528.7569210716998
 30
0.0
 10
914.2133037968365
 20
528.8387974865763
 30
0.0
 10
914.3895223443371
 20
528.9378568825191
 30
0.0
 10
914.544051933678
 20
529.05750528825
 30
0.0
 10
914.6776430495169
 20
529.1914623298813
 30
0.0
 10
914.7869210256703
 20
529.3409083976344
 30
0.0
 10
914.8707611063294
 20
529.5016333087367
 30
0.0
 10
914.9352001198453
 20
529.6666069117957
 30
0.0
 10
914.9709602882028
 20
529.8384207821478
 30
0.0
 10
914.9763471532466
 20
529.9541018400855
 30
0.0
 10
914.9790656228209
 20
530.0124800310675
 30
0.0
  0
SPLINE
  5
D5
330
1F
100
AcDbEntity
  8
0
  6
Continuous
 62
     7
370
    25
100
AcDbSpline
210
0.0
220
0.0
230
1.0
 70
     8
 71
     3
 72
    15
 73
    11
 74
     0
 42
0.00000001
 43
0.00000001
 40
0.0
 40
0.0
 40
0.0
 40
0.0
 40
0.1590042985173756
 40
0.3046460998968115
 40
0.4385469045795892
 40
0.5623222987759278
 40
0.6774325425257337
 40
0.786897392938754
 40
0.8936108891042673
 40
1.0
 40
1.0
 40
1.0
 40
1.0
 10
911.6553476741029
 20
529.9900441336316
 30
0.0
 10
911.7182465021042
 20
529.8847541108953
 30
0.0
 10
911.8387582292544
 20
529.683022490532
 30
0.0
 10
912.0397899073173
 20
529.4104326838377
 30
0.0
 10
912.248093704268
 20
529.1787477541028
 30
0.0
 10
912.4652121809524
 20
528.9893155082974
 30
0.0
 10
912.689820062375
 20
528.8401751957315
 30
0.0
 10
912.9233836137731
 20
528.7345700946605
 30
0.0
 10
913.1651157525421
 20
528.6687050080975
 30
0.0
 10
913.3296273444951
 20
528.6607048102583
 30
0.0
 10
913.4117579305132
 20
528.6567108002982
 30
0.0
  0
LINE
  5
D6
330
1F
100
AcDbEntity
  8
0
  6
Continuous
 62
     7
370
    25
100
AcDbLine
 10
910.9790656228
 20
529.5845954157
 30
0.0
 11
911.6553476741
 21
529.9900441336
 31
0.0
  0
SPLINE
  5
D7
330
1F
100
AcDbEntity
  8
0
  6
Continuous
 62
     7
370
    25
100
AcDbSpline
210
0.0
220
0.0
230
1.0
 70
     8
 71
     3
 72
    23
 73
    19
 74
     0
 42
0.00000001
 43
0.00000001
 40
0.0
 40
0.0
 40
0.0
 40
0.0
 40
0.0572082694335105
 40
0.1136960596574917
 40
0.1691779164171958
 40
0.2241592165805442
 40
0.2787198783810447
 40
0.3337942174469903
 40
0.3892414593400034
 40
0.4458220733936248
 40
0.5037042811090244
 40
0.5642938918193646
 40
0.6279754158952295
 40
0.695038259684056
 40
0.7653727258510138
 40
0.8396114430907409
 40
0.9175377500777949
 40
1.0
 40
1.0
 40
1.0
 40
1.0
 10
913.4117579305132
 20
527.8361979797854
 30
0.0
 10
913.3513342894138
 20
527.8373663948652
 30
0.0
 10
913.2312479807177
 20
527.8396885100407
 30
0.0
 10
913.0536263078648
 20
527.8602171510056
 30
0.0
 10
912.8795929611264
 20
527.8892619592142
 30
0.0
 10
912.7113317450484
 20
527.9353741191615
 30
0.0
 10
912.546674804153
 20
527.9913214952576
 30
0.0
 10
912.3863382680937
 20
528.0602091126249
 30
0.0
 10
912.2302444307088
 20
528.1427627159331
 30
0.0
 10
912.0775185270097
 20
528.2371513436558
 30
0.0
 10
911.9285489850986
 20
528.3469976169439
 30
0.0
 10
911.7847330584041
 20
528.4749370373742
 30
0.0
 10
911.6413520629451
 20
528.6174410487828
 30
0.0
 10
911.5026380142101
 20
528.7783794793239
 30
0.0
 10
911.3657851129396
 20
528.9551522401416
 30
0.0
 10
911.2334916054276
 20
529.1494132307644
 30
0.0
 10
911.1030191078756
 20
529.3601043250706
 30
0.0
 10
911.0211551814132
 20
529.5083673781444
 30
0.0
 10
910.9790656228209
 20
529.5845954156828
 30
0.0
  0
SPLINE
  5
D8
330
1F
100
AcDbEntity
  8
0
  6
Continuous
 62
     7
370
    25
100
AcDbSpline
210
0.0
220
0.0
230
1.0
 70
     8
 71
     3
 72
    23
 73
    19
 74
     0
 42
0.00000001
 43
0.00000001
 40
0.0
 40
0.0
 40
0.0
 40
0.0
 40
0.0614842551968869
 40
0.1217745277022083
 40
0.18091955981393
 40
0.2402561150782737
 40
0.3001144444023488
 40
0.3611459476126103
 40
0.4235005824125889
 40
0.4886693612807199
 40
0.5539541046535633
 40
0.6175812610152613
 40
0.6802384268167395
 40
0.7421873887724543
 40
0.8046632117692945
 40
0.868258989312663
 40
0.9330202571803767
 40
1.0
 40
1.0
 40
1.0
 40
1.0
 10
915.6970143407696
 20
530.0012620823495
 30
0.0
 10
915.695512310772
 20
529.9295401049882
 30
0.0
 10
915.6925374191844
 20
529.7874889426039
 30
0.0
 10
915.6583410448333
 20
529.5789059097307
 30
0.0
 10
915.6082389530332
 20
529.3763210647386
 30
0.0
 10
915.5327252754319
 20
529.1822385220071
 30
0.0
 10
915.4405580565522
 20
528.9931076358736
 30
0.0
 10
915.3236066328583
 20
528.8138895777915
 30
0.0
 10
915.1880462106008
 20
528.6406178095926
 30
0.0
 10
915.0325404622479
 20
528.4779126864952
 30
0.0
 10
914.8623783998102
 20
528.3285499528143
 30
0.0
 10
914.6825299548666
 20
528.1956835265916
 30
0.0
 10
914.4927007595885
 20
528.0848987874022
 30
0.0
 10
914.2939206071698
 20
527.9944968627167
 30
0.0
 10
914.0861438375535
 20
527.9237916797994
 30
0.0
 10
913.8694403316462
 20
527.8725622646433
 30
0.0
 10
913.64345287743
 20
527.841120639698
 30
0.0
 10
913.489851776693
 20
527.8378571849219
 30
0.0
 10
913.4117579305132
 20
527.8361979797854
 30
0.0
  0
LINE
  5
D9
330
1F
100
AcDbEntity
  8
0
  6
Continuous
 62
     7
370
    25
100
AcDbLine
 10
918.0559886997
 20
536.0413261849
 30
0.0
 11
918.0559886997
 21
528.0413261849
 31
0.0
  0
LINE
  5
DA
330
1F
100
AcDbEntity
  8
0
  6
Continuous
 62
     7
370
    25
100
AcDbLine
 10
917.3380399818
 20
536.0413261849
 30
0.0
 11
918.0559886997
 21
536.0413261849
 31
0.0
  0
LINE
  5
DB
330
1F
100
AcDbEntity
  8
0
  6
Continuous
 62
     7
370
    25
100
AcDbLine
 10
917.3380399818
 20
528.0413261849
 30
0.0
 11
917.3380399818
 21
536.0413261849
 31
0.0
  0
LINE
  5
DC
330
1F
100
AcDbEntity
  8
0
  6
Continuous
 62
     7
370
    25
100
AcDbLine
 10
918.0559886997
 20
528.0413261849
 30
0.0
 11
917.3380399818
 21
528.0413261849
 31
0.0
  0
LINE
  5
DD
330
1F
100
AcDbEntity
  8
0
  6
Continuous
 62
     7
370
    25
100
AcDbLine
 10
862.6713733151
 20
542.3746595182
 30
0.0
 11
862.6713733151
 21
549.5541466977
 31
0.0
  0
LINE
  5
DE
330
1F
100
AcDbEntity
  8
0
  6
Continuous
 62
     7
370
    25
100
AcDbLine
 10
863.3893220331
 20
542.3746595182
 30
0.0
 11
862.6713733151
 21
542.3746595182
 31
0.0
  0
LINE
  5
DF
330
1F
100
AcDbEntity
  8
0
  6
Continuous
 62
     7
370
    25
100
AcDbLine
 10
863.3893220331
 20
550.3746595182
 30
0.0
 11
863.3893220331
 21
542.3746595182
 31
0.0
  0
LINE
  5
E0
330
1F
100
AcDbEntity
  8
0
  6
Continuous
 62
     7
370
    25
100
AcDbLine
 10
861.9101553664
 20
550.3746595182
 30
0.0
 11
863.3893220331
 21
550.3746595182
 31
0.0
  0
LINE
  5
E1
330
1F
100
AcDbEntity
  8
0
  6
Continuous
 62
     7
370
    25
100
AcDbLine
 10
861.4406040844
 20
549.5541466977
 30
0.0
 11
861.9101553664
 21
550.3746595182
 31
0.0
  0
LINE
  5
E2
330
1F
100
AcDbEntity
  8
0
  6
Continuous
 62
     7
370
    25
100
AcDbLine
 10
862.6713733151
 20
549.5541466977
 30
0.0
 11
861.4406040844
 21
549.5541466977
 31
0.0
  0
ARC
  5
E3
330
1F
100
AcDbEntity
  8
0
  6
Continuous
 62
     7
370
    25
100
AcDbCircle
 10
854.7638876862
 20
512.1153280681
 30
0.0
 40
5.000000000000057
100
AcDbArc
 50
180.0
 51
270.0
  0
LINE
  5
E4
330
1F
100
AcDbEntity
  8
0
  6
Continuous
 62
     7
370
    25
100
AcDbLine
 10
849.7638876862
 20
573.3361074545
 30
0.0
 11
849.7638876862
 21
512.1153280681
 31
0.0
  0
ARC
  5
E5
330
1F
100
AcDbEntity
  8
0
  6
Continuous
 62
     7
370
    25
100
AcDbCircle
 10
844.7638876862
 20
573.3361074545
 30
0.0
 40
5.0
100
AcDbArc
 50
0.0
 51
50.4788036414
  0
ARC
  5
E6
330
1F
100
AcDbEntity
  8
0
  6
Continuous
 62
     7
370
    25
100
AcDbCircle
 10
949.7638876862
 20
700.6153280681
 30
0.0
 40
160.0000000000002
100
AcDbArc
 50
309.5211963586
 51
230.4788036414
  0
ARC
  5
E7
330
1F
100
AcDbEntity
  8
0
  6
Continuous
 62
     7
370
    25
100
AcDbCircle
 10
1054.7638876862
 20
573.3361074545
 30
0.0
 40
5.0
100
AcDbArc
 50
129.5211963586
 51
180.0
  0
LINE
  5
E8
330
1F
100
AcDbEntity
  8
0
  6
Continuous
 62
     7
370
    25
100
AcDbLine
 10
1049.7638876862
 20
512.1153280681
 30
0.0
 11
1049.7638876862
 21
573.3361074545
 31
0.0
  0
ARC
  5
E9
330
1F
100
AcDbEntity
  8
0
  6
Continuous
 62
     7
370
    25
100
AcDbCircle
 10
1044.7638876862
 20
512.1153280681
 30
0.0
 40
5.000000000000057
100
AcDbArc
 50
270.0
 51
0.0
  0
LINE
  5
EA
330
1F
100
AcDbEntity
  8
0
  6
Continuous
 62
     7
370
    25
100
AcDbLine
 10
854.7638876862
 20
507.1153280681
 30
0.0
 11
1044.7638876862
 21
507.1153280681
 31
0.0
  0
CIRCLE
  5
EB
330
1F
100
AcDbEntity
  8
0
  6
Continuous
 62
     7
370
    25
100
AcDbCircle
 10
984.6915178227
 20
830.9670183258
 30
0.0
 40
11.10000000000002
  0
CIRCLE
  5
EC
330
1F
100
AcDbEntity
  8
0
  6
Continuous
 62
     7
370
    25
100
AcDbCircle
 10
854.339827565
 20
796.0393881892
 30
0.0
 40
11.10000000000016
  0
CIRCLE
  5
ED
330
1F
100
AcDbEntity
  8
0
  6
Continuous
 62
     7
370
    25
100
AcDbCircle
 10
819.4121974284
 20
735.5429582046
 30
0.0
 40
11.09999999999991
  0
CIRCLE
  5
EE
330
1F
100
AcDbEntity
  8
0
  6
Continuous
 62
     7
370
    25
100
AcDbCircle
 10
819.4121974284
 20
665.6876979315
 30
0.0
 40
11.10000000000002
  0
CIRCLE
  5
EF
330
1F
100
AcDbEntity
  8
0
  6
Continuous
 62
     7
370
    25
100
AcDbCircle
 10
854.339827565
 20
605.1912679469
 30
0.0
 40
11.09999999999996
  0
CIRCLE
  5
F0
330
1F
100
AcDbEntity
  8
0
  6
Continuous
 62
     7
370
    25
100
AcDbCircle
 10
914.8362575496
 20
570.2636378103
 30
0.0
 40
11.10000000000002
  0
CIRCLE
  5
F1
330
1F
100
AcDbEntity
  8
0
  6
Continuous
 62
     7
370
    25
100
AcDbCircle
 10
984.6915178227
 20
570.2636378103
 30
0.0
 40
11.10000000000008
  0
CIRCLE
  5
F2
330
1F
100
AcDbEntity
  8
0
  6
Continuous
 62
     7
370
    25
100
AcDbCircle
 10
1045.1879478073
 20
605.1912679469
 30
0.0
 40
11.10000000000006
  0
CIRCLE
  5
F3
330
1F
100
AcDbEntity
  8
0
  6
Continuous
 62
     7
370
    25
100
AcDbCircle
 10
1080.1155779439
 20
665.6876979315
 30
0.0
 40
11.10000000000002
  0
CIRCLE
  5
F4
330
1F
100
AcDbEntity
  8
0
  6
Continuous
 62
     7
370
    25
100
AcDbCircle
 10
1080.1155779439
 20
735.5429582046
 30
0.0
 40
11.09999999999998
  0
CIRCLE
  5
F5
330
1F
100
AcDbEntity
  8
0
  6
Continuous
 62
     7
370
    25
100
AcDbCircle
 10
1045.1879478073
 20
796.0393881892
 30
0.0
 40
11.1
  0
CIRCLE
  5
F6
330
1F
100
AcDbEntity
  8
0
  6
Continuous
 62
     7
370
    25
100
AcDbCircle
 10
914.8362575496
 20
830.9670183258
 30
0.0
 40
11.09999999999996
  0
CIRCLE
  5
F7
330
1F
100
AcDbEntity
  8
0
  6
Continuous
 62
     7
370
    25
100
AcDbCircle
 10
949.7638876862
 20
700.6153280681
 30
0.0
 40
98.69999999999982
  0
LINE
  5
F8
330
1F
100
AcDbEntity
  8
0
  6
Continuous
 62
     7
370
    25
100
AcDbLine
 10
895.3524630587
 20
528.0413261849
 30
0.0
 11
894.5688092126
 21
528.0413261849
 31
0.0
  0
LINE
  5
F9
330
1F
100
AcDbEntity
  8
0
  6
Continuous
 62
     7
370
    25
100
AcDbLine
 10
896.5688092126
 20
530.605428749
 30
0.0
 11
895.3524630587
 21
528.0413261849
 31
0.0
  0
LINE
  5
FA
330
1F
100
AcDbEntity
  8
0
  6
Continuous
 62
     7
370
    25
100
AcDbLine
 10
900.1954117767
 20
530.605428749
 30
0.0
 11
896.5688092126
 21
530.605428749
 31
0.0
  0
LINE
  5
FB
330
1F
100
AcDbEntity
  8
0
  6
Continuous
 62
     7
370
    25
100
AcDbLine
 10
901.3781040844
 20
528.0413261849
 30
0.0
 11
900.1954117767
 21
530.605428749
 31
0.0
  0
LINE
  5
FC
330
1F
100
AcDbEntity
  8
0
  6
Continuous
 62
     7
370
    25
100
AcDbLine
 10
902.1585528023
 20
528.0413261849
 30
0.0
 11
901.3781040844
 21
528.0413261849
 31
0.0
  0
LINE
  5
FD
330
1F
100
AcDbEntity
  8
0
  6
Continuous
 62
     7
370
    25
100
AcDbLine
 10
898.46624511
 20
536.0413261849
 30
0.0
 11
902.1585528023
 21
528.0413261849
 31
0.0
  0
LINE
  5
FE
330
1F
100
AcDbEntity
  8
0
  6
Continuous
 62
     7
370
    25
100
AcDbLine
 10
898.3636810074
 20
536.0413261849
 30
0.0
 11
898.46624511
 21
536.0413261849
 31
0.0
  0
LINE
  5
FF
330
1F
100
AcDbEntity
  8
0
  6
Continuous
 62
     7
370
    25
100
AcDbLine
 10
894.5688092126
 20
528.0413261849
 30
0.0
 11
898.3636810074
 21
536.0413261849
 31
0.0
  0
SPLINE
  5
100
330
1F
100
AcDbEntity
  8
0
  6
Continuous
 62
     7
370
    25
100
AcDbSpline
210
0.0
220
0.0
230
1.0
 70
     8
 71
     3
 72
    31
 73
    27
 74
     0
 42
0.00000001
 43
0.00000001
 40
0.0
 40
0.0
 40
0.0
 40
0.0
 40
0.03378811616271
 40
0.0671939323738809
 40
0.0998624108568261
 40
0.1325666121262579
 40
0.1651511732547866
 40
0.1979131873557937
 40
0.2313190035669632
 40
0.2650832782673765
 40
0.2992553087581146
 40
0.33439856650498
 40
0.3699428235093098
 40
0.4062835607000636
 40
0.4440638196985083
 40
0.4829977068727755
 40
0.5233544466133035
 40
0.565536589604149
 40
0.6096129240658222
 40
0.6563908113764184
 40
0.7058854949364578
 40
0.7583245002617308
 40
0.8138317829411496
 40
0.8727945590393935
 40
0.9347222295400731
 40
1.0
 40
1.0
 40
1.0
 40
1.0
 10
875.1922066484618
 20
536.2464543900418
 30
0.0
 10
875.2558305992833
 20
536.245339383926
 30
0.0
 10
875.3823586196162
 20
536.2431219875734
 30
0.0
 10
875.5694223344641
 20
536.2218101189229
 30
0.0
 10
875.7521644640974
 20
536.186447551844
 30
0.0
 10
875.929805923991
 20
536.1363424670838
 30
0.0
 10
876.1038058930603
 20
536.0741809204337
 30
0.0
 10
876.2728033962503
 20
535.9962675098984
 30
0.0
 10
876.4378481542893
 20
535.9055729559682
 30
0.0
 10
876.5963173829062
 20
535.799004093553
 30
0.0
 10
876.7499507894116
 20
535.6801874622462
 30
0.0
 10
876.8949747047762
 20
535.5458727906956
 30
0.0
 10
877.0314023296849
 20
535.3974162895101
 30
0.0
 10
877.1609458848534
 20
535.2364063149122
 30
0.0
 10
877.2799301070231
 20
535.0597546924354
 30
0.0
 10
877.3932408092755
 20
534.8705338700031
 30
0.0
 10
877.4946626056221
 20
534.6654347504744
 30
0.0
 10
877.5923418631733
 20
534.4478793954091
 30
0.0
 10
877.67665497572
 20
534.2118481752796
 30
0.0
 10
877.752692107771
 20
533.9586715798097
 30
0.0
 10
877.8141297502281
 20
533.6853591527163
 30
0.0
 10
877.8653052298581
 20
533.3933448777561
 30
0.0
 10
877.9049507063053
 20
533.0815563446358
 30
0.0
 10
877.9338253167705
 20
532.7506619091803
 30
0.0
 10
877.9490780825793
 20
532.40044387343
 30
0.0
 10
877.9519505424802
 20
532.160997361025
 30
0.0
 10
877.9534245971798
 20
532.0381210567084
 30
0.0
  0
SPLINE
  5
101
330
1F
100
AcDbEntity
  8
0
  6
Continuous
 62
     7
370
    25
100
AcDbSpline
210
0.0
220
0.0
230
1.0
 70
     8
 71
     3
 72
    31
 73
    27
 74
     0
 42
0.00000001
 43
0.00000001
 40
0.0
 40
0.0
 40
0.0
 40
0.0
 40
0.0685946222587404
 40
0.1332460424432979
 40
0.1943125864682528
 40
0.2512792231169641
 40
0.3045134392563476
 40
0.3542349066533242
 40
0.4004805887739885
 40
0.4434107549384929
 40
0.4840148686163465
 40
0.5232523007732008
 40
0.5610423727283619
 40
0.597900239364401
 40
0.6335184888561929
 40
0.6683143511696521
 40
0.7024956712863822
 40
0.7366853535134592
 40
0.7702931693607878
 40
0.803437255019249
 40
0.8359129516660294
 40
0.8684602457892905
 40
0.9008465382431826
 40
0.9334665246307086
 40
0.9662575752981225
 40
0.9999999999999999
 40
0.9999999999999999
 40
0.9999999999999999
 40
0.9999999999999999
 10
872.5175271612824
 20
532.0381210567084
 30
0.0
 10
872.5182769170709
 20
532.1663436572439
 30
0.0
 10
872.5197333284968
 20
532.4154179069525
 30
0.0
 10
872.5359354335077
 20
532.7783542316764
 30
0.0
 10
872.5628505016521
 20
533.1188348922369
 30
0.0
 10
872.5997359253098
 20
533.436876186039
 30
0.0
 10
872.6446227372495
 20
533.7325602192225
 30
0.0
 10
872.7045438494811
 20
534.0050968069623
 30
0.0
 10
872.7726873983153
 20
534.2557473363637
 30
0.0
 10
872.8516644173106
 20
534.4853291614519
 30
0.0
 10
872.9407793636383
 20
534.6969353397881
 30
0.0
 10
873.0377719595746
 20
534.8944786570311
 30
0.0
 10
873.1464914896856
 20
535.0776602166649
 30
0.0
 10
873.2607244335189
 20
535.2494037376248
 30
0.0
 10
873.3850948829539
 20
535.40689789715
 30
0.0
 10
873.5160635468791
 20
535.5523668400496
 30
0.0
 10
873.6587421212039
 20
535.6824485553954
 30
0.0
 10
873.8082804258289
 20
535.8009543894184
 30
0.0
 10
873.9660323444386
 20
535.9048388960972
 30
0.0
 10
874.1275012956231
 20
535.9963422986475
 30
0.0
 10
874.2937986804367
 20
536.0745134238077
 30
0.0
 10
874.4653785270605
 20
536.1359772772009
 30
0.0
 10
874.6406986593797
 20
536.1867449269669
 30
0.0
 10
874.8203719546741
 20
536.2214625215877
 30
0.0
 10
875.0046950722428
 20
536.2433068838492
 30
0.0
 10
875.129109780353
 20
536.2453952672553
 30
0.0
 10
875.1922066484618
 20
536.2464543900418
 30
0.0
  0
SPLINE
  5
102
330
1F
100
AcDbEntity
  8
0
  6
Continuous
 62
     7
370
    25
100
AcDbSpline
210
0.0
220
0.0
230
1.0
 70
     8
 71
     3
 72
    31
 73
    27
 74
     0
 42
0.00000001
 43
0.00000001
 40
0.0
 40
0.0
 40
0.0
 40
0.0
 40
0.0337871463469914
 40
0.0666216577242928
 40
0.0992848780959719
 40
0.1313611650426514
 40
0.1635851875953439
 40
0.1961039269870672
 40
0.2289022543238159
 40
0.2621580559050083
 40
0.2959912222583154
 40
0.3302178457247986
 40
0.3650598258919543
 40
0.4009507373401091
 40
0.437620382076739
 40
0.4757075294370908
 40
0.5153806916250478
 40
0.5564135414931631
 40
0.5997648298727302
 40
0.6464241555840855
 40
0.6964314445175633
 40
0.7497815178015563
 40
0.8065733069755333
 40
0.8674355315654007
 40
0.9318867532508699
 40
1.0
 40
1.0
 40
1.0
 40
1.0
 10
875.1922066484618
 20
527.8361979797854
 30
0.0
 10
875.1291115307813
 20
527.8372639351198
 30
0.0
 10
875.0047002741744
 20
527.8393657909768
 30
0.0
 10
874.82035187317
 20
527.8611114629498
 30
0.0
 10
874.6414205738787
 20
527.8960726131494
 30
0.0
 10
874.4670234217928
 20
527.9450248510719
 30
0.0
 10
874.29626567303
 20
528.0049444769357
 30
0.0
 10
874.1314741606739
 20
528.0830100394568
 30
0.0
 10
873.9708165979524
 20
528.1729164827848
 30
0.0
 10
873.8147216127682
 20
528.275306017501
 30
0.0
 10
873.6661223875343
 20
528.3926127217943
 30
0.0
 10
873.5241827182455
 20
528.5223596673635
 30
0.0
 10
873.392468388881
 20
528.6677846074718
 30
0.0
 10
873.2698761703272
 20
528.826591288861
 30
0.0
 10
873.1533639687369
 20
528.9973186999072
 30
0.0
 10
873.0461882582929
 20
529.1822978382968
 30
0.0
 10
872.947054877566
 20
529.3807952337016
 30
0.0
 10
872.8564411846093
 20
529.5940933152445
 30
0.0
 10
872.7761013822894
 20
529.8253045789241
 30
0.0
 10
872.7051351923159
 20
530.0770741297869
 30
0.0
 10
872.6491028323843
 20
530.3516241551904
 30
0.0
 10
872.6011417916235
 20
530.6467495657171
 30
0.0
 10
872.5624574875241
 20
530.9637185494562
 30
0.0
 10
872.5360476010819
 20
531.3027031853119
 30
0.0
 10
872.519724595286
 20
531.663492234286
 30
0.0
 10
872.5182730057544
 20
531.9109660041526
 30
0.0
 10
872.5175271612824
 20
532.0381210567084
 30
0.0
  0
SPLINE
  5
103
330
1F
100
AcDbEntity
  8
0
  6
Continuous
 62
     7
370
    25
100
AcDbSpline
210
0.0
220
0.0
230
1.0
 70
     8
 71
     3
 72
    31
 73
    27
 74
     0
 42
0.00000001
 43
0.00000001
 40
0.0
 40
0.0
 40
0.0
 40
0.0
 40
0.0650632896172805
 40
0.1267731664665252
 40
0.1855157632260813
 40
0.2407646791677175
 40
0.2929797960236004
 40
0.3422503727797696
 40
0.3889192861856605
 40
0.4327756640583094
 40
0.4746284326311184
 40
0.5147746906379527
 40
0.5536058934984418
 40
0.5914264064311738
 40
0.6280281199460679
 40
0.6638036341103226
 40
0.6989843361316641
 40
0.7335914893067059
 40
0.7676284691511412
 40
0.8012083477865907
 40
0.8342638397266224
 40
0.8669806947287757
 40
0.8997197415181609
 40
0.9327019124985377
 40
0.9661758834327501
 40
1.0
 40
1.0
 40
1.0
 40
1.0
 10
877.9534245971798
 20
532.0381210567084
 30
0.0
 10
877.9519352610794
 20
531.9157806957006
 30
0.0
 10
877.9490333504247
 20
531.677405491452
 30
0.0
 10
877.9339963063842
 20
531.3287632621497
 30
0.0
 10
877.9043765779757
 20
530.9996248774671
 30
0.0
 10
877.867325176127
 20
530.6892009632758
 30
0.0
 10
877.8160086893305
 20
530.3987835488005
 30
0.0
 10
877.7529111664704
 20
530.127367666588
 30
0.0
 10
877.6828532857351
 20
529.8737812170671
 30
0.0
 10
877.5963737563411
 20
529.640101647673
 30
0.0
 10
877.501720704119
 20
529.4230691382678
 30
0.0
 10
877.3987373985752
 20
529.220401370657
 30
0.0
 10
877.2884063675223
 20
529.0303069873892
 30
0.0
 10
877.168203521801
 20
528.8543075658323
 30
0.0
 10
877.0400814344949
 20
528.6911563496657
 30
0.0
 10
876.9012979172538
 20
528.5437332121766
 30
0.0
 10
876.7557651513064
 20
528.4084859619751
 30
0.0
 10
876.6016796294001
 20
528.2881393849186
 30
0.0
 10
876.4407389408696
 20
528.182802688607
 30
0.0
 10
876.2762610507555
 20
528.0885996020063
 30
0.0
 10
876.1053276031047
 20
528.012639156178
 30
0.0
 10
875.9318122825802
 20
527.9474162053716
 30
0.0
 10
875.7532331600315
 20
527.8975866010605
 30
0.0
 10
875.5698128384557
 20
527.8631320741563
 30
0.0
 10
875.3824842991902
 20
527.8389678491169
 30
0.0
 10
875.255852150433
 20
527.8371244665448
 30
0.0
 10
875.1922066484618
 20
527.8361979797854
 30
0.0
  0
SPLINE
  5
104
330
1F
100
AcDbEntity
  8
0
  6
Continuous
 62
     7
370
    25
100
AcDbSpline
210
0.0
220
0.0
230
1.0
 70
     8
 71
     3
 72
    23
 73
    19
 74
     0
 42
0.00000001
 43
0.00000001
 40
0.0
 40
0.0
 40
0.0
 40
0.0
 40
0.0611602766365147
 40
0.1203345577262036
 40
0.1781802550631231
 40
0.2352351259863655
 40
0.2926829614441774
 40
0.3511862482150772
 40
0.410456609509692
 40
0.4717198544629945
 40
0.5337612027725914
 40
0.5957390238870951
 40
0.6578875151248846
 40
0.7212951802914611
 40
0.7868225145418908
 40
0.8546861538286853
 40
0.9254779862699962
 40
1.0
 40
1.0
 40
1.0
 40
1.0
 10
892.3123989561542
 20
544.6454928515802
 30
0.0
 10
892.3101661652437
 20
544.5673971438731
 30
0.0
 10
892.3057730865743
 20
544.4137416510586
 30
0.0
 10
892.2733617224675
 20
544.188015629229
 30
0.0
 10
892.2184837636311
 20
543.9723014655424
 30
0.0
 10
892.1428925719405
 20
543.7652039050756
 30
0.0
 10
892.0442358528585
 20
543.567123597714
 30
0.0
 10
891.9241719343867
 20
543.3778361371735
 30
0.0
 10
891.7810140746774
 20
543.1992433814864
 30
0.0
 10
891.6208703742158
 20
543.029360814394
 30
0.0
 10
891.439699755956
 20
542.8766115861887
 30
0.0
 10
891.2442351732759
 20
542.7405756852029
 30
0.0
 10
891.032015013519
 20
542.6286989717961
 30
0.0
 10
890.8065247414813
 20
542.5347194940753
 30
0.0
 10
890.5652348760774
 20
542.4629316118694
 30
0.0
 10
890.3092289163978
 20
542.4127085858139
 30
0.0
 10
890.0387276550607
 20
542.3788685012456
 30
0.0
 10
889.8531053668058
 20
542.3760863186286
 30
0.0
 10
889.7579117766671
 20
542.374659518247
 30
0.0
  0
SPLINE
  5
105
330
1F
100
AcDbEntity
  8
0
  6
Continuous
 62
     7
370
    25
100
AcDbSpline
210
0.0
220
0.0
230
1.0
 70
     8
 71
     3
 72
    19
 73
    15
 74
     0
 42
0.00000001
 43
0.00000001
 40
0.0
 40
0.0
 40
0.0
 40
0.0
 40
0.1060574933033945
 40
0.2029142570846077
 40
0.2903001653958374
 40
0.3702225656250404
 40
0.4463837207709712
 40
0.5213968999648269
 40
0.5982910828464566
 40
0.6761424688569259
 40
0.755528699556025
 40
0.834887172457659
 40
0.9166460487466404
 40
1.0
 40
1.0
 40
1.0
 40
1.0
 10
890.7723348535901
 20
546.690364646452
 30
0.0
 10
890.8632158309497
 20
546.655473220302
 30
0.0
 10
891.037093653531
 20
546.588717278828
 30
0.0
 10
891.2763759676612
 20
546.4706933611204
 30
0.0
 10
891.4825356133666
 20
546.3423228230829
 30
0.0
 10
891.6571576613328
 20
546.2021357370404
 30
0.0
 10
891.8065008725708
 20
546.0510298838058
 30
0.0
 10
891.9369075961661
 20
545.8867896226667
 30
0.0
 10
892.0481793085338
 20
545.707272461804
 30
0.0
 10
892.1435231338266
 20
545.5143500952614
 30
0.0
 10
892.2179202904579
 20
545.3099924533028
 30
0.0
 10
892.273636643303
 20
545.0961163936516
 30
0.0
 10
892.3055622413277
 20
544.8734888389217
 30
0.0
 10
892.3101054213922
 20
544.7219794004336
 30
0.0
 10
892.3123989561542
 20
544.6454928515802
 30
0.0
  0
SPLINE
  5
106
330
1F
100
AcDbEntity
  8
0
  6
Continuous
 62
     7
370
    25
100
AcDbSpline
210
0.0
220
0.0
230
1.0
 70
     8
 71
     3
 72
    15
 73
    11
 74
     0
 42
0.00000001
 43
0.00000001
 40
0.0
 40
0.0
 40
0.0
 40
0.0
 40
0.1305691070873164
 40
0.2565806086940852
 40
0.380551616803685
 40
0.5036229172007113
 40
0.6257393231697903
 40
0.7475485819596253
 40
0.8717661185648707
 40
1.0
 40
1.0
 40
1.0
 40
1.0
 10
891.6970143407697
 20
548.3922877233751
 30
0.0
 10
891.694515555758
 20
548.3039390246827
 30
0.0
 10
891.6896052075633
 20
548.1303255000631
 30
0.0
 10
891.6426503290885
 20
547.8763961074148
 30
0.0
 10
891.5691402297981
 20
547.6346790358094
 30
0.0
 10
891.4669568031377
 20
547.4060564405709
 30
0.0
 10
891.3341522403992
 20
547.1956938962379
 30
0.0
 10
891.176761797736
 20
547.0018944309923
 30
0.0
 10
890.986871963471
 20
546.8328634435751
 30
0.0
 10
890.8446017006415
 20
546.738365380602
 30
0.0
 10
890.7723348535901
 20
546.690364646452
 30
0.0
  0
SPLINE
  5
107
330
1F
100
AcDbEntity
  8
0
  6
Continuous
 62
     7
370
    25
100
AcDbSpline
210
0.0
220
0.0
230
1.0
 70
     8
 71
     3
 72
    23
 73
    19
 74
     0
 42
0.00000001
 43
0.00000001
 40
0.0
 40
0.0
 40
0.0
 40
0.0
 40
0.0625940971873327
 40
0.1213229386347508
 40
0.1766801421977653
 40
0.2283650957096756
 40
0.2768684458368078
 40
0.3218791276660465
 40
0.3640986251098938
 40
0.4033556962427021
 40
0.4779679481633731
 40
0.5505354613647769
 40
0.6235844567403246
 40
0.6981748822642044
 40
0.7733536703408802
 40
0.8472811254977355
 40
0.9228183395566709
 40
1.0
 40
1.0
 40
1.0
 40
1.0
 10
889.1553476741029
 20
550.374659518247
 30
0.0
 10
889.2317556242465
 20
550.374257803043
 30
0.0
 10
889.3798532478726
 20
550.3734791789993
 30
0.0
 10
889.5952119720527
 20
550.3614034506635
 30
0.0
 10
889.796923539231
 20
550.3449379195124
 30
0.0
 10
889.9850464474608
 20
550.3188119934684
 30
0.0
 10
890.1594937672119
 20
550.287287931422
 30
0.0
 10
890.3207912237554
 20
550.2491123517868
 30
0.0
 10
890.4684259032258
 20
550.203337234852
 30
0.0
 10
890.6446835864399
 20
550.1305457348922
 30
0.0
 10
890.8456450970201
 20
550.0223784929499
 30
0.0
 10
891.0632414231984
 20
549.8625417726093
 30
0.0
 10
891.2493082560196
 20
549.6670389997627
 30
0.0
 10
891.409734123999
 20
549.4465072159356
 30
0.0
 10
891.5372795402532
 20
549.203911166219
 30
0.0
 10
891.6295522198319
 20
548.9450330204419
 30
0.0
 10
891.6879702206517
 20
548.6732118960545
 30
0.0
 10
891.693978070288
 20
548.4865989180454
 30
0.0
 10
891.6970143407697
 20
548.3922877233751
 30
0.0
  0
LINE
  5
108
330
1F
100
AcDbEntity
  8
0
  6
Continuous
 62
     7
370
    25
100
AcDbLine
 10
887.5944502382
 20
550.3746595182
 30
0.0
 11
889.1553476741
 21
550.3746595182
 31
0.0
  0
LINE
  5
109
330
1F
100
AcDbEntity
  8
0
  6
Continuous
 62
     7
370
    25
100
AcDbLine
 10
887.5944502382
 20
542.3746595182
 30
0.0
 11
887.5944502382
 21
550.3746595182
 31
0.0
  0
LINE
  5
10A
330
1F
100
AcDbEntity
  8
0
  6
Continuous
 62
     7
370
    25
100
AcDbLine
 10
889.7579117767
 20
542.3746595182
 30
0.0
 11
887.5944502382
 21
542.3746595182
 31
0.0
  0
LINE
  5
10B
330
1F
100
AcDbEntity
  8
0
  6
Continuous
 62
     7
370
    25
100
AcDbLine
 10
885.3797066485
 20
542.3746595182
 30
0.0
 11
880.107270751
 21
548.6567108003
 31
0.0
  0
LINE
  5
10C
330
1F
100
AcDbEntity
  8
0
  6
Continuous
 62
     7
370
    25
100
AcDbLine
 10
885.5431681869
 20
542.3746595182
 30
0.0
 11
885.3797066485
 21
542.3746595182
 31
0.0
  0
LINE
  5
10D
330
1F
100
AcDbEntity
  8
0
  6
Continuous
 62
     7
370
    25
100
AcDbLine
 10
885.5431681869
 20
550.3746595182
 30
0.0
 11
885.5431681869
 21
542.3746595182
 31
0.0
  0
LINE
  5
10E
330
1F
100
AcDbEntity
  8
0
  6
Continuous
 62
     7
370
    25
100
AcDbLine
 10
884.825219469
 20
550.3746595182
 30
0.0
 11
885.5431681869
 21
550.3746595182
 31
0.0
  0
LINE
  5
10F
330
1F
100
AcDbEntity
  8
0
  6
Continuous
 62
     7
370
    25
100
AcDbLine
 10
884.825219469
 20
544.0781851593
 30
0.0
 11
884.825219469
 21
550.3746595182
 31
0.0
  0
LINE
  5
110
330
1F
100
AcDbEntity
  8
0
  6
Continuous
 62
     7
370
    25
100
AcDbLine
 10
879.5399630587
 20
550.3746595182
 30
0.0
 11
884.825219469
 21
544.0781851593
 31
0.0
  0
LINE
  5
111
330
1F
100
AcDbEntity
  8
0
  6
Continuous
 62
     7
370
    25
100
AcDbLine
 10
879.3893220331
 20
550.3746595182
 30
0.0
 11
879.5399630587
 21
550.3746595182
 31
0.0
  0
LINE
  5
112
330
1F
100
AcDbEntity
  8
0
  6
Continuous
 62
     7
370
    25
100
AcDbLine
 10
879.3893220331
 20
542.3746595182
 30
0.0
 11
879.3893220331
 21
550.3746595182
 31
0.0
  0
LINE
  5
113
330
1F
100
AcDbEntity
  8
0
  6
Continuous
 62
     7
370
    25
100
AcDbLine
 10
880.107270751
 20
542.3746595182
 30
0.0
 11
879.3893220331
 21
542.3746595182
 31
0.0
  0
LINE
  5
114
330
1F
100
AcDbEntity
  8
0
  6
Continuous
 62
     7
370
    25
100
AcDbLine
 10
880.107270751
 20
548.6567108003
 30
0.0
 11
880.107270751
 21
542.3746595182
 31
0.0
  0
SPLINE
  5
115
330
1F
100
AcDbEntity
  8
0
  6
Continuous
 62
     7
370
    25
100
AcDbSpline
210
0.0
220
0.0
230
1.0
 70
     8
 71
     3
 72
    15
 73
    11
 74
     0
 42
0.00000001
 43
0.00000001
 40
0.0
 40
0.0
 40
0.0
 40
0.0
 40
0.1105883385953299
 40
0.224541754053598
 40
0.3425034940500986
 40
0.4643240984173584
 40
0.5907560327017588
 40
0.7222274753555104
 40
0.8588428362087219
 40
1.0
 40
1.0
 40
1.0
 40
1.0
 10
876.9325912638465
 20
544.363441569529
 30
0.0
 10
876.9567095902323
 20
544.4348238311662
 30
0.0
 10
877.005680136135
 20
544.5797604351513
 30
0.0
 10
877.0687927630396
 20
544.8045916399067
 30
0.0
 10
877.118496532648
 20
545.040483671765
 30
0.0
 10
877.1632127972182
 20
545.2860267956927
 30
0.0
 10
877.1937340678408
 20
545.5430318265751
 30
0.0
 10
877.2183004982023
 20
545.8107035612396
 30
0.0
 10
877.2327706397778
 20
546.0892438177776
 30
0.0
 10
877.2345643565122
 20
546.2784895119383
 30
0.0
 10
877.2354758792311
 20
546.374659518247
 30
0.0
  0
SPLINE
  5
116
330
1F
100
AcDbEntity
  8
0
  6
Continuous
 62
     7
370
    25
100
AcDbSpline
210
0.0
220
0.0
230
1.0
 70
     8
 71
     3
 72
    19
 73
    15
 74
     0
 42
0.00000001
 43
0.00000001
 40
0.0
 40
0.0
 40
0.0
 40
0.0
 40
0.112813400744459
 40
0.2253938839207267
 40
0.3395948145627039
 40
0.4596754102248627
 40
0.521735190087932
 40
0.5839258387389138
 40
0.6481741447653644
 40
0.7138810381130691
 40
0.781004454907386
 40
0.851450927556557
 40
0.9240506926641737
 40
1.0
 40
1.0
 40
1.0
 40
1.0
 10
875.2162451100004
 20
542.9900441336315
 30
0.0
 10
875.304834073785
 20
542.9936962040579
 30
0.0
 10
875.4818290982072
 20
543.0009928047483
 30
0.0
 10
875.7404206299656
 20
543.0713899187466
 30
0.0
 10
875.9914612472966
 20
543.1776060089493
 30
0.0
 10
876.1881971107911
 20
543.3032003070505
 30
0.0
 10
876.3378714959372
 20
543.4228079172248
 30
0.0
 10
876.445110330465
 20
543.5247842562258
 30
0.0
 10
876.543537869741
 20
543.6389690957833
 30
0.0
 10
876.6368911836945
 20
543.762167486446
 30
0.0
 10
876.7225119280941
 20
543.8967331645574
 30
0.0
 10
876.8003705285403
 20
544.0420190508797
 30
0.0
 10
876.8714181800722
 20
544.1984286003934
 30
0.0
 10
876.9118959993871
 20
544.3076165755152
 30
0.0
 10
876.9325912638465
 20
544.363441569529
 30
0.0
  0
SPLINE
  5
117
330
1F
100
AcDbEntity
  8
0
  6
Continuous
 62
     7
370
    25
100
AcDbSpline
210
0.0
220
0.0
230
1.0
 70
     8
 71
     3
 72
    27
 73
    23
 74
     0
 42
0.00000001
 43
0.00000001
 40
0.0
 40
0.0
 40
0.0
 40
0.0
 40
0.0729510658758662
 40
0.141583694186544
 40
0.2059264601708647
 40
0.2653013571846032
 40
0.3205972327139258
 40
0.3718165030988138
 40
0.4187897697094545
 40
0.4616987286157678
 40
0.5021335821035656
 40
0.5408043152926453
 40
0.5781805253279672
 40
0.6142968652075151
 40
0.6496782432647845
 40
0.6842994600896394
 40
0.7183589527723596
 40
0.7520808646475943
 40
0.8176524386023858
 40
0.8797220764054378
 40
0.9399655597309863
 40
1.0
 40
1.0
 40
1.0
 40
1.0
 10
873.2354758792311
 20
546.374659518247
 30
0.0
 10
873.2357489010998
 20
546.2678053495524
 30
0.0
 10
873.2362787829361
 20
546.0604223900114
 30
0.0
 10
873.2501215271126
 20
545.7590663649237
 30
0.0
 10
873.2689792002543
 20
545.4779913276274
 30
0.0
 10
873.293302165249
 20
545.2168403871354
 30
0.0
 10
873.3294231904513
 20
544.9764975013989
 30
0.0
 10
873.3698958483203
 20
544.7553096543928
 30
0.0
 10
873.4191486245927
 20
544.5544473981327
 30
0.0
 10
873.4774229511459
 20
544.3725324022366
 30
0.0
 10
873.5437980297595
 20
544.2064773885329
 30
0.0
 10
873.6162685752911
 20
544.0519603253848
 30
0.0
 10
873.6941216562167
 20
543.9071558992457
 30
0.0
 10
873.7812511431948
 20
543.7733647943908
 30
0.0
 10
873.8761427162897
 20
543.6501507050813
 30
0.0
 10
873.9766530228896
 20
543.5353328026304
 30
0.0
 10
874.0865332154431
 20
543.4329397024346
 30
0.0
 10
874.2385417698275
 20
543.3101354623673
 30
0.0
 10
874.4392194256608
 20
543.183234585271
 30
0.0
 10
874.6920661804747
 20
543.0727292370844
 30
0.0
 10
874.9518797827183
 20
543.003283622382
 30
0.0
 10
875.1282254972026
 20
542.9944521801989
 30
0.0
 10
875.2162451100004
 20
542.9900441336315
 30
0.0
  0
SPLINE
  5
118
330
1F
100
AcDbEntity
  8
0
  6
Continuous
 62
     7
370
    25
100
AcDbSpline
210
0.0
220
0.0
230
1.0
 70
     8
 71
     3
 72
    27
 73
    23
 74
     0
 42
0.00000001
 43
0.00000001
 40
0.0
 40
0.0
 40
0.0
 40
0.0
 40
0.0603866193110625
 40
0.120883248585994
 40
0.1827546186251383
 40
0.2478110297583541
 40
0.2812991000432512
 40
0.3150876241506571
 40
0.3497023955502733
 40
0.3848565811185578
 40
0.4209661972261025
 40
0.4585111882611422
 40
0.497174722127314
 40
0.5376020478662682
 40
0.5805030184200101
 40
0.627467540026703
 40
0.6783882095592424
 40
0.7339832205925583
 40
0.7937467045508382
 40
0.857713672160735
 40
0.9266978643613873
 40
1.0
 40
1.0
 40
1.0
 40
1.0
 10
875.2162451100004
 20
549.7592749028623
 30
0.0
 10
875.1277637566591
 20
549.7546315962401
 30
0.0
 10
874.9506398581332
 20
549.7453365240024
 30
0.0
 10
874.6890445330434
 20
549.6797519443645
 30
0.0
 10
874.4382917292895
 20
549.56543659365
 30
0.0
 10
874.2388792157379
 20
549.439831170873
 30
0.0
 10
874.0860477037205
 20
549.3202007447205
 30
0.0
 10
873.9784301188595
 20
549.2164602783013
 30
0.0
 10
873.8775245823617
 20
549.1029831254666
 30
0.0
 10
873.7845698391901
 20
548.9786358915229
 30
0.0
 10
873.6975086204649
 20
548.8450007662221
 30
0.0
 10
873.6175520202918
 20
548.70102644685
 30
0.0
 10
873.5455124096037
 20
548.5459833286205
 30
0.0
 10
873.4790334697633
 20
548.3800029048056
 30
0.0
 10
873.4205813828463
 20
548.1981036032386
 30
0.0
 10
873.3723666097492
 20
547.9974887607393
 30
0.0
 10
873.3278247740466
 20
547.7770044366498
 30
0.0
 10
873.2962927308452
 20
547.5353598470607
 30
0.0
 10
873.2682612891042
 20
547.2741434965025
 30
0.0
 10
873.250246779499
 20
546.9923667691212
 30
0.0
 10
873.2362324767122
 20
546.6905053282015
 30
0.0
 10
873.2357331295973
 20
546.4820501087668
 30
0.0
 10
873.2354758792311
 20
546.374659518247
 30
0.0
  0
SPLINE
  5
119
330
1F
100
AcDbEntity
  8
0
  6
Continuous
 62
     7
370
    25
100
AcDbSpline
210
0.0
220
0.0
230
1.0
 70
     8
 71
     3
 72
    27
 73
    23
 74
     0
 42
0.00000001
 43
0.00000001
 40
0.0
 40
0.0
 40
0.0
 40
0.0
 40
0.0656811979906398
 40
0.1284864641740625
 40
0.1881751303280046
 40
0.2451061306699843
 40
0.2994484245294763
 40
0.350822936009382
 40
0.3999416805337791
 40
0.4466717436323696
 40
0.4912545333735
 40
0.5333763442704346
 40
0.5738527549682225
 40
0.6125263117194493
 40
0.6495971364453316
 40
0.6855320415538468
 40
0.7201057860681997
 40
0.7538376629736477
 40
0.8189254160467159
 40
0.8804934616501647
 40
0.9403113338460578
 40
1.0
 40
1.0
 40
1.0
 40
1.0
 10
877.2354758792311
 20
546.374659518247
 30
0.0
 10
877.2342183038417
 20
546.4708139697168
 30
0.0
 10
877.2317582175432
 20
546.6589126320723
 30
0.0
 10
877.2223548170834
 20
546.9343827593001
 30
0.0
 10
877.1980723611017
 20
547.1960233556639
 30
0.0
 10
877.1711029465544
 20
547.4449615788966
 30
0.0
 10
877.1313378697723
 20
547.6798194136496
 30
0.0
 10
877.0884628826175
 20
547.9025629685212
 30
0.0
 10
877.0308601116683
 20
548.1104327395369
 30
0.0
 10
876.9693291974421
 20
548.3066832120205
 30
0.0
 10
876.8989054362274
 20
548.4890847080225
 30
0.0
 10
876.8213837579243
 20
548.6584876482783
 30
0.0
 10
876.7385911664524
 20
548.8157098762939
 30
0.0
 10
876.6486660454026
 20
548.9603200284687
 30
0.0
 10
876.5526759126819
 20
549.0929658408371
 30
0.0
 10
876.4480872288018
 20
549.2109877712533
 30
0.0
 10
876.339048662377
 20
549.3180436983585
 30
0.0
 10
876.1863236662086
 20
549.4402438563505
 30
0.0
 10
875.9863824323793
 20
549.5648420174551
 30
0.0
 10
875.7375923813107
 20
549.6795066114215
 30
0.0
 10
875.4786880515938
 20
549.7453541374122
 30
0.0
 10
875.3036630136693
 20
549.7546379934993
 30
0.0
 10
875.2162451100004
 20
549.7592749028622
 30
0.0
  0
SPLINE
  5
11A
330
1F
100
AcDbEntity
  8
0
  6
Continuous
 62
     7
370
    25
100
AcDbSpline
210
0.0
220
0.0
230
1.0
 70
     8
 71
     3
 72
    19
 73
    15
 74
     0
 42
0.00000001
 43
0.00000001
 40
0.0
 40
0.0
 40
0.0
 40
0.0
 40
0.0859925287105367
 40
0.1697355739746239
 40
0.2526871184561442
 40
0.3365262885920245
 40
0.4198561141919581
 40
0.5024566706100808
 40
0.5852647562462188
 40
0.6697998313920893
 40
0.7544074688475834
 40
0.8369499629815872
 40
0.9179410084068617
 40
0.9999999999999999
 40
0.9999999999999999
 40
0.9999999999999999
 40
0.9999999999999999
 10
887.3861169048721
 20
528.6567108002982
 30
0.0
 10
887.4910639963243
 20
528.6604448091866
 30
0.0
 10
887.698212862298
 20
528.6678151488127
 30
0.0
 10
888.0023129545656
 20
528.7253548586499
 30
0.0
 10
888.2933168621744
 20
528.821089976062
 30
0.0
 10
888.5697581928786
 20
528.9520241668307
 30
0.0
 10
888.8273109061897
 20
529.1166459604144
 30
0.0
 10
889.0573740695737
 20
529.3158372073937
 30
0.0
 10
889.2618991198354
 20
529.5432692406712
 30
0.0
 10
889.4325317505992
 20
529.7998033966277
 30
0.0
 10
889.5749917379738
 20
530.0728341834939
 30
0.0
 10
889.6728506553185
 20
530.3600440152588
 30
0.0
 10
889.7384957323151
 20
530.6537463903447
 30
0.0
 10
889.7450152715662
 20
530.8529373488948
 30
0.0
 10
889.7482963920517
 20
530.9531851592726
 30
0.0
  0
SPLINE
  5
11B
330
1F
100
AcDbEntity
  8
0
  6
Continuous
 62
     7
370
    25
100
AcDbSpline
210
0.0
220
0.0
230
1.0
 70
     8
 71
     3
 72
    19
 73
    15
 74
     0
 42
0.00000001
 43
0.00000001
 40
0.0
 40
0.0
 40
0.0
 40
0.0
 40
0.082066272270955
 40
0.1638049146802406
 40
0.2466175023921731
 40
0.3319829739590883
 40
0.4174662413505385
 40
0.500907145038858
 40
0.5841030515758475
 40
0.668254171555338
 40
0.7520560821096481
 40
0.8345695599471762
 40
0.9166521793834941
 40
1.0
 40
1.0
 40
1.0
 40
1.0
 10
889.7482963920517
 20
530.9531851592726
 30
0.0
 10
889.7439815489078
 20
531.0533349693801
 30
0.0
 10
889.7353690885939
 20
531.2532347655564
 30
0.0
 10
889.675083871253
 20
531.5495768620955
 30
0.0
 10
889.5698089227841
 20
531.8366342899021
 30
0.0
 10
889.4301105839968
 20
532.1136125493595
 30
0.0
 10
889.2566980462374
 20
532.3719160932469
 30
0.0
 10
889.0532558437093
 20
532.6038935264708
 30
0.0
 10
888.8203831444458
 20
532.8040306334501
 30
0.0
 10
888.5625010426495
 20
532.9708650819757
 30
0.0
 10
888.2878034639408
 20
533.1070012029386
 30
0.0
 10
887.9986820156438
 20
533.2003612611517
 30
0.0
 10
887.7011777351
 20
533.2614771179905
 30
0.0
 10
887.4991308944321
 20
533.2685379827748
 30
0.0
 10
887.3973348535901
 20
533.2720954156829
 30
0.0
  0
SPLINE
  5
11C
330
1F
100
AcDbEntity
  8
0
  6
Continuous
 62
     7
370
    25
100
AcDbSpline
210
0.0
220
0.0
230
1.0
 70
     8
 71
     3
 72
    19
 73
    15
 74
     0
 42
0.00000001
 43
0.00000001
 40
0.0
 40
0.0
 40
0.0
 40
0.0
 40
0.0847350012796475
 40
0.1681817837855206
 40
0.2524185281181406
 40
0.3386177966878021
 40
0.4240141020386655
 40
0.5064019712145101
 40
0.5875451741389921
 40
0.6688007216827524
 40
0.7500995272674217
 40
0.8310222701893071
 40
0.9139596201585719
 40
1.0
 40
1.0
 40
1.0
 40
1.0
 10
887.3973348535901
 20
533.2720954156829
 30
0.0
 10
887.2934091222401
 20
533.2685399929651
 30
0.0
 10
887.0871376332956
 20
533.2614832003086
 30
0.0
 10
886.7827531250703
 20
533.2002538882351
 30
0.0
 10
886.4854656193379
 20
533.1064307761654
 30
0.0
 10
886.2013798322473
 20
532.9717305494322
 30
0.0
 10
885.9365705627604
 20
532.806904353683
 30
0.0
 10
885.699741734611
 20
532.6132124694548
 30
0.0
 10
885.4955553172687
 20
532.3920012507504
 30
0.0
 10
885.3274552698259
 20
532.1439879895285
 30
0.0
 10
885.1939585865838
 20
531.876136479764
 30
0.0
 10
885.0984528768302
 20
531.5903943009554
 30
0.0
 10
885.0413108272548
 20
531.288265586674
 30
0.0
 10
885.0340465245991
 20
531.0811039737855
 30
0.0
 10
885.0303476741029
 20
530.9756210567085
 30
0.0
  0
SPLINE
  5
11D
330
1F
100
AcDbEntity
  8
0
  6
Continuous
 62
     7
370
    25
100
AcDbSpline
210
0.0
220
0.0
230
1.0
 70
     8
 71
     3
 72
    23
 73
    19
 74
     0
 42
0.00000001
 43
0.00000001
 40
0.0
 40
0.0
 40
0.0
 40
0.0
 40
0.0656456998935178
 40
0.129211511451725
 40
0.1912533534191499
 40
0.2519584927837407
 40
0.3125641358481266
 40
0.3735621529251152
 40
0.435230498009014
 40
0.4985361736141459
 40
0.561901403019473
 40
0.6240980803890652
 40
0.6850233969672176
 40
0.7460507790253095
 40
0.8075767540633229
 40
0.8699430039935989
 40
0.9339390434195636
 40
1.0
 40
1.0
 40
1.0
 40
1.0
 10
885.0303476741029
 20
530.9756210567085
 30
0.0
 10
885.0325412065097
 20
530.894848900381
 30
0.0
 10
885.0368587724455
 20
530.7358637357901
 30
0.0
 10
885.0698424722464
 20
530.5024290142103
 30
0.0
 10
885.1223125561994
 20
530.2790390889936
 30
0.0
 10
885.1962405423799
 20
530.0654505279878
 30
0.0
 10
885.2933862216477
 20
529.8628758086714
 30
0.0
 10
885.4104382576659
 20
529.6697419116787
 30
0.0
 10
885.5497563065751
 20
529.4877915608512
 30
0.0
 10
885.7072570825703
 20
529.317470828627
 30
0.0
 10
885.8808853813367
 20
529.1624778816247
 30
0.0
 10
886.0672239380181
 20
529.0281276528974
 30
0.0
 10
886.2624649229006
 20
528.912438075441
 30
0.0
 10
886.4688419993603
 20
528.8202212925586
 30
0.0
 10
886.6839535203211
 20
528.7449606737804
 30
0.0
 10
886.9100068717061
 20
528.6952835408349
 30
0.0
 10
887.1446844125975
 20
528.6610548806545
 30
0.0
 10
887.304792063475
 20
528.6581740732929
 30
0.0
 10
887.3861169048721
 20
528.6567108002982
 30
0.0
  0
LINE
  5
11E
330
1F
100
AcDbEntity
  8
0
  6
Continuous
 62
     7
370
    25
100
AcDbLine
 10
888.3123989562
 20
549.5541466977
 30
0.0
 11
888.3123989562
 21
546.9900441336
 31
0.0
  0
LINE
  5
11F
330
1F
100
AcDbEntity
  8
0
  6
Continuous
 62
     7
370
    25
100
AcDbLine
 10
888.3123989562
 20
546.9900441336
 30
0.0
 11
888.794770751
 21
546.9900441336
 31
0.0
  0
SPLINE
  5
120
330
1F
100
AcDbEntity
  8
0
  6
Continuous
 62
     7
370
    25
100
AcDbSpline
210
0.0
220
0.0
230
1.0
 70
     8
 71
     3
 72
    23
 73
    19
 74
     0
 42
0.00000001
 43
0.00000001
 40
0.0
 40
0.0
 40
0.0
 40
0.0
 40
0.072301033995504
 40
0.1397003317393852
 40
0.2022885114847726
 40
0.2605995332222003
 40
0.3131903291553334
 40
0.361738932985426
 40
0.405706475632221
 40
0.4455399848948723
 40
0.5188319558616085
 40
0.5897782395835771
 40
0.6588674786561447
 40
0.7284304780610654
 40
0.7972827036080996
 40
0.864815377401444
 40
0.9313637528792688
 40
1.0
 40
1.0
 40
1.0
 40
1.0
 10
888.794770751026
 20
546.9900441336315
 30
0.0
 10
888.8652822832922
 20
546.9909582433606
 30
0.0
 10
889.0015249330121
 20
546.9927244896417
 30
0.0
 10
889.1988275537179
 20
546.9977839572119
 30
0.0
 10
889.3819704524519
 20
547.0119509135935
 30
0.0
 10
889.5506374994782
 20
547.0261137982898
 30
0.0
 10
889.7045630856876
 20
547.0491414272357
 30
0.0
 10
889.8434061976925
 20
547.0765519938925
 30
0.0
 10
889.9693458478376
 20
547.1055414912556
 30
0.0
 10
890.114579094778
 20
547.1548431755996
 30
0.0
 10
890.2793172626823
 20
547.2277064331627
 30
0.0
 10
890.4549357864638
 20
547.3407849157227
 30
0.0
 10
890.6097574312383
 20
547.4754691516064
 30
0.0
 10
890.740493860311
 20
547.6308770641893
 30
0.0
 10
890.8474915072335
 20
547.801999774722
 30
0.0
 10
890.9218085704432
 20
547.9861069300015
 30
0.0
 10
890.9722023628606
 20
548.1786100889399
 30
0.0
 10
890.9767544345342
 20
548.3107660953166
 30
0.0
 10
890.9790656228209
 20
548.377864646452
 30
0.0
  0
SPLINE
  5
121
330
1F
100
AcDbEntity
  8
0
  6
Continuous
 62
     7
370
    25
100
AcDbSpline
210
0.0
220
0.0
230
1.0
 70
     8
 71
     3
 72
    23
 73
    19
 74
     0
 42
0.00000001
 43
0.00000001
 40
0.0
 40
0.0
 40
0.0
 40
0.0
 40
0.0570031325129206
 40
0.1118178691207241
 40
0.1644023722182128
 40
0.2158698048987942
 40
0.2668411100818723
 40
0.3174789632053573
 40
0.3699021362727586
 40
0.4234004494436334
 40
0.4797183982994512
 40
0.5392414966442965
 40
0.6024306889434204
 40
0.6710295461473333
 40
0.744484797560847
 40
0.8234539713786838
 40
0.9087403127306636
 40
1.0
 40
1.0
 40
1.0
 40
1.0
 10
890.9790656228209
 20
548.377864646452
 30
0.0
 10
890.9778629252579
 20
548.4222664099116
 30
0.0
 10
890.9755037026546
 20
548.5093653175745
 30
0.0
 10
890.956181868129
 20
548.6363352699321
 30
0.0
 10
890.9233416979905
 20
548.7557495613886
 30
0.0
 10
890.8811604562987
 20
548.8692446707012
 30
0.0
 10
890.8222148820901
 20
548.973271756919
 30
0.0
 10
890.7528126802569
 20
549.071427632793
 30
0.0
 10
890.6689596738803
 20
549.1603696179286
 30
0.0
 10
890.5735143878095
 20
549.2434998997923
 30
0.0
 10
890.4637803927047
 20
549.3172016776164
 30
0.0
 10
890.3398231542606
 20
549.3817519934416
 30
0.0
 10
890.1999656066794
 20
549.4337309115671
 30
0.0
 10
890.0465647952932
 20
549.4792535458015
 30
0.0
 10
889.8772594524393
 20
549.5112267888147
 30
0.0
 10
889.6940033303624
 20
549.5378631034595
 30
0.0
 10
889.4952954011579
 20
549.5514236566128
 30
0.0
 10
889.3578208810992
 20
549.5532187717549
 30
0.0
 10
889.2867579305132
 20
549.554146697734
 30
0.0
  0
LINE
  5
122
330
1F
100
AcDbEntity
  8
0
  6
Continuous
 62
     7
370
    25
100
AcDbLine
 10
889.2867579305
 20
549.5541466977
 30
0.0
 11
888.3123989562
 21
549.5541466977
 31
0.0
  0
LINE
  5
123
330
1F
100
AcDbEntity
  8
0
  6
Continuous
 62
     7
370
    25
100
AcDbLine
 10
888.3123989562
 20
546.1695313131
 30
0.0
 11
888.3123989562
 21
543.1951723388
 31
0.0
  0
SPLINE
  5
124
330
1F
100
AcDbEntity
  8
0
  6
Continuous
 62
     7
370
    25
100
AcDbSpline
210
0.0
220
0.0
230
1.0
 70
     8
 71
     3
 72
    19
 73
    15
 74
     0
 42
0.00000001
 43
0.00000001
 40
0.0
 40
0.0
 40
0.0
 40
0.0
 40
0.0602873979279759
 40
0.119602354707522
 40
0.1775033710185433
 40
0.2351426637323251
 40
0.2921325932269301
 40
0.3508712086415663
 40
0.4100978625665913
 40
0.4707315215304481
 40
0.5948287040804149
 40
0.7225788240942927
 40
0.8566913895440162
 40
1.0
 40
1.0
 40
1.0
 40
1.0
 10
891.5944502382055
 20
544.6454928515802
 30
0.0
 10
891.5938191425771
 20
544.6877633441862
 30
0.0
 10
891.5925671309494
 20
544.7716225025521
 30
0.0
 10
891.5736857254097
 20
544.8948586606958
 30
0.0
 10
891.5462254515954
 20
545.0142320854027
 30
0.0
 10
891.5107250312925
 20
545.1300669207965
 30
0.0
 10
891.4590233922273
 20
545.2402689238774
 30
0.0
 10
891.3986655750454
 20
545.3470176313897
 30
0.0
 10
891.3278966570005
 20
545.450454155787
 30
0.0
 10
891.2176242778743
 20
545.581225020814
 30
0.0
 10
891.0572311704002
 20
545.731892478879
 30
0.0
 10
890.8293299693878
 20
545.8794067697743
 30
0.0
 10
890.5701932883151
 20
545.9983731859741
 30
0.0
 10
890.3822447331243
 20
546.0488862747478
 30
0.0
 10
890.2851553664107
 20
546.0749800310675
 30
0.0
  0
SPLINE
  5
125
330
1F
100
AcDbEntity
  8
0
  6
Continuous
 62
     7
370
    25
100
AcDbSpline
210
0.0
220
0.0
230
1.0
 70
     8
 71
     3
 72
    15
 73
    11
 74
     0
 42
0.00000001
 43
0.00000001
 40
0.0
 40
0.0
 40
0.0
 40
0.0
 40
0.0793064855229993
 40
0.1719528189279314
 40
0.277056507391591
 40
0.3947305758644785
 40
0.526177321276757
 40
0.6713447665976146
 40
0.8292852571892494
 40
1.0
 40
1.0
 40
1.0
 40
1.0
 10
890.2851553664107
 20
546.0749800310674
 30
0.0
 10
890.2462317187483
 20
546.0828773658226
 30
0.0
 10
890.1618372219507
 20
546.100000416532
 30
0.0
 10
890.0242198952561
 20
546.1180751671363
 30
0.0
 10
889.8671093377652
 20
546.1341781611752
 30
0.0
 10
889.6901427612486
 20
546.1460893786925
 30
0.0
 10
889.4930962672744
 20
546.1584014782306
 30
0.0
 10
889.2755490245645
 20
546.1631896407961
 30
0.0
 10
889.0383894482005
 20
546.1689022352953
 30
0.0
 10
888.8738354541441
 20
546.1693162564194
 30
0.0
 10
888.7883604946157
 20
546.1695313131188
 30
0.0
  0
LINE
  5
126
330
1F
100
AcDbEntity
  8
0
  6
Continuous
 62
     7
370
    25
100
AcDbLine
 10
888.7883604946
 20
546.1695313131
 30
0.0
 11
888.3123989562
 21
546.1695313131
 31
0.0
  0
SPLINE
  5
127
330
1F
100
AcDbEntity
  8
0
  6
Continuous
 62
     7
370
    25
100
AcDbSpline
210
0.0
220
0.0
230
1.0
 70
     8
 71
     3
 72
    23
 73
    19
 74
     0
 42
0.00000001
 43
0.00000001
 40
0.0
 40
0.0
 40
0.0
 40
0.0
 40
0.0725024889330345
 40
0.139738989267894
 40
0.201795134825922
 40
0.2598219344148626
 40
0.3122059893845953
 40
0.360773434124337
 40
0.4045403426007512
 40
0.4436980985527638
 40
0.5168407942439686
 40
0.5878743359442812
 40
0.6579654175616313
 40
0.7289693886473085
 40
0.7993077199548877
 40
0.8666357778344691
 40
0.9331163290572759
 40
1.0
 40
1.0
 40
1.0
 40
1.0
 10
889.3348348535901
 20
543.1951723387598
 30
0.0
 10
889.4080209699628
 20
543.1960494756665
 30
0.0
 10
889.5490775609965
 20
543.1977400414198
 30
0.0
 10
889.7527375155585
 20
543.2032590232732
 30
0.0
 10
889.9414988956753
 20
543.2158127962996
 30
0.0
 10
890.1145003487711
 20
543.2355747383881
 30
0.0
 10
890.2736099547842
 20
543.2570111936386
 30
0.0
 10
890.4169189902788
 20
543.2858369786026
 30
0.0
 10
890.545589146762
 20
543.3188631740893
 30
0.0
 10
890.6947875644522
 20
543.3699127106266
 30
0.0
 10
890.86279558338
 20
543.4492189298661
 30
0.0
 10
891.0438489694043
 20
543.5687943045361
 30
0.0
 10
891.2048231823048
 20
543.7112475794455
 30
0.0
 10
891.3415209176343
 20
543.8761182404138
 30
0.0
 10
891.4535506057393
 20
544.0553898448213
 30
0.0
 10
891.5350487887875
 20
544.2454363589989
 30
0.0
 10
891.5853136041455
 20
544.4431175645267
 30
0.0
 10
891.5913985625225
 20
544.5778986217678
 30
0.0
 10
891.5944502382055
 20
544.6454928515802
 30
0.0
  0
LINE
  5
128
330
1F
100
AcDbEntity
  8
0
  6
Continuous
 62
     7
370
    25
100
AcDbLine
 10
888.3123989562
 20
543.1951723388
 30
0.0
 11
889.3348348536
 21
543.1951723388
 31
0.0
  0
LINE
  5
129
330
1F
100
AcDbEntity
  8
0
  6
Continuous
 62
     7
370
    25
100
AcDbLine
 10
898.4069502382
 20
534.4820313131
 30
0.0
 11
896.9582322895
 21
531.4259415695
 31
0.0
  0
LINE
  5
12A
330
1F
100
AcDbEntity
  8
0
  6
Continuous
 62
     7
370
    25
100
AcDbLine
 10
896.9582322895
 20
531.4259415695
 30
0.0
 11
899.8172066485
 21
531.4259415695
 31
0.0
  0
LINE
  5
12B
330
1F
100
AcDbEntity
  8
0
  6
Continuous
 62
     7
370
    25
100
AcDbLine
 10
899.8172066485
 20
531.4259415695
 30
0.0
 11
898.4069502382
 21
534.4820313131
 31
0.0
  0
SPLINE
  5
12C
330
1F
100
AcDbEntity
  8
0
  6
Continuous
 62
     7
370
    25
100
AcDbSpline
210
0.0
220
0.0
230
1.0
 70
     8
 71
     3
 72
    27
 73
    23
 74
     0
 42
0.00000001
 43
0.00000001
 40
0.0
 40
0.0
 40
0.0
 40
0.0
 40
0.0729510658758662
 40
0.1415836941865439
 40
0.2059264601708643
 40
0.2653013571846031
 40
0.3205972327139257
 40
0.371816503098813
 40
0.4187897697094484
 40
0.4616987286157607
 40
0.5021335821035656
 40
0.5408043152926454
 40
0.5781805253279672
 40
0.6142968652075134
 40
0.6496782432647846
 40
0.6842994600896374
 40
0.71835895277236
 40
0.7520808646475945
 40
0.8176524386023859
 40
0.8797220764054379
 40
0.9399655597309863
 40
1.0
 40
1.0
 40
1.0
 40
1.0
 10
867.0816297253849
 20
532.0413261849136
 30
0.0
 10
867.0819027472536
 20
531.934472016219
 30
0.0
 10
867.0824326290899
 20
531.7270890566781
 30
0.0
 10
867.0962753732665
 20
531.4257330315903
 30
0.0
 10
867.1151330464081
 20
531.144657994294
 30
0.0
 10
867.1394560114028
 20
530.8835070538023
 30
0.0
 10
867.1755770366051
 20
530.6431641680655
 30
0.0
 10
867.2160496944741
 20
530.4219763210596
 30
0.0
 10
867.2653024707465
 20
530.2211140647992
 30
0.0
 10
867.3235767972998
 20
530.0391990689033
 30
0.0
 10
867.3899518759134
 20
529.8731440551995
 30
0.0
 10
867.4624224214449
 20
529.7186269920514
 30
0.0
 10
867.5402755023705
 20
529.5738225659125
 30
0.0
 10
867.6274049893486
 20
529.4400314610573
 30
0.0
 10
867.7222965624435
 20
529.316817371748
 30
0.0
 10
867.8228068690436
 20
529.201999469297
 30
0.0
 10
867.932687061597
 20
529.0996063691014
 30
0.0
 10
868.0846956159814
 20
528.976802129034
 30
0.0
 10
868.2853732718147
 20
528.8499012519378
 30
0.0
 10
868.5382200266287
 20
528.7393959037511
 30
0.0
 10
868.7980336288721
 20
528.6699502890488
 30
0.0
 10
868.9743793433564
 20
528.6611188468655
 30
0.0
 10
869.0623989561542
 20
528.6567108002982
 30
0.0
  0
SPLINE
  5
12D
330
1F
100
AcDbEntity
  8
0
  6
Continuous
 62
     7
370
    25
100
AcDbSpline
210
0.0
220
0.0
230
1.0
 70
     8
 71
     3
 72
    19
 73
    15
 74
     0
 42
0.00000001
 43
0.00000001
 40
0.0
 40
0.0
 40
0.0
 40
0.0
 40
0.1128134007444532
 40
0.2253938839207268
 40
0.3395948145626986
 40
0.4596754102248625
 40
0.521735190087932
 40
0.5839258387389139
 40
0.6481741447653606
 40
0.7138810381130655
 40
0.7810044549073856
 40
0.8514509275565566
 40
0.9240506926641736
 40
1.0
 40
1.0
 40
1.0
 40
1.0
 10
869.0623989561542
 20
528.6567108002982
 30
0.0
 10
869.1509879199389
 20
528.6603628707247
 30
0.0
 10
869.327982944361
 20
528.667659471415
 30
0.0
 10
869.5865744761194
 20
528.7380565854131
 30
0.0
 10
869.8376150934504
 20
528.8442726756159
 30
0.0
 10
870.0343509569449
 20
528.9698669737171
 30
0.0
 10
870.1840253420912
 20
529.0894745838914
 30
0.0
 10
870.2912641766189
 20
529.1914509228923
 30
0.0
 10
870.3896917158949
 20
529.3056357624499
 30
0.0
 10
870.4830450298483
 20
529.4288341531126
 30
0.0
 10
870.5686657742481
 20
529.563399831224
 30
0.0
 10
870.6465243746942
 20
529.7086857175464
 30
0.0
 10
870.717572026226
 20
529.86509526706
 30
0.0
 10
870.758049845541
 20
529.9742832421819
 30
0.0
 10
870.7787451100004
 20
530.0301082361956
 30
0.0
  0
SPLINE
  5
12E
330
1F
100
AcDbEntity
  8
0
  6
Continuous
 62
     7
370
    25
100
AcDbSpline
210
0.0
220
0.0
230
1.0
 70
     8
 71
     3
 72
    15
 73
    11
 74
     0
 42
0.00000001
 43
0.00000001
 40
0.0
 40
0.0
 40
0.0
 40
0.0
 40
0.11058833859533
 40
0.2245417540535963
 40
0.3425034940500985
 40
0.4643240984173584
 40
0.590756032701759
 40
0.7222274753555099
 40
0.8588428362087217
 40
1.0
 40
1.0
 40
1.0
 40
1.0
 10
870.7787451100004
 20
530.0301082361957
 30
0.0
 10
870.8028634363861
 20
530.101490497833
 30
0.0
 10
870.8518339822889
 20
530.246427101818
 30
0.0
 10
870.9149466091934
 20
530.4712583065734
 30
0.0
 10
870.9646503788019
 20
530.7071503384316
 30
0.0
 10
871.009366643372
 20
530.9526934623594
 30
0.0
 10
871.0398879139946
 20
531.2096984932417
 30
0.0
 10
871.0644543443562
 20
531.4773702279062
 30
0.0
 10
871.0789244859316
 20
531.7559104844444
 30
0.0
 10
871.080718202666
 20
531.945156178605
 30
0.0
 10
871.0816297253849
 20
532.0413261849136
 30
0.0
  0
SPLINE
  5
12F
330
1F
100
AcDbEntity
  8
0
  6
Continuous
 62
     7
370
    25
100
AcDbSpline
210
0.0
220
0.0
230
1.0
 70
     8
 71
     3
 72
    27
 73
    23
 74
     0
 42
0.00000001
 43
0.00000001
 40
0.0
 40
0.0
 40
0.0
 40
0.0
 40
0.0656811979906399
 40
0.1284864641740625
 40
0.1881751303280047
 40
0.2451061306699844
 40
0.2994484245294766
 40
0.3508229360093829
 40
0.3999416805337793
 40
0.4466717436323708
 40
0.4912545333735013
 40
0.5333763442704345
 40
0.573852754968224
 40
0.6125263117194562
 40
0.6495971364453315
 40
0.6855320415538535
 40
0.7201057860681997
 40
0.7538376629736501
 40
0.8189254160467156
 40
0.8804934616501646
 40
0.9403113338460577
 40
1.0
 40
1.0
 40
1.0
 40
1.0
 10
871.0816297253849
 20
532.0413261849136
 30
0.0
 10
871.0803721499955
 20
532.1374806363834
 30
0.0
 10
871.0779120636971
 20
532.3255792987391
 30
0.0
 10
871.0685086632373
 20
532.6010494259666
 30
0.0
 10
871.0442262072556
 20
532.8626900223305
 30
0.0
 10
871.0172567927082
 20
533.1116282455631
 30
0.0
 10
870.9774917159262
 20
533.3464860803164
 30
0.0
 10
870.9346167287713
 20
533.569229635188
 30
0.0
 10
870.8770139578221
 20
533.7770994062035
 30
0.0
 10
870.8154830435959
 20
533.9733498786873
 30
0.0
 10
870.7450592823812
 20
534.1557513746891
 30
0.0
 10
870.6675376040782
 20
534.3251543149449
 30
0.0
 10
870.5847450126062
 20
534.4823765429605
 30
0.0
 10
870.4948198915564
 20
534.6269866951354
 30
0.0
 10
870.3988297588359
 20
534.7596325075037
 30
0.0
 10
870.2942410749557
 20
534.8776544379199
 30
0.0
 10
870.1852025085308
 20
534.9847103650252
 30
0.0
 10
870.0324775123626
 20
535.1069105230174
 30
0.0
 10
869.8325362785331
 20
535.2315086841218
 30
0.0
 10
869.5837462274646
 20
535.3461732780881
 30
0.0
 10
869.3248418977478
 20
535.4120208040789
 30
0.0
 10
869.1498168598231
 20
535.421304660166
 30
0.0
 10
869.0623989561542
 20
535.425941569529
 30
0.0
  0
SPLINE
  5
130
330
1F
100
AcDbEntity
  8
0
  6
Continuous
 62
     7
370
    25
100
AcDbSpline
210
0.0
220
0.0
230
1.0
 70
     8
 71
     3
 72
    27
 73
    23
 74
     0
 42
0.00000001
 43
0.00000001
 40
0.0
 40
0.0
 40
0.0
 40
0.0
 40
0.0603866193110624
 40
0.1208832485859968
 40
0.1827546186251411
 40
0.247811029758354
 40
0.2812991000432511
 40
0.3150876241506592
 40
0.3497023955502753
 40
0.3848565811185578
 40
0.4209661972261042
 40
0.4585111882611383
 40
0.4971747221273144
 40
0.5376020478662684
 40
0.5805030184200113
 40
0.6274675400267041
 40
0.6783882095592427
 40
0.7339832205925586
 40
0.7937467045508387
 40
0.8577136721607354
 40
0.9266978643613875
 40
1.0
 40
1.0
 40
1.0
 40
1.0
 10
869.0623989561542
 20
535.425941569529
 30
0.0
 10
868.973917602813
 20
535.4212982629067
 30
0.0
 10
868.796793704287
 20
535.4120031906691
 30
0.0
 10
868.5351983791973
 20
535.346418611031
 30
0.0
 10
868.2844455754433
 20
535.2321032603165
 30
0.0
 10
868.0850330618916
 20
535.1064978375396
 30
0.0
 10
867.9322015498744
 20
534.9868674113873
 30
0.0
 10
867.8245839650133
 20
534.8831269449679
 30
0.0
 10
867.7236784285157
 20
534.7696497921332
 30
0.0
 10
867.6307236853439
 20
534.6453025581897
 30
0.0
 10
867.5436624666187
 20
534.5116674328887
 30
0.0
 10
867.4637058664456
 20
534.3676931135168
 30
0.0
 10
867.3916662557576
 20
534.2126499952873
 30
0.0
 10
867.3251873159171
 20
534.0466695714723
 30
0.0
 10
867.2667352290001
 20
533.8647702699053
 30
0.0
 10
867.2185204559031
 20
533.6641554274061
 30
0.0
 10
867.1739786202004
 20
533.4436711033163
 30
0.0
 10
867.1424465769991
 20
533.2020265137273
 30
0.0
 10
867.114415135258
 20
532.9408101631692
 30
0.0
 10
867.0964006256529
 20
532.6590334357878
 30
0.0
 10
867.082386322866
 20
532.3571719948682
 30
0.0
 10
867.0818869757512
 20
532.1487167754335
 30
0.0
 10
867.0816297253849
 20
532.0413261849135
 30
0.0
  0
SPLINE
  5
131
330
1F
100
AcDbEntity
  8
0
  6
Continuous
 62
     7
370
    25
100
AcDbSpline
210
0.0
220
0.0
230
1.0
 70
     8
 71
     3
 72
    27
 73
    23
 74
     0
 42
0.00000001
 43
0.00000001
 40
0.0
 40
0.0
 40
0.0
 40
0.0
 40
0.0729510658758662
 40
0.141583694186544
 40
0.2059264601708647
 40
0.2653013571846032
 40
0.3205972327139258
 40
0.3718165030988138
 40
0.4187897697094485
 40
0.4616987286157618
 40
0.5021335821035655
 40
0.5408043152926452
 40
0.578180525327967
 40
0.614296865207515
 40
0.6496782432647844
 40
0.6842994600896393
 40
0.7183589527723595
 40
0.7520808646475942
 40
0.8176524386023857
 40
0.8797220764054376
 40
0.9399655597309862
 40
1.0
 40
1.0
 40
1.0
 40
1.0
 10
873.2354758792311
 20
532.0413261849136
 30
0.0
 10
873.2357489010998
 20
531.934472016219
 30
0.0
 10
873.2362787829361
 20
531.7270890566781
 30
0.0
 10
873.2501215271127
 20
531.4257330315903
 30
0.0
 10
873.2689792002543
 20
531.1446579942939
 30
0.0
 10
873.293302165249
 20
530.8835070538022
 30
0.0
 10
873.3294231904513
 20
530.6431641680656
 30
0.0
 10
873.3698958483203
 20
530.4219763210594
 30
0.0
 10
873.4191486245927
 20
530.2211140647993
 30
0.0
 10
873.4774229511459
 20
530.0391990689033
 30
0.0
 10
873.5437980297595
 20
529.8731440551995
 30
0.0
 10
873.6162685752911
 20
529.7186269920514
 30
0.0
 10
873.6941216562167
 20
529.5738225659125
 30
0.0
 10
873.7812511431948
 20
529.4400314610573
 30
0.0
 10
873.8761427162897
 20
529.316817371748
 30
0.0
 10
873.9766530228896
 20
529.201999469297
 30
0.0
 10
874.0865332154431
 20
529.0996063691014
 30
0.0
 10
874.2385417698275
 20
528.976802129034
 30
0.0
 10
874.4392194256608
 20
528.8499012519377
 30
0.0
 10
874.6920661804747
 20
528.7393959037512
 30
0.0
 10
874.9518797827182
 20
528.6699502890488
 30
0.0
 10
875.1282254972026
 20
528.6611188468656
 30
0.0
 10
875.2162451100004
 20
528.6567108002982
 30
0.0
  0
SPLINE
  5
132
330
1F
100
AcDbEntity
  8
0
  6
Continuous
 62
     7
370
    25
100
AcDbSpline
210
0.0
220
0.0
230
1.0
 70
     8
 71
     3
 72
    19
 73
    15
 74
     0
 42
0.00000001
 43
0.00000001
 40
0.0
 40
0.0
 40
0.0
 40
0.0
 40
0.112813400744459
 40
0.2253938839207267
 40
0.3395948145627039
 40
0.4596754102248627
 40
0.521735190087932
 40
0.5839258387389138
 40
0.6481741447653644
 40
0.7138810381130691
 40
0.781004454907386
 40
0.851450927556557
 40
0.9240506926641737
 40
1.0
 40
1.0
 40
1.0
 40
1.0
 10
875.2162451100004
 20
528.6567108002982
 30
0.0
 10
875.304834073785
 20
528.6603628707246
 30
0.0
 10
875.4818290982072
 20
528.667659471415
 30
0.0
 10
875.7404206299656
 20
528.7380565854132
 30
0.0
 10
875.9914612472966
 20
528.8442726756159
 30
0.0
 10
876.1881971107911
 20
528.9698669737171
 30
0.0
 10
876.3378714959372
 20
529.0894745838914
 30
0.0
 10
876.445110330465
 20
529.1914509228924
 30
0.0
 10
876.543537869741
 20
529.3056357624499
 30
0.0
 10
876.6368911836945
 20
529.4288341531126
 30
0.0
 10
876.7225119280941
 20
529.5633998312242
 30
0.0
 10
876.8003705285403
 20
529.7086857175464
 30
0.0
 10
876.8714181800722
 20
529.86509526706
 30
0.0
 10
876.9118959993871
 20
529.9742832421819
 30
0.0
 10
876.9325912638465
 20
530.0301082361957
 30
0.0
  0
SPLINE
  5
133
330
1F
100
AcDbEntity
  8
0
  6
Continuous
 62
     7
370
    25
100
AcDbSpline
210
0.0
220
0.0
230
1.0
 70
     8
 71
     3
 72
    15
 73
    11
 74
     0
 42
0.00000001
 43
0.00000001
 40
0.0
 40
0.0
 40
0.0
 40
0.0
 40
0.1105883385953299
 40
0.224541754053598
 40
0.3425034940500986
 40
0.4643240984173584
 40
0.5907560327017588
 40
0.7222274753555104
 40
0.8588428362087219
 40
1.0
 40
1.0
 40
1.0
 40
1.0
 10
876.9325912638465
 20
530.0301082361956
 30
0.0
 10
876.9567095902323
 20
530.101490497833
 30
0.0
 10
877.005680136135
 20
530.246427101818
 30
0.0
 10
877.0687927630396
 20
530.4712583065734
 30
0.0
 10
877.118496532648
 20
530.7071503384317
 30
0.0
 10
877.1632127972182
 20
530.9526934623594
 30
0.0
 10
877.1937340678408
 20
531.2096984932416
 30
0.0
 10
877.2183004982023
 20
531.4773702279064
 30
0.0
 10
877.2327706397778
 20
531.7559104844444
 30
0.0
 10
877.2345643565122
 20
531.945156178605
 30
0.0
 10
877.2354758792311
 20
532.0413261849136
 30
0.0
  0
SPLINE
  5
134
330
1F
100
AcDbEntity
  8
0
  6
Continuous
 62
     7
370
    25
100
AcDbSpline
210
0.0
220
0.0
230
1.0
 70
     8
 71
     3
 72
    27
 73
    23
 74
     0
 42
0.00000001
 43
0.00000001
 40
0.0
 40
0.0
 40
0.0
 40
0.0
 40
0.0656811979906398
 40
0.1284864641740624
 40
0.1881751303280045
 40
0.2451061306699842
 40
0.2994484245294762
 40
0.3508229360093818
 40
0.3999416805337789
 40
0.4466717436323694
 40
0.4912545333734998
 40
0.5333763442704343
 40
0.5738527549682223
 40
0.6125263117194544
 40
0.6495971364453316
 40
0.6855320415538515
 40
0.7201057860682
 40
0.7538376629736478
 40
0.8189254160467161
 40
0.880493461650165
 40
0.9403113338460578
 40
1.0
 40
1.0
 40
1.0
 40
1.0
 10
877.2354758792311
 20
532.0413261849136
 30
0.0
 10
877.2342183038417
 20
532.1374806363834
 30
0.0
 10
877.2317582175432
 20
532.3255792987391
 30
0.0
 10
877.2223548170834
 20
532.6010494259667
 30
0.0
 10
877.1980723611017
 20
532.8626900223304
 30
0.0
 10
877.1711029465544
 20
533.1116282455632
 30
0.0
 10
877.1313378697723
 20
533.3464860803164
 30
0.0
 10
877.0884628826175
 20
533.569229635188
 30
0.0
 10
877.0308601116683
 20
533.7770994062037
 30
0.0
 10
876.9693291974421
 20
533.9733498786873
 30
0.0
 10
876.8989054362274
 20
534.1557513746891
 30
0.0
 10
876.8213837579244
 20
534.3251543149449
 30
0.0
 10
876.7385911664524
 20
534.4823765429605
 30
0.0
 10
876.6486660454026
 20
534.6269866951353
 30
0.0
 10
876.5526759126819
 20
534.7596325075037
 30
0.0
 10
876.4480872288018
 20
534.8776544379199
 30
0.0
 10
876.339048662377
 20
534.9847103650252
 30
0.0
 10
876.1863236662086
 20
535.1069105230174
 30
0.0
 10
875.9863824323793
 20
535.2315086841218
 30
0.0
 10
875.7375923813107
 20
535.3461732780881
 30
0.0
 10
875.4786880515938
 20
535.4120208040789
 30
0.0
 10
875.3036630136693
 20
535.421304660166
 30
0.0
 10
875.2162451100004
 20
535.425941569529
 30
0.0
  0
SPLINE
  5
135
330
1F
100
AcDbEntity
  8
0
  6
Continuous
 62
     7
370
    25
100
AcDbSpline
210
0.0
220
0.0
230
1.0
 70
     8
 71
     3
 72
    27
 73
    23
 74
     0
 42
0.00000001
 43
0.00000001
 40
0.0
 40
0.0
 40
0.0
 40
0.0
 40
0.0603866193110625
 40
0.120883248585994
 40
0.1827546186251383
 40
0.2478110297583541
 40
0.2812991000432512
 40
0.3150876241506571
 40
0.3497023955502732
 40
0.3848565811185577
 40
0.4209661972261024
 40
0.4585111882611366
 40
0.4971747221273141
 40
0.5376020478662683
 40
0.5805030184200103
 40
0.6274675400267031
 40
0.6783882095592425
 40
0.7339832205925584
 40
0.7937467045508382
 40
0.8577136721607351
 40
0.9266978643613875
 40
1.0
 40
1.0
 40
1.0
 40
1.0
 10
875.2162451100004
 20
535.425941569529
 30
0.0
 10
875.1277637566591
 20
535.4212982629066
 30
0.0
 10
874.9506398581332
 20
535.412003190669
 30
0.0
 10
874.6890445330434
 20
535.346418611031
 30
0.0
 10
874.4382917292895
 20
535.2321032603165
 30
0.0
 10
874.2388792157378
 20
535.1064978375396
 30
0.0
 10
874.0860477037205
 20
534.9868674113873
 30
0.0
 10
873.9784301188595
 20
534.8831269449679
 30
0.0
 10
873.8775245823617
 20
534.7696497921332
 30
0.0
 10
873.7845698391901
 20
534.6453025581897
 30
0.0
 10
873.6975086204649
 20
534.5116674328888
 30
0.0
 10
873.6175520202918
 20
534.3676931135167
 30
0.0
 10
873.5455124096038
 20
534.2126499952873
 30
0.0
 10
873.4790334697633
 20
534.0466695714723
 30
0.0
 10
873.4205813828463
 20
533.8647702699054
 30
0.0
 10
873.3723666097492
 20
533.664155427406
 30
0.0
 10
873.3278247740466
 20
533.4436711033164
 30
0.0
 10
873.2962927308452
 20
533.2020265137273
 30
0.0
 10
873.2682612891042
 20
532.9408101631692
 30
0.0
 10
873.250246779499
 20
532.6590334357878
 30
0.0
 10
873.2362324767122
 20
532.357171994868
 30
0.0
 10
873.2357331295973
 20
532.1487167754335
 30
0.0
 10
873.2354758792311
 20
532.0413261849135
 30
0.0
  0
CIRCLE
  5
136
330
1F
100
AcDbEntity
  8
0
  6
Continuous
 62
     7
370
    25
100
AcDbCircle
 10
949.7638876862
 20
700.6153280681
 30
0.0
 40
83.5
  0
CIRCLE
  5
137
330
1F
100
AcDbEntity
  8
0
  6
Continuous
 62
     7
370
    25
100
AcDbCircle
 10
949.7638876862
 20
700.6153280681
 30
0.0
 40
98.49999999999977
  0
ENDSEC
  0
SECTION
  2
OBJECTS
  0
DICTIONARY
  5
C
330
0
100
AcDbDictionary
281
     1
  3
ACAD_DETAILVIEWSTYLE
350
13F
  3
ACAD_GROUP
350
D
  3
ACAD_LAYOUT
350
1A
  3
ACAD_MATERIAL
350
43
  3
ACAD_MLEADERSTYLE
350
5B
  3
ACAD_MLINESTYLE
350
17
  3
ACAD_PLOTSETTINGS
350
19
  3
ACAD_PLOTSTYLENAME
350
E
  3
ACAD_SCALELIST
350
47
  3
ACAD_SECTIONVIEWSTYLE
350
140
  3
ACAD_TABLESTYLE
350
59
  3
ACAD_VISUALSTYLE
350
2A
  3
ACDB_RECOMPOSE_DATA
350
13C
  3
AcDbVariableDictionary
350
138
  0
SUN
  5
5D
330
29
100
AcDbSun
 90
        1
290
     0
 63
     7
421
 16777215
 40
1.0
291
     1
 91
  2455826
 92
 54000000
292
     0
 70
     2
 71
   256
280
     1
  0
DICTIONARY
  5
13F
102
{ACAD_REACTORS
330
C
102
}
330
C
100
AcDbDictionary
281
     1
  0
DICTIONARY
  5
D
102
{ACAD_REACTORS
330
C
102
}
330
C
100
AcDbDictionary
281
     1
  0
DICTIONARY
  5
1A
102
{ACAD_REACTORS
330
C
102
}
330
C
100
AcDbDictionary
281
     1
  3
Layout1
350
1E
  3
Layout2
350
26
  3
Model
350
22
  0
DICTIONARY
  5
43
102
{ACAD_REACTORS
330
C
102
}
330
C
100
AcDbDictionary
281
     1
  3
ByBlock
350
45
  3
ByLayer
350
44
  3
Global
350
46
  0
DICTIONARY
  5
5B
102
{ACAD_REACTORS
330
C
102
}
330
C
100
AcDbDictionary
281
     1
  3
Standard
350
5C
  0
DICTIONARY
  5
17
102
{ACAD_REACTORS
330
C
102
}
330
C
100
AcDbDictionary
281
     1
  3
Standard
350
18
  0
DICTIONARY
  5
19
102
{ACAD_REACTORS
330
C
102
}
330
C
100
AcDbDictionary
281
     1
  0
ACDBDICTIONARYWDFLT
  5
E
102
{ACAD_REACTORS
330
C
102
}
330
C
100
AcDbDictionary
281
     1
  3
Normal
350
F
100
AcDbDictionaryWithDefault
340
F
  0
DICTIONARY
  5
47
102
{ACAD_REACTORS
330
C
102
}
330
C
100
AcDbDictionary
281
     1
  3
A0
350
48
  3
A1
350
49
  3
A2
350
4A
  3
A3
350
4B
  3
A4
350
4C
  3
A5
350
4D
  3
A6
350
4E
  3
A7
350
4F
  3
A8
350
50
  3
A9
350
51
  3
B0
350
52
  3
B1
350
53
  3
B2
350
54
  3
B3
350
55
  3
B4
350
56
  3
B5
350
57
  3
B6
350
58
  0
DICTIONARY
  5
140
102
{ACAD_REACTORS
330
C
102
}
330
C
100
AcDbDictionary
281
     1
  0
DICTIONARY
  5
59
102
{ACAD_REACTORS
330
C
102
}
330
C
100
AcDbDictionary
281
     1
  3
Standard
350
5A
  0
DICTIONARY
  5
2A
102
{ACAD_REACTORS
330
C
102
}
330
C
100
AcDbDictionary
281
     1
  3
2dWireframe
350
2F
  3
Basic
350
32
  3
Brighten
350
36
  3
ColorChange
350
3A
  3
Conceptual
350
34
  3
Dim
350
35
  3
EdgeColorOff
350
3D
  3
Facepattern
350
39
  3
Flat
350
2B
  3
FlatWithEdges
350
2C
  3
Gouraud
350
2D
  3
GouraudWithEdges
350
2E
  3
Hidden
350
31
  3
JitterOff
350
3B
  3
Linepattern
350
38
  3
OverhangOff
350
3C
  3
Realistic
350
33
  3
Shaded
350
42
  3
Shaded with edges
350
41
  3
Shades of Gray
350
3E
  3
Sketchy
350
3F
  3
Thicken
350
37
  3
Wireframe
350
30
  3
X-Ray
350
40
  0
XRECORD
  5
13C
102
{ACAD_REACTORS
330
C
102
}
330
C
100
AcDbXrecord
280
     1
 90
        1
330
5A
  0
DICTIONARY
  5
138
102
{ACAD_REACTORS
330
C
102
}
330
C
100
AcDbDictionary
281
     1
  3
CANNOSCALE
350
139
  3
CENTEREXE
350
141
  3
CENTERLTYPEFILE
350
142
  3
CMLEADERSTYLE
350
13E
  3
CTABLESTYLE
350
13D
  0
LAYOUT
  5
1E
102
{ACAD_REACTORS
330
1A
102
}
330
1A
100
AcDbPlotSettings
  1

  2
none_device
  4

  6

 40
0.0
 41
0.0
 42
0.0
 43
0.0
 44
0.0
 45
0.0
 46
0.0
 47
0.0
 48
0.0
 49
0.0
140
0.0
141
0.0
142
1.0
143
1.0
 70
   688
 72
     1
 73
     0
 74
     5
  7

 75
    16
 76
     0
 77
     2
 78
   300
147
1.0
148
0.0
149
0.0
100
AcDbLayout
  1
Layout1
 70
     1
 71
     1
 10
0.0
 20
0.0
 11
420.0
 21
297.0
 12
0.0
 22
0.0
 32
0.0
 14
1.0000000000E+20
 24
1.0000000000E+20
 34
1.0000000000E+20
 15
-1.0000000000E+20
 25
-1.0000000000E+20
 35
-1.0000000000E+20
146
0.0
 13
0.0
 23
0.0
 33
0.0
 16
1.0
 26
0.0
 36
0.0
 17
0.0
 27
1.0
 37
0.0
 76
     0
330
1B
  0
LAYOUT
  5
26
102
{ACAD_REACTORS
330
1A
102
}
330
1A
100
AcDbPlotSettings
  1

  2
none_device
  4

  6

 40
0.0
 41
0.0
 42
0.0
 43
0.0
 44
0.0
 45
0.0
 46
0.0
 47
0.0
 48
0.0
 49
0.0
140
0.0
141
0.0
142
1.0
143
1.0
 70
   688
 72
     1
 73
     0
 74
     5
  7

 75
    16
 76
     0
 77
     2
 78
   300
147
1.0
148
0.0
149
0.0
100
AcDbLayout
  1
Layout2
 70
     1
 71
     2
 10
0.0
 20
0.0
 11
0.0
 21
0.0
 12
0.0
 22
0.0
 32
0.0
 14
0.0
 24
0.0
 34
0.0
 15
0.0
 25
0.0
 35
0.0
146
0.0
 13
0.0
 23
0.0
 33
0.0
 16
1.0
 26
0.0
 36
0.0
 17
0.0
 27
1.0
 37
0.0
 76
     0
330
23
  0
LAYOUT
  5
22
102
{ACAD_REACTORS
330
1A
102
}
330
1A
100
AcDbPlotSettings
  1

  2
none_device
  4
Letter_(8.50_x_11.00_Inches)
  6

 40
6.35
 41
6.35
 42
6.35000508
 43
6.35000508
 44
215.9
 45
279.4
 46
0.0
 47
0.0
 48
0.0
 49
0.0
140
0.0
141
0.0
142
1.0
143
1.0
 70
  1712
 72
     1
 73
     0
 74
     0
  7

 75
     0
 76
     0
 77
     2
 78
   300
147
1.0
148
0.0
149
0.0
100
AcDbLayout
  1
Model
 70
     1
 71
     0
 10
0.0
 20
0.0
 11
420.0
 21
297.0
 12
0.0
 22
0.0
 32
0.0
 14
0.0
 24
0.0
 34
0.0
 15
420.0
 25
297.0
 35
0.0
146
0.0
 13
0.0
 23
0.0
 33
0.0
 16
1.0
 26
0.0
 36
0.0
 17
0.0
 27
1.0
 37
0.0
 76
     0
330
1F
331
29
  0
MATERIAL
  5
45
102
{ACAD_REACTORS
330
43
102
}
330
43
100
AcDbMaterial
  1
ByBlock
 72
     1
 94
      127
  0
MATERIAL
  5
44
102
{ACAD_REACTORS
330
43
102
}
330
43
100
AcDbMaterial
  1
ByLayer
 72
     1
 94
      127
  0
MATERIAL
  5
46
102
{ACAD_REACTORS
330
43
102
}
330
43
100
AcDbMaterial
  1
Global
 72
     1
 94
      127
  0
MLEADERSTYLE
  5
5C
102
{ACAD_REACTORS
330
5B
102
}
330
5B
100
AcDbMLeaderStyle
179
     2
170
     2
171
     1
172
     0
 90
        2
 40
0.0
 41
0.0
173
     1
 91
-1056964608
340
14
 92
       -2
290
     1
 42
2.0
291
     1
 43
8.0
  3
Standard
341
0
 44
4.0
300

342
11
174
     1
178
     6
175
     1
176
     0
 93
-1056964608
 45
4.0
292
     0
297
     0
 46
4.0
343
0
 94
-1056964608
 47
1.0
 49
1.0
140
1.0
293
     1
141
0.0
294
     1
177
     0
142
1.0
295
     0
296
     0
143
3.75
271
     0
272
     9
273
     9
298
     0
  0
MLINESTYLE
  5
18
102
{ACAD_REACTORS
330
17
102
}
330
17
100
AcDbMlineStyle
  2
Standard
 70
     0
  3

 62
   256
 51
90.0
 52
90.0
 71
     2
 49
0.5
 62
   256
  6
BYLAYER
 49
-0.5
 62
   256
  6
BYLAYER
  0
ACDBPLACEHOLDER
  5
F
102
{ACAD_REACTORS
330
E
102
}
330
E
  0
SCALE
  5
48
102
{ACAD_REACTORS
330
47
102
}
330
47
100
AcDbScale
 70
     0
300
1:1
140
1.0
141
1.0
290
     1
  0
SCALE
  5
49
102
{ACAD_REACTORS
330
47
102
}
330
47
100
AcDbScale
 70
     0
300
1:2
140
1.0
141
2.0
290
     0
  0
SCALE
  5
4A
102
{ACAD_REACTORS
330
47
102
}
330
47
100
AcDbScale
 70
     0
300
1:4
140
1.0
141
4.0
290
     0
  0
SCALE
  5
4B
102
{ACAD_REACTORS
330
47
102
}
330
47
100
AcDbScale
 70
     0
300
1:5
140
1.0
141
5.0
290
     0
  0
SCALE
  5
4C
102
{ACAD_REACTORS
330
47
102
}
330
47
100
AcDbScale
 70
     0
300
1:8
140
1.0
141
8.0
290
     0
  0
SCALE
  5
4D
102
{ACAD_REACTORS
330
47
102
}
330
47
100
AcDbScale
 70
     0
300
1:10
140
1.0
141
10.0
290
     0
  0
SCALE
  5
4E
102
{ACAD_REACTORS
330
47
102
}
330
47
100
AcDbScale
 70
     0
300
1:16
140
1.0
141
16.0
290
     0
  0
SCALE
  5
4F
102
{ACAD_REACTORS
330
47
102
}
330
47
100
AcDbScale
 70
     0
300
1:20
140
1.0
141
20.0
290
     0
  0
SCALE
  5
50
102
{ACAD_REACTORS
330
47
102
}
330
47
100
AcDbScale
 70
     0
300
1:30
140
1.0
141
30.0
290
     0
  0
SCALE
  5
51
102
{ACAD_REACTORS
330
47
102
}
330
47
100
AcDbScale
 70
     0
300
1:40
140
1.0
141
40.0
290
     0
  0
SCALE
  5
52
102
{ACAD_REACTORS
330
47
102
}
330
47
100
AcDbScale
 70
     0
300
1:50
140
1.0
141
50.0
290
     0
  0
SCALE
  5
53
102
{ACAD_REACTORS
330
47
102
}
330
47
100
AcDbScale
 70
     0
300
1:100
140
1.0
141
100.0
290
     0
  0
SCALE
  5
54
102
{ACAD_REACTORS
330
47
102
}
330
47
100
AcDbScale
 70
     0
300
2:1
140
2.0
141
1.0
290
     0
  0
SCALE
  5
55
102
{ACAD_REACTORS
330
47
102
}
330
47
100
AcDbScale
 70
     0
300
4:1
140
4.0
141
1.0
290
     0
  0
SCALE
  5
56
102
{ACAD_REACTORS
330
47
102
}
330
47
100
AcDbScale
 70
     0
300
8:1
140
8.0
141
1.0
290
     0
  0
SCALE
  5
57
102
{ACAD_REACTORS
330
47
102
}
330
47
100
AcDbScale
 70
     0
300
10:1
140
10.0
141
1.0
290
     0
  0
SCALE
  5
58
102
{ACAD_REACTORS
330
47
102
}
330
47
100
AcDbScale
 70
     0
300
100:1
140
100.0
141
1.0
290
     0
  0
TABLESTYLE
  5
5A
102
{ACAD_REACTORS
330
59
102
}
102
{ACAD_XDICTIONARY
360
13A
102
}
330
59
100
AcDbTableStyle
  3
Standard
 70
     0
 71
     0
 40
0.06
 41
0.06
280
     0
281
     0
  7
Standard
140
4.5
170
     2
 62
     0
 63
   257
283
     0
 90
        4
 91
        0
  1

274
    -2
284
     1
 64
     0
275
    -2
285
     1
 65
     0
276
    -2
286
     1
 66
     0
277
    -2
287
     1
 67
     0
278
    -2
288
     1
 68
     0
279
    -2
289
     1
 69
     0
  7
Standard
140
6.0
170
     5
 62
     0
 63
   257
283
     0
 90
        4
 91
        0
  1

274
    -2
284
     1
 64
     0
275
    -2
285
     1
 65
     0
276
    -2
286
     1
 66
     0
277
    -2
287
     1
 67
     0
278
    -2
288
     1
 68
     0
279
    -2
289
     1
 69
     0
  7
Standard
140
4.5
170
     5
 62
     0
 63
   257
283
     0
 90
        4
 91
        0
  1

274
    -2
284
     1
 64
     0
275
    -2
285
     1
 65
     0
276
    -2
286
     1
 66
     0
277
    -2
287
     1
 67
     0
278
    -2
288
     1
 68
     0
279
    -2
289
     1
 69
     0
  0
VISUALSTYLE
  5
2F
102
{ACAD_REACTORS
330
2A
102
}
330
2A
100
AcDbVisualStyle
  2
2dWireframe
 70
     4
177
     3
291
     0
 70
    58
 90
        0
176
     1
 90
        2
176
     1
 90
        0
176
     1
 90
        0
176
     1
 40
0.6
176
     1
 40
30.0
176
     1
 62
     7
420
 16777215
176
     1
 90
        1
176
     1
 90
        4
176
     1
 62
     7
176
     1
 62
   257
176
     1
 90
        1
176
     1
 90
        1
176
     1
 40
1.0
176
     1
 90
        0
176
     1
 62
   257
176
     1
 40
1.0
176
     1
 90
        1
176
     1
 90
        6
176
     1
 90
        2
176
     1
 62
     7
176
     1
 90
        5
176
     1
 90
        0
176
     1
 90
        0
176
     1
290
     0
176
     1
 90
        1
176
     1
 40
0.0
176
     1
 90
        0
176
     1
290
     1
176
     1
290
     1
176
     1
290
     0
176
     1
290
     0
176
     1
290
     0
176
     1
290
     0
176
     1
290
     0
176
     1
290
     0
176
     1
290
     0
176
     1
 90
       50
176
     1
 40
0.0
176
     1
 40
1.0
176
     1
 90
        0
176
     1
 62
    18
420
        0
176
     1
 90
       50
176
     1
 90
        3
176
     1
 62
     5
420
      255
176
     1
290
     0
176
     1
 90
       50
176
     1
 90
       50
176
     1
 90
       50
176
     1
290
     0
176
     1
 90
       50
176
     1
 62
   256
176
     0
 40
1.0
176
     0
 90
        2
176
     1
  1
strokes_ogs.tif
176
     1
290
     0
176
     1
 40
1.0
176
     1
 40
1.0
176
     1
  0
VISUALSTYLE
  5
32
102
{ACAD_REACTORS
330
2A
102
}
330
2A
100
AcDbVisualStyle
  2
Basic
 70
     7
177
     3
291
     1
 70
    58
 90
        1
176
     1
 90
        0
176
     1
 90
        1
176
     1
 90
        0
176
     1
 40
0.6
176
     1
 40
30.0
176
     1
 62
     7
420
 16777215
176
     1
 90
        0
176
     1
 90
        4
176
     1
 62
     7
176
     1
 62
   257
176
     1
 90
        1
176
     1
 90
        1
176
     1
 40
1.0
176
     1
 90
        8
176
     1
 62
     7
176
     1
 40
1.0
176
     1
 90
        1
176
     1
 90
        6
176
     1
 90
        2
176
     1
 62
     7
176
     1
 90
        5
176
     1
 90
        0
176
     1
 90
        0
176
     1
290
     0
176
     1
 90
        1
176
     1
 40
0.0
176
     1
 90
        0
176
     1
290
     0
176
     1
290
     1
176
     1
290
     1
176
     1
290
     0
176
     1
290
     0
176
     1
290
     0
176
     1
290
     0
176
     1
290
     0
176
     1
290
     0
176
     1
 90
       50
176
     1
 40
0.0
176
     1
 40
1.0
176
     1
 90
        0
176
     1
 62
    18
420
        0
176
     1
 90
       50
176
     1
 90
        3
176
     1
 62
     5
420
      255
176
     1
290
     0
176
     1
 90
       50
176
     1
 90
       50
176
     1
 90
       50
176
     1
290
     0
176
     1
 90
       50
176
     1
 62
   256
176
     0
 40
1.0
176
     0
 90
        2
176
     1
  1
strokes_ogs.tif
176
     1
290
     0
176
     1
 40
1.0
176
     1
 40
1.0
176
     1
  0
VISUALSTYLE
  5
36
102
{ACAD_REACTORS
330
2A
102
}
330
2A
100
AcDbVisualStyle
  2
Brighten
 70
    12
177
     3
291
     1
 70
    58
 90
        2
176
     1
 90
        2
176
     1
 90
        0
176
     1
 90
        0
176
     1
 40
0.6
176
     1
 40
30.0
176
     1
 62
     7
420
 16777215
176
     1
 90
        1
176
     1
 90
        4
176
     1
 62
     7
176
     1
 62
   257
176
     1
 90
        1
176
     1
 90
        1
176
     1
 40
1.0
176
     1
 90
        8
176
     1
 62
     7
176
     1
 40
1.0
176
     1
 90
        1
176
     1
 90
        6
176
     1
 90
        2
176
     1
 62
     7
176
     1
 90
        5
176
     1
 90
        0
176
     1
 90
        0
176
     1
290
     0
176
     1
 90
        1
176
     1
 40
50.0
176
     1
 90
        0
176
     1
290
     0
176
     1
290
     1
176
     1
290
     1
176
     1
290
     0
176
     1
290
     0
176
     1
290
     0
176
     1
290
     0
176
     1
290
     0
176
     1
290
     0
176
     1
 90
       50
176
     1
 40
0.0
176
     1
 40
1.0
176
     1
 90
        0
176
     1
 62
    18
420
        0
176
     1
 90
       50
176
     1
 90
        3
176
     1
 62
     5
420
      255
176
     1
290
     0
176
     1
 90
       50
176
     1
 90
       50
176
     1
 90
       50
176
     1
290
     0
176
     1
 90
       50
176
     1
 62
   256
176
     0
 40
1.0
176
     0
 90
        2
176
     1
  1
strokes_ogs.tif
176
     1
290
     0
176
     1
 40
1.0
176
     1
 40
1.0
176
     1
  0
VISUALSTYLE
  5
3A
102
{ACAD_REACTORS
330
2A
102
}
330
2A
100
AcDbVisualStyle
  2
ColorChange
 70
    16
177
     3
291
     1
 70
    58
 90
        2
176
     1
 90
        2
176
     1
 90
        3
176
     1
 90
        0
176
     1
 40
0.6
176
     1
 40
30.0
176
     1
 62
     8
420
  8421504
176
     1
 90
        1
176
     1
 90
        4
176
     1
 62
     7
176
     1
 62
   257
176
     1
 90
        1
176
     1
 90
        1
176
     1
 40
1.0
176
     1
 90
        8
176
     1
 62
     8
420
  8421504
176
     1
 40
1.0
176
     1
 90
        1
176
     1
 90
        6
176
     1
 90
        2
176
     1
 62
     7
176
     1
 90
        5
176
     1
 90
        0
176
     1
 90
        0
176
     1
290
     0
176
     1
 90
        1
176
     1
 40
0.0
176
     1
 90
        0
176
     1
290
     0
176
     1
290
     1
176
     1
290
     1
176
     1
290
     0
176
     1
290
     0
176
     1
290
     0
176
     1
290
     0
176
     1
290
     0
176
     1
290
     0
176
     1
 90
       50
176
     1
 40
0.0
176
     1
 40
1.0
176
     1
 90
        0
176
     1
 62
    18
420
        0
176
     1
 90
       50
176
     1
 90
        3
176
     1
 62
     5
420
      255
176
     1
290
     0
176
     1
 90
       50
176
     1
 90
       50
176
     1
 90
       50
176
     1
290
     0
176
     1
 90
       50
176
     1
 62
   256
176
     0
 40
1.0
176
     0
 90
        2
176
     1
  1
strokes_ogs.tif
176
     1
290
     0
176
     1
 40
1.0
176
     1
 40
1.0
176
     1
  0
VISUALSTYLE
  5
34
102
{ACAD_REACTORS
330
2A
102
}
330
2A
100
AcDbVisualStyle
  2
Conceptual
 70
     9
177
     3
291
     0
 70
    58
 90
        3
176
     1
 90
        2
176
     1
 90
        0
176
     1
 90
        0
176
     1
 40
0.6
176
     1
 40
30.0
176
     1
 62
     7
420
 16777215
176
     1
 90
        2
176
     1
 90
        2
176
     1
 62
     7
176
     1
 62
   257
176
     1
 90
        1
176
     1
 90
        1
176
     1
 40
179.0
176
     1
 90
        8
176
     1
 62
     7
176
     1
 40
1.0
176
     1
 90
        1
176
     1
 90
        6
176
     1
 90
        2
176
     1
 62
     7
176
     1
 90
        3
176
     1
 90
        0
176
     1
 90
        0
176
     1
290
     0
176
     1
 90
        1
176
     1
 40
0.0
176
     1
 90
        0
176
     1
290
     0
176
     1
290
     1
176
     1
290
     1
176
     1
290
     0
176
     1
290
     0
176
     1
290
     0
176
     1
290
     0
176
     1
290
     0
176
     1
290
     0
176
     1
 90
       50
176
     1
 40
0.0
176
     1
 40
1.0
176
     1
 90
        0
176
     1
 62
    18
420
        0
176
     1
 90
       50
176
     1
 90
        3
176
     1
 62
     5
420
      255
176
     1
290
     0
176
     1
 90
       50
176
     1
 90
       50
176
     1
 90
       50
176
     1
290
     0
176
     1
 90
       50
176
     1
 62
   256
176
     0
 40
1.0
176
     0
 90
        2
176
     1
  1
strokes_ogs.tif
176
     1
290
     0
176
     1
 40
1.0
176
     1
 40
1.0
176
     1
  0
VISUALSTYLE
  5
35
102
{ACAD_REACTORS
330
2A
102
}
330
2A
100
AcDbVisualStyle
  2
Dim
 70
    11
177
     3
291
     1
 70
    58
 90
        2
176
     1
 90
        2
176
     1
 90
        0
176
     1
 90
        0
176
     1
 40
0.6
176
     1
 40
30.0
176
     1
 62
     7
420
 16777215
176
     1
 90
        1
176
     1
 90
        4
176
     1
 62
     7
176
     1
 62
   257
176
     1
 90
        1
176
     1
 90
        1
176
     1
 40
1.0
176
     1
 90
        8
176
     1
 62
     7
176
     1
 40
1.0
176
     1
 90
        1
176
     1
 90
        6
176
     1
 90
        2
176
     1
 62
     7
176
     1
 90
        5
176
     1
 90
        0
176
     1
 90
        0
176
     1
290
     0
176
     1
 90
        1
176
     1
 40
-50.0
176
     1
 90
        0
176
     1
290
     0
176
     1
290
     1
176
     1
290
     1
176
     1
290
     0
176
     1
290
     0
176
     1
290
     0
176
     1
290
     0
176
     1
290
     0
176
     1
290
     0
176
     1
 90
       50
176
     1
 40
0.0
176
     1
 40
1.0
176
     1
 90
        0
176
     1
 62
    18
420
        0
176
     1
 90
       50
176
     1
 90
        3
176
     1
 62
     5
420
      255
176
     1
290
     0
176
     1
 90
       50
176
     1
 90
       50
176
     1
 90
       50
176
     1
290
     0
176
     1
 90
       50
176
     1
 62
   256
176
     0
 40
1.0
176
     0
 90
        2
176
     1
  1
strokes_ogs.tif
176
     1
290
     0
176
     1
 40
1.0
176
     1
 40
1.0
176
     1
  0
VISUALSTYLE
  5
3D
102
{ACAD_REACTORS
330
2A
102
}
330
2A
100
AcDbVisualStyle
  2
EdgeColorOff
 70
    22
177
     3
291
     1
 70
    58
 90
        2
176
     0
 90
        2
176
     0
 90
        0
176
     0
 90
        0
176
     0
 40
0.6
176
     0
 40
30.0
176
     0
 62
     7
420
 16777215
176
     0
 90
        1
176
     0
 90
        4
176
     0
 62
     7
176
     0
 62
   257
176
     0
 90
        1
176
     0
 90
        1
176
     0
 40
1.0
176
     0
 90
        8
176
     2
 62
     7
176
     0
 40
1.0
176
     0
 90
        1
176
     0
 90
        6
176
     0
 90
        2
176
     0
 62
     7
176
     0
 90
        5
176
     0
 90
        0
176
     0
 90
        0
176
     0
290
     0
176
     0
 90
        1
176
     0
 40
0.0
176
     0
 90
        0
176
     0
290
     0
176
     0
290
     1
176
     0
290
     1
176
     0
290
     0
176
     0
290
     0
176
     0
290
     0
176
     0
290
     0
176
     0
290
     0
176
     0
290
     0
176
     0
 90
       50
176
     0
 40
0.0
176
     0
 40
1.0
176
     0
 90
        0
176
     0
 62
    18
420
        0
176
     0
 90
       50
176
     0
 90
        3
176
     0
 62
     5
420
      255
176
     0
290
     0
176
     0
 90
       50
176
     0
 90
       50
176
     0
 90
       50
176
     0
290
     0
176
     0
 90
       50
176
     0
 62
   256
176
     0
 40
1.0
176
     0
 90
        2
176
     0
  1
strokes_ogs.tif
176
     0
290
     0
176
     0
 40
1.0
176
     0
 40
1.0
176
     0
  0
VISUALSTYLE
  5
39
102
{ACAD_REACTORS
330
2A
102
}
330
2A
100
AcDbVisualStyle
  2
Facepattern
 70
    15
177
     3
291
     1
 70
    58
 90
        2
176
     1
 90
        2
176
     1
 90
        0
176
     1
 90
        0
176
     1
 40
0.6
176
     1
 40
30.0
176
     1
 62
     7
420
 16777215
176
     1
 90
        1
176
     1
 90
        4
176
     1
 62
     7
176
     1
 62
   257
176
     1
 90
        1
176
     1
 90
        1
176
     1
 40
1.0
176
     1
 90
        8
176
     1
 62
     7
176
     1
 40
1.0
176
     1
 90
        1
176
     1
 90
        6
176
     1
 90
        2
176
     1
 62
     7
176
     1
 90
        5
176
     1
 90
        0
176
     1
 90
        0
176
     1
290
     0
176
     1
 90
        1
176
     1
 40
0.0
176
     1
 90
        0
176
     1
290
     0
176
     1
290
     1
176
     1
290
     1
176
     1
290
     0
176
     1
290
     0
176
     1
290
     0
176
     1
290
     0
176
     1
290
     0
176
     1
290
     0
176
     1
 90
       50
176
     1
 40
0.0
176
     1
 40
1.0
176
     1
 90
        0
176
     1
 62
    18
420
        0
176
     1
 90
       50
176
     1
 90
        3
176
     1
 62
     5
420
      255
176
     1
290
     0
176
     1
 90
       50
176
     1
 90
       50
176
     1
 90
       50
176
     1
290
     0
176
     1
 90
       50
176
     1
 62
   256
176
     0
 40
1.0
176
     0
 90
        2
176
     1
  1
strokes_ogs.tif
176
     1
290
     0
176
     1
 40
1.0
176
     1
 40
1.0
176
     1
  0
VISUALSTYLE
  5
2B
102
{ACAD_REACTORS
330
2A
102
}
330
2A
100
AcDbVisualStyle
  2
Flat
 70
     0
177
     3
291
     1
 70
    58
 90
        2
176
     1
 90
        1
176
     1
 90
        1
176
     1
 90
        2
176
     1
 40
0.6
176
     1
 40
30.0
176
     1
 62
     7
420
 16777215
176
     1
 90
        0
176
     1
 90
        0
176
     1
 62
     7
176
     1
 62
   257
176
     1
 90
        1
176
     1
 90
        1
176
     1
 40
1.0
176
     1
 90
        8
176
     1
 62
     7
176
     1
 40
1.0
176
     1
 90
        1
176
     1
 90
        6
176
     1
 90
        2
176
     1
 62
     7
176
     1
 90
        5
176
     1
 90
        0
176
     1
 90
        0
176
     1
290
     0
176
     1
 90
       13
176
     1
 40
0.0
176
     1
 90
        0
176
     1
290
     0
176
     1
290
     1
176
     1
290
     1
176
     1
290
     0
176
     1
290
     0
176
     1
290
     0
176
     1
290
     0
176
     1
290
     0
176
     1
290
     0
176
     1
 90
       50
176
     1
 40
0.0
176
     1
 40
1.0
176
     1
 90
        0
176
     1
 62
    18
420
        0
176
     1
 90
       50
176
     1
 90
        3
176
     1
 62
     5
420
      255
176
     1
290
     0
176
     1
 90
       50
176
     1
 90
       50
176
     1
 90
       50
176
     1
290
     0
176
     1
 90
       50
176
     1
 62
   256
176
     0
 40
1.0
176
     0
 90
        2
176
     1
  1
strokes_ogs.tif
176
     1
290
     0
176
     1
 40
1.0
176
     1
 40
1.0
176
     1
  0
VISUALSTYLE
  5
2C
102
{ACAD_REACTORS
330
2A
102
}
330
2A
100
AcDbVisualStyle
  2
FlatWithEdges
 70
     1
177
     3
291
     1
 70
    58
 90
        2
176
     1
 90
        1
176
     1
 90
        1
176
     1
 90
        2
176
     1
 40
0.6
176
     1
 40
30.0
176
     1
 62
     7
420
 16777215
176
     1
 90
        1
176
     1
 90
        0
176
     1
 62
     7
176
     1
 62
   257
176
     1
 90
        1
176
     1
 90
        1
176
     1
 40
1.0
176
     1
 90
        0
176
     1
 62
   257
176
     1
 40
1.0
176
     1
 90
        1
176
     1
 90
        6
176
     1
 90
        2
176
     1
 62
     7
176
     1
 90
        5
176
     1
 90
        0
176
     1
 90
        0
176
     1
290
     0
176
     1
 90
       13
176
     1
 40
0.0
176
     1
 90
        0
176
     1
290
     0
176
     1
290
     1
176
     1
290
     1
176
     1
290
     0
176
     1
290
     0
176
     1
290
     0
176
     1
290
     0
176
     1
290
     0
176
     1
290
     0
176
     1
 90
       50
176
     1
 40
0.0
176
     1
 40
1.0
176
     1
 90
        0
176
     1
 62
    18
420
        0
176
     1
 90
       50
176
     1
 90
        3
176
     1
 62
     5
420
      255
176
     1
290
     0
176
     1
 90
       50
176
     1
 90
       50
176
     1
 90
       50
176
     1
290
     0
176
     1
 90
       50
176
     1
 62
   256
176
     0
 40
1.0
176
     0
 90
        2
176
     1
  1
strokes_ogs.tif
176
     1
290
     0
176
     1
 40
1.0
176
     1
 40
1.0
176
     1
  0
VISUALSTYLE
  5
2D
102
{ACAD_REACTORS
330
2A
102
}
330
2A
100
AcDbVisualStyle
  2
Gouraud
 70
     2
177
     3
291
     1
 70
    58
 90
        2
176
     1
 90
        2
176
     1
 90
        1
176
     1
 90
        2
176
     1
 40
0.6
176
     1
 40
30.0
176
     1
 62
     7
420
 16777215
176
     1
 90
        0
176
     1
 90
        0
176
     1
 62
     7
176
     1
 62
   257
176
     1
 90
        1
176
     1
 90
        1
176
     1
 40
1.0
176
     1
 90
        0
176
     1
 62
     7
176
     1
 40
1.0
176
     1
 90
        1
176
     1
 90
        6
176
     1
 90
        2
176
     1
 62
     7
176
     1
 90
        5
176
     1
 90
        0
176
     1
 90
        0
176
     1
290
     0
176
     1
 90
       13
176
     1
 40
0.0
176
     1
 90
        0
176
     1
290
     0
176
     1
290
     1
176
     1
290
     1
176
     1
290
     0
176
     1
290
     0
176
     1
290
     0
176
     1
290
     0
176
     1
290
     0
176
     1
290
     0
176
     1
 90
       50
176
     1
 40
0.0
176
     1
 40
1.0
176
     1
 90
        0
176
     1
 62
    18
420
        0
176
     1
 90
       50
176
     1
 90
        3
176
     1
 62
     5
420
      255
176
     1
290
     0
176
     1
 90
       50
176
     1
 90
       50
176
     1
 90
       50
176
     1
290
     0
176
     1
 90
       50
176
     1
 62
   256
176
     0
 40
1.0
176
     0
 90
        2
176
     1
  1
strokes_ogs.tif
176
     1
290
     0
176
     1
 40
1.0
176
     1
 40
1.0
176
     1
  0
VISUALSTYLE
  5
2E
102
{ACAD_REACTORS
330
2A
102
}
330
2A
100
AcDbVisualStyle
  2
GouraudWithEdges
 70
     3
177
     3
291
     1
 70
    58
 90
        2
176
     1
 90
        2
176
     1
 90
        1
176
     1
 90
        2
176
     1
 40
0.6
176
     1
 40
30.0
176
     1
 62
     7
420
 16777215
176
     1
 90
        1
176
     1
 90
        0
176
     1
 62
     7
176
     1
 62
   257
176
     1
 90
        1
176
     1
 90
        1
176
     1
 40
1.0
176
     1
 90
        0
176
     1
 62
   257
176
     1
 40
1.0
176
     1
 90
        1
176
     1
 90
        6
176
     1
 90
        2
176
     1
 62
     7
176
     1
 90
        5
176
     1
 90
        0
176
     1
 90
        0
176
     1
290
     0
176
     1
 90
       13
176
     1
 40
0.0
176
     1
 90
        0
176
     1
290
     0
176
     1
290
     1
176
     1
290
     1
176
     1
290
     0
176
     1
290
     0
176
     1
290
     0
176
     1
290
     0
176
     1
290
     0
176
     1
290
     0
176
     1
 90
       50
176
     1
 40
0.0
176
     1
 40
1.0
176
     1
 90
        0
176
     1
 62
    18
420
        0
176
     1
 90
       50
176
     1
 90
        3
176
     1
 62
     5
420
      255
176
     1
290
     0
176
     1
 90
       50
176
     1
 90
       50
176
     1
 90
       50
176
     1
290
     0
176
     1
 90
       50
176
     1
 62
   256
176
     0
 40
1.0
176
     0
 90
        2
176
     1
  1
strokes_ogs.tif
176
     1
290
     0
176
     1
 40
1.0
176
     1
 40
1.0
176
     1
  0
VISUALSTYLE
  5
31
102
{ACAD_REACTORS
330
2A
102
}
330
2A
100
AcDbVisualStyle
  2
Hidden
 70
     6
177
     3
291
     0
 70
    58
 90
        1
176
     1
 90
        2
176
     1
 90
        2
176
     1
 90
        0
176
     1
 40
0.6
176
     1
 40
30.0
176
     1
 62
     7
420
 16777215
176
     1
 90
        2
176
     1
 90
        2
176
     1
 62
     7
176
     1
 62
   257
176
     1
 90
        2
176
     1
 90
        1
176
     1
 40
40.0
176
     1
 90
        0
176
     1
 62
   257
176
     1
 40
1.0
176
     1
 90
        1
176
     1
 90
        6
176
     1
 90
        2
176
     1
 62
     7
176
     1
 90
        3
176
     1
 90
        0
176
     1
 90
        0
176
     1
290
     0
176
     1
 90
        1
176
     1
 40
0.0
176
     1
 90
        0
176
     1
290
     0
176
     1
290
     1
176
     1
290
     1
176
     1
290
     0
176
     1
290
     0
176
     1
290
     0
176
     1
290
     0
176
     1
290
     0
176
     1
290
     0
176
     1
 90
       50
176
     1
 40
0.0
176
     1
 40
1.0
176
     1
 90
        0
176
     1
 62
    18
420
        0
176
     1
 90
       50
176
     1
 90
        3
176
     1
 62
     5
420
      255
176
     1
290
     0
176
     1
 90
       50
176
     1
 90
       50
176
     1
 90
       50
176
     1
290
     0
176
     1
 90
       50
176
     1
 62
   256
176
     0
 40
1.0
176
     0
 90
        2
176
     1
  1
strokes_ogs.tif
176
     1
290
     0
176
     1
 40
1.0
176
     1
 40
1.0
176
     1
  0
VISUALSTYLE
  5
3B
102
{ACAD_REACTORS
330
2A
102
}
330
2A
100
AcDbVisualStyle
  2
JitterOff
 70
    20
177
     3
291
     1
 70
    58
 90
        2
176
     0
 90
        2
176
     0
 90
        0
176
     0
 90
        0
176
     0
 40
0.6
176
     0
 40
30.0
176
     0
 62
     7
420
 16777215
176
     0
 90
        1
176
     0
 90
        4
176
     0
 62
     7
176
     0
 62
   257
176
     0
 90
        1
176
     0
 90
        1
176
     0
 40
1.0
176
     0
 90
       10
176
     2
 62
     7
176
     0
 40
1.0
176
     0
 90
        1
176
     0
 90
        6
176
     0
 90
        2
176
     0
 62
     7
176
     0
 90
        5
176
     0
 90
        0
176
     0
 90
        0
176
     0
290
     0
176
     0
 90
        1
176
     0
 40
0.0
176
     0
 90
        0
176
     0
290
     0
176
     0
290
     1
176
     0
290
     1
176
     0
290
     0
176
     0
290
     0
176
     0
290
     0
176
     0
290
     0
176
     0
290
     0
176
     0
290
     0
176
     0
 90
       50
176
     0
 40
0.0
176
     0
 40
1.0
176
     0
 90
        0
176
     0
 62
    18
420
        0
176
     0
 90
       50
176
     0
 90
        3
176
     0
 62
     5
420
      255
176
     0
290
     0
176
     0
 90
       50
176
     0
 90
       50
176
     0
 90
       50
176
     0
290
     0
176
     0
 90
       50
176
     0
 62
   256
176
     0
 40
1.0
176
     0
 90
        2
176
     0
  1
strokes_ogs.tif
176
     0
290
     0
176
     0
 40
1.0
176
     0
 40
1.0
176
     0
  0
VISUALSTYLE
  5
38
102
{ACAD_REACTORS
330
2A
102
}
330
2A
100
AcDbVisualStyle
  2
Linepattern
 70
    14
177
     3
291
     1
 70
    58
 90
        2
176
     1
 90
        2
176
     1
 90
        0
176
     1
 90
        0
176
     1
 40
0.6
176
     1
 40
30.0
176
     1
 62
     7
420
 16777215
176
     1
 90
        1
176
     1
 90
        4
176
     1
 62
     7
176
     1
 62
   257
176
     1
 90
        7
176
     1
 90
        7
176
     1
 40
1.0
176
     1
 90
        8
176
     1
 62
     7
176
     1
 40
1.0
176
     1
 90
        1
176
     1
 90
        6
176
     1
 90
        2
176
     1
 62
     7
176
     1
 90
        5
176
     1
 90
        0
176
     1
 90
        0
176
     1
290
     0
176
     1
 90
        1
176
     1
 40
0.0
176
     1
 90
        0
176
     1
290
     0
176
     1
290
     1
176
     1
290
     1
176
     1
290
     0
176
     1
290
     0
176
     1
290
     0
176
     1
290
     0
176
     1
290
     0
176
     1
290
     0
176
     1
 90
       50
176
     1
 40
0.0
176
     1
 40
1.0
176
     1
 90
        0
176
     1
 62
    18
420
        0
176
     1
 90
       50
176
     1
 90
        3
176
     1
 62
     5
420
      255
176
     1
290
     0
176
     1
 90
       50
176
     1
 90
       50
176
     1
 90
       50
176
     1
290
     0
176
     1
 90
       50
176
     1
 62
   256
176
     0
 40
1.0
176
     0
 90
        2
176
     1
  1
strokes_ogs.tif
176
     1
290
     0
176
     1
 40
1.0
176
     1
 40
1.0
176
     1
  0
VISUALSTYLE
  5
3C
102
{ACAD_REACTORS
330
2A
102
}
330
2A
100
AcDbVisualStyle
  2
OverhangOff
 70
    21
177
     3
291
     1
 70
    58
 90
        2
176
     0
 90
        2
176
     0
 90
        0
176
     0
 90
        0
176
     0
 40
0.6
176
     0
 40
30.0
176
     0
 62
     7
420
 16777215
176
     0
 90
        1
176
     0
 90
        4
176
     0
 62
     7
176
     0
 62
   257
176
     0
 90
        1
176
     0
 90
        1
176
     0
 40
1.0
176
     0
 90
        9
176
     2
 62
     7
176
     0
 40
1.0
176
     0
 90
        1
176
     0
 90
        6
176
     0
 90
        2
176
     0
 62
     7
176
     0
 90
        5
176
     0
 90
        0
176
     0
 90
        0
176
     0
290
     0
176
     0
 90
        1
176
     0
 40
0.0
176
     0
 90
        0
176
     0
290
     0
176
     0
290
     1
176
     0
290
     1
176
     0
290
     0
176
     0
290
     0
176
     0
290
     0
176
     0
290
     0
176
     0
290
     0
176
     0
290
     0
176
     0
 90
       50
176
     0
 40
0.0
176
     0
 40
1.0
176
     0
 90
        0
176
     0
 62
    18
420
        0
176
     0
 90
       50
176
     0
 90
        3
176
     0
 62
     5
420
      255
176
     0
290
     0
176
     0
 90
       50
176
     0
 90
       50
176
     0
 90
       50
176
     0
290
     0
176
     0
 90
       50
176
     0
 62
   256
176
     0
 40
1.0
176
     0
 90
        2
176
     0
  1
strokes_ogs.tif
176
     0
290
     0
176
     0
 40
1.0
176
     0
 40
1.0
176
     0
  0
VISUALSTYLE
  5
33
102
{ACAD_REACTORS
330
2A
102
}
330
2A
100
AcDbVisualStyle
  2
Realistic
 70
     8
177
     3
291
     0
 70
    58
 90
        2
176
     1
 90
        3
176
     1
 90
        0
176
     1
 90
        2
176
     1
 40
0.6
176
     1
 40
30.0
176
     1
 62
     7
420
 16777215
176
     1
 90
        0
176
     1
 90
        0
176
     1
 62
     7
176
     1
 62
   257
176
     1
 90
        1
176
     1
 90
        1
176
     1
 40
1.0
176
     1
 90
        8
176
     1
 62
   257
176
     1
 40
1.0
176
     1
 90
        1
176
     1
 90
        6
176
     1
 90
        2
176
     1
 62
     7
176
     1
 90
        3
176
     1
 90
        0
176
     1
 90
        0
176
     1
290
     0
176
     1
 90
       13
176
     1
 40
0.0
176
     1
 90
        0
176
     1
290
     0
176
     1
290
     1
176
     1
290
     1
176
     1
290
     0
176
     1
290
     0
176
     1
290
     0
176
     1
290
     0
176
     1
290
     0
176
     1
290
     0
176
     1
 90
       50
176
     1
 40
0.0
176
     1
 40
1.0
176
     1
 90
        0
176
     1
 62
    18
420
        0
176
     1
 90
       50
176
     1
 90
        3
176
     1
 62
     5
420
      255
176
     1
290
     0
176
     1
 90
       50
176
     1
 90
       50
176
     1
 90
       50
176
     1
290
     0
176
     1
 90
       50
176
     1
 62
   256
176
     0
 40
1.0
176
     0
 90
        2
176
     1
  1
strokes_ogs.tif
176
     1
290
     0
176
     1
 40
1.0
176
     1
 40
1.0
176
     1
  0
VISUALSTYLE
  5
42
102
{ACAD_REACTORS
330
2A
102
}
330
2A
100
AcDbVisualStyle
  2
Shaded
 70
    27
177
     3
291
     0
 70
    58
 90
        2
176
     1
 90
        2
176
     1
 90
        1
176
     1
 90
        2
176
     1
 40
0.6
176
     1
 40
30.0
176
     1
 62
     7
420
 16777215
176
     1
 90
        0
176
     1
 90
        4
176
     1
 62
     7
176
     1
 62
   257
176
     1
 90
        1
176
     1
 90
        1
176
     1
 40
1.0
176
     1
 90
        8
176
     1
 62
   257
176
     1
 40
1.0
176
     1
 90
        1
176
     1
 90
        6
176
     1
 90
        2
176
     1
 62
     8
420
  7895160
176
     1
 90
        3
176
     1
 90
        0
176
     1
 90
        0
176
     1
290
     0
176
     1
 90
        5
176
     1
 40
0.0
176
     1
 90
        0
176
     1
290
     0
176
     1
290
     1
176
     1
290
     1
176
     1
290
     0
176
     1
290
     0
176
     1
290
     0
176
     1
290
     0
176
     1
290
     0
176
     1
290
     0
176
     1
 90
       50
176
     1
 40
0.0
176
     1
 40
1.0
176
     1
 90
        0
176
     1
 62
    18
420
        0
176
     1
 90
       50
176
     1
 90
        3
176
     1
 62
     5
420
      255
176
     1
290
     0
176
     1
 90
       50
176
     1
 90
       50
176
     1
 90
       50
176
     1
290
     0
176
     1
 90
       50
176
     1
 62
   256
176
     0
 40
1.0
176
     0
 90
        2
176
     1
  1
strokes_ogs.tif
176
     1
290
     0
176
     1
 40
1.0
176
     1
 40
1.0
176
     1
  0
VISUALSTYLE
  5
41
102
{ACAD_REACTORS
330
2A
102
}
330
2A
100
AcDbVisualStyle
  2
Shaded with edges
 70
    26
177
     3
291
     0
 70
    58
 90
        2
176
     1
 90
        2
176
     1
 90
        1
176
     1
 90
        2
176
     1
 40
0.6
176
     1
 40
30.0
176
     1
 62
     7
420
 16777215
176
     1
 90
        1
176
     1
 90
       10
176
     1
 62
     7
176
     1
 62
   257
176
     1
 90
        2
176
     1
 90
        1
176
     1
 40
1.0
176
     1
 90
        8
176
     1
 62
   257
176
     1
 40
1.0
176
     1
 90
        1
176
     1
 90
        6
176
     1
 90
        2
176
     1
 62
     7
176
     1
 90
        3
176
     1
 90
        0
176
     1
 90
        0
176
     1
290
     0
176
     1
 90
        5
176
     1
 40
0.0
176
     1
 90
        0
176
     1
290
     0
176
     1
290
     1
176
     1
290
     1
176
     1
290
     0
176
     1
290
     0
176
     1
290
     0
176
     1
290
     0
176
     1
290
     0
176
     1
290
     0
176
     1
 90
       50
176
     1
 40
0.0
176
     1
 40
1.0
176
     1
 90
        0
176
     1
 62
    18
420
        0
176
     1
 90
       50
176
     1
 90
        3
176
     1
 62
     5
420
      255
176
     1
290
     0
176
     1
 90
       50
176
     1
 90
       50
176
     1
 90
       50
176
     1
290
     0
176
     1
 90
       50
176
     1
 62
   256
176
     0
 40
1.0
176
     0
 90
        2
176
     1
  1
strokes_ogs.tif
176
     1
290
     0
176
     1
 40
1.0
176
     1
 40
1.0
176
     1
  0
VISUALSTYLE
  5
3E
102
{ACAD_REACTORS
330
2A
102
}
330
2A
100
AcDbVisualStyle
  2
Shades of Gray
 70
    23
177
     3
291
     0
 70
    58
 90
        2
176
     1
 90
        2
176
     1
 90
        3
176
     1
 90
        0
176
     1
 40
0.6
176
     1
 40
30.0
176
     1
 62
     7
420
 16777215
176
     1
 90
        2
176
     1
 90
        2
176
     1
 62
     7
176
     1
 62
     7
176
     1
 90
        1
176
     1
 90
        1
176
     1
 40
40.0
176
     1
 90
        8
176
     1
 62
     7
176
     1
 40
1.0
176
     1
 90
        1
176
     1
 90
        6
176
     1
 90
        2
176
     1
 62
     7
176
     1
 90
        3
176
     1
 90
        0
176
     1
 90
        0
176
     1
290
     0
176
     1
 90
        1
176
     1
 40
0.0
176
     1
 90
        0
176
     1
290
     0
176
     1
290
     1
176
     1
290
     1
176
     1
290
     0
176
     1
290
     0
176
     1
290
     0
176
     1
290
     0
176
     1
290
     0
176
     1
290
     0
176
     1
 90
       50
176
     1
 40
0.0
176
     1
 40
1.0
176
     1
 90
        0
176
     1
 62
    18
420
        0
176
     1
 90
       50
176
     1
 90
        3
176
     1
 62
     5
420
      255
176
     1
290
     0
176
     1
 90
       50
176
     1
 90
       50
176
     1
 90
       50
176
     1
290
     0
176
     1
 90
       50
176
     1
 62
   256
176
     0
 40
1.0
176
     0
 90
        2
176
     1
  1
strokes_ogs.tif
176
     1
290
     0
176
     1
 40
1.0
176
     1
 40
1.0
176
     1
  0
VISUALSTYLE
  5
3F
102
{ACAD_REACTORS
330
2A
102
}
330
2A
100
AcDbVisualStyle
  2
Sketchy
 70
    24
177
     3
291
     0
 70
    58
 90
        1
176
     1
 90
        2
176
     1
 90
        2
176
     1
 90
        0
176
     1
 40
0.6
176
     1
 40
30.0
176
     1
 62
     7
420
 16777215
176
     1
 90
        2
176
     1
 90
        2
176
     1
 62
     7
176
     1
 62
     7
176
     1
 90
        1
176
     1
 90
        1
176
     1
 40
40.0
176
     1
 90
       11
176
     1
 62
     7
176
     1
 40
1.0
176
     1
 90
        1
176
     1
 90
        6
176
     1
 90
        2
176
     1
 62
     7
176
     1
 90
        6
176
     1
 90
        0
176
     1
 90
        0
176
     1
290
     0
176
     1
 90
        1
176
     1
 40
0.0
176
     1
 90
        0
176
     1
290
     0
176
     1
290
     1
176
     1
290
     1
176
     1
290
     0
176
     1
290
     0
176
     1
290
     0
176
     1
290
     0
176
     1
290
     0
176
     1
290
     0
176
     1
 90
       50
176
     1
 40
0.0
176
     1
 40
1.0
176
     1
 90
        0
176
     1
 62
    18
420
        0
176
     1
 90
       50
176
     1
 90
        3
176
     1
 62
     5
420
      255
176
     1
290
     0
176
     1
 90
       50
176
     1
 90
       50
176
     1
 90
       50
176
     1
290
     0
176
     1
 90
       50
176
     1
 62
   256
176
     0
 40
1.0
176
     0
 90
        2
176
     1
  1
strokes_ogs.tif
176
     1
290
     0
176
     1
 40
1.0
176
     1
 40
1.0
176
     1
  0
VISUALSTYLE
  5
37
102
{ACAD_REACTORS
330
2A
102
}
330
2A
100
AcDbVisualStyle
  2
Thicken
 70
    13
177
     3
291
     1
 70
    58
 90
        2
176
     1
 90
        2
176
     1
 90
        0
176
     1
 90
        0
176
     1
 40
0.6
176
     1
 40
30.0
176
     1
 62
     7
420
 16777215
176
     1
 90
        1
176
     1
 90
        4
176
     1
 62
     7
176
     1
 62
   257
176
     1
 90
        1
176
     1
 90
        1
176
     1
 40
1.0
176
     1
 90
       12
176
     1
 62
     7
176
     1
 40
1.0
176
     1
 90
        1
176
     1
 90
        6
176
     1
 90
        2
176
     1
 62
     7
176
     1
 90
        5
176
     1
 90
        0
176
     1
 90
        0
176
     1
290
     0
176
     1
 90
        1
176
     1
 40
0.0
176
     1
 90
        0
176
     1
290
     0
176
     1
290
     1
176
     1
290
     1
176
     1
290
     0
176
     1
290
     0
176
     1
290
     0
176
     1
290
     0
176
     1
290
     0
176
     1
290
     0
176
     1
 90
       50
176
     1
 40
0.0
176
     1
 40
1.0
176
     1
 90
        0
176
     1
 62
    18
420
        0
176
     1
 90
       50
176
     1
 90
        3
176
     1
 62
     5
420
      255
176
     1
290
     0
176
     1
 90
       50
176
     1
 90
       50
176
     1
 90
       50
176
     1
290
     0
176
     1
 90
       50
176
     1
 62
   256
176
     0
 40
1.0
176
     0
 90
        2
176
     1
  1
strokes_ogs.tif
176
     1
290
     0
176
     1
 40
1.0
176
     1
 40
1.0
176
     1
  0
VISUALSTYLE
  5
30
102
{ACAD_REACTORS
330
2A
102
}
330
2A
100
AcDbVisualStyle
  2
Wireframe
 70
     5
177
     3
291
     0
 70
    58
 90
        0
176
     1
 90
        2
176
     1
 90
        0
176
     1
 90
        0
176
     1
 40
0.6
176
     1
 40
30.0
176
     1
 62
     7
420
 16777215
176
     1
 90
        1
176
     1
 90
        4
176
     1
 62
     7
176
     1
 62
   257
176
     1
 90
        1
176
     1
 90
        1
176
     1
 40
1.0
176
     1
 90
        0
176
     1
 62
   257
176
     1
 40
1.0
176
     1
 90
        1
176
     1
 90
        6
176
     1
 90
        2
176
     1
 62
     7
176
     1
 90
        3
176
     1
 90
        0
176
     1
 90
        0
176
     1
290
     0
176
     1
 90
        1
176
     1
 40
0.0
176
     1
 90
        0
176
     1
290
     0
176
     1
290
     1
176
     1
290
     1
176
     1
290
     0
176
     1
290
     0
176
     1
290
     0
176
     1
290
     0
176
     1
290
     0
176
     1
290
     0
176
     1
 90
       50
176
     1
 40
0.0
176
     1
 40
1.0
176
     1
 90
        0
176
     1
 62
    18
420
        0
176
     1
 90
       50
176
     1
 90
        3
176
     1
 62
     5
420
      255
176
     1
290
     0
176
     1
 90
       50
176
     1
 90
       50
176
     1
 90
       50
176
     1
290
     0
176
     1
 90
       50
176
     1
 62
   256
176
     0
 40
1.0
176
     0
 90
        2
176
     1
  1
strokes_ogs.tif
176
     1
290
     0
176
     1
 40
1.0
176
     1
 40
1.0
176
     1
  0
VISUALSTYLE
  5
40
102
{ACAD_REACTORS
330
2A
102
}
330
2A
100
AcDbVisualStyle
  2
X-Ray
 70
    25
177
     3
291
     0
 70
    58
 90
        2
176
     1
 90
        2
176
     1
 90
        1
176
     1
 90
        1
176
     1
 40
0.5
176
     1
 40
30.0
176
     1
 62
     7
420
 16777215
176
     1
 90
        1
176
     1
 90
        0
176
     1
 62
     7
176
     1
 62
   257
176
     1
 90
        1
176
     1
 90
        1
176
     1
 40
1.0
176
     1
 90
        8
176
     1
 62
     7
176
     1
 40
1.0
176
     1
 90
        1
176
     1
 90
        6
176
     1
 90
        2
176
     1
 62
     7
176
     1
 90
        3
176
     1
 90
        0
176
     1
 90
        0
176
     1
290
     0
176
     1
 90
       13
176
     1
 40
0.0
176
     1
 90
        0
176
     1
290
     0
176
     1
290
     1
176
     1
290
     1
176
     1
290
     0
176
     1
290
     0
176
     1
290
     0
176
     1
290
     0
176
     1
290
     0
176
     1
290
     0
176
     1
 90
       50
176
     1
 40
0.0
176
     1
 40
1.0
176
     1
 90
        0
176
     1
 62
    18
420
        0
176
     1
 90
       50
176
     1
 90
        3
176
     1
 62
     5
420
      255
176
     1
290
     0
176
     1
 90
       50
176
     1
 90
       50
176
     1
 90
       50
176
     1
290
     0
176
     1
 90
       50
176
     1
 62
   256
176
     0
 40
1.0
176
     0
 90
        2
176
     1
  1
strokes_ogs.tif
176
     1
290
     0
176
     1
 40
1.0
176
     1
 40
1.0
176
     1
  0
DICTIONARYVAR
  5
139
102
{ACAD_REACTORS
330
138
102
}
330
138
100
DictionaryVariables
280
     0
  1
1:1
  0
DICTIONARYVAR
  5
141
102
{ACAD_REACTORS
330
138
102
}
330
138
100
DictionaryVariables
280
     0
  1
3.500000
  0
DICTIONARYVAR
  5
142
102
{ACAD_REACTORS
330
138
102
}
330
138
100
DictionaryVariables
280
     0
  1
acadiso.lin
  0
DICTIONARYVAR
  5
13E
102
{ACAD_REACTORS
330
138
102
}
330
138
100
DictionaryVariables
280
     0
  1
Standard
  0
DICTIONARYVAR
  5
13D
102
{ACAD_REACTORS
330
138
102
}
330
138
100
DictionaryVariables
280
     0
  1
Standard
  0
DICTIONARY
  5
13A
330
5A
100
AcDbDictionary
280
     1
281
     1
  3
ACAD_ROUNDTRIP_2008_TABLESTYLE_CELLSTYLEMAP
360
13B
  0
CELLSTYLEMAP
  5
13B
102
{ACAD_REACTORS
330
13A
102
}
330
13A
100
AcDbCellStyleMap
 90
        3
300
CELLSTYLE
  1
TABLEFORMAT_BEGIN
 90
        5
170
     1
 91
        0
 92
    32768
 62
   257
 93
        1
300
CONTENTFORMAT
  1
CONTENTFORMAT_BEGIN
 90
        0
 91
        0
 92
        4
 93
        0
300

 40
0.0
140
1.0
 94
        5
 62
     0
340
11
144
6.0
309
CONTENTFORMAT_END
171
     1
301
MARGIN
  1
CELLMARGIN_BEGIN
 40
1.5
 40
1.5
 40
1.5
 40
1.5
 40
1.5
 40
1.5
309
CELLMARGIN_END
 94
        6
 95
        1
302
GRIDFORMAT
  1
GRIDFORMAT_BEGIN
 90
        0
 91
        1
 62
     0
 92
       -2
340
14
 93
        0
 40
0.045
309
GRIDFORMAT_END
 95
        2
302
GRIDFORMAT
  1
GRIDFORMAT_BEGIN
 90
        0
 91
        1
 62
     0
 92
       -2
340
14
 93
        0
 40
0.045
309
GRIDFORMAT_END
 95
        4
302
GRIDFORMAT
  1
GRIDFORMAT_BEGIN
 90
        0
 91
        1
 62
     0
 92
       -2
340
14
 93
        0
 40
0.045
309
GRIDFORMAT_END
 95
        8
302
GRIDFORMAT
  1
GRIDFORMAT_BEGIN
 90
        0
 91
        1
 62
     0
 92
       -2
340
14
 93
        0
 40
0.045
309
GRIDFORMAT_END
 95
       16
302
GRIDFORMAT
  1
GRIDFORMAT_BEGIN
 90
        0
 91
        1
 62
     0
 92
       -2
340
14
 93
        0
 40
0.045
309
GRIDFORMAT_END
 95
       32
302
GRIDFORMAT
  1
GRIDFORMAT_BEGIN
 90
        0
 91
        1
 62
     0
 92
       -2
340
14
 93
        0
 40
0.045
309
GRIDFORMAT_END
309
TABLEFORMAT_END
  1
CELLSTYLE_BEGIN
 90
        1
 91
        1
300
_TITLE
309
CELLSTYLE_END
300
CELLSTYLE
  1
TABLEFORMAT_BEGIN
 90
        5
170
     1
 91
        0
 92
        0
 62
   257
 93
        1
300
CONTENTFORMAT
  1
CONTENTFORMAT_BEGIN
 90
        0
 91
        0
 92
        4
 93
        0
300

 40
0.0
140
1.0
 94
        5
 62
     0
340
11
144
4.5
309
CONTENTFORMAT_END
171
     1
301
MARGIN
  1
CELLMARGIN_BEGIN
 40
1.5
 40
1.5
 40
1.5
 40
1.5
 40
1.5
 40
1.5
309
CELLMARGIN_END
 94
        6
 95
        1
302
GRIDFORMAT
  1
GRIDFORMAT_BEGIN
 90
        0
 91
        1
 62
     0
 92
       -2
340
14
 93
        0
 40
0.045
309
GRIDFORMAT_END
 95
        2
302
GRIDFORMAT
  1
GRIDFORMAT_BEGIN
 90
        0
 91
        1
 62
     0
 92
       -2
340
14
 93
        0
 40
0.045
309
GRIDFORMAT_END
 95
        4
302
GRIDFORMAT
  1
GRIDFORMAT_BEGIN
 90
        0
 91
        1
 62
     0
 92
       -2
340
14
 93
        0
 40
0.045
309
GRIDFORMAT_END
 95
        8
302
GRIDFORMAT
  1
GRIDFORMAT_BEGIN
 90
        0
 91
        1
 62
     0
 92
       -2
340
14
 93
        0
 40
0.045
309
GRIDFORMAT_END
 95
       16
302
GRIDFORMAT
  1
GRIDFORMAT_BEGIN
 90
        0
 91
        1
 62
     0
 92
       -2
340
14
 93
        0
 40
0.045
309
GRIDFORMAT_END
 95
       32
302
GRIDFORMAT
  1
GRIDFORMAT_BEGIN
 90
        0
 91
        1
 62
     0
 92
       -2
340
14
 93
        0
 40
0.045
309
GRIDFORMAT_END
309
TABLEFORMAT_END
  1
CELLSTYLE_BEGIN
 90
        2
 91
        1
300
_HEADER
309
CELLSTYLE_END
300
CELLSTYLE
  1
TABLEFORMAT_BEGIN
 90
        5
170
     1
 91
        0
 92
        0
 62
   257
 93
        1
300
CONTENTFORMAT
  1
CONTENTFORMAT_BEGIN
 90
        0
 91
        0
 92
        4
 93
        0
300

 40
0.0
140
1.0
 94
        2
 62
     0
340
11
144
4.5
309
CONTENTFORMAT_END
171
     1
301
MARGIN
  1
CELLMARGIN_BEGIN
 40
1.5
 40
1.5
 40
1.5
 40
1.5
 40
1.5
 40
1.5
309
CELLMARGIN_END
 94
        6
 95
        1
302
GRIDFORMAT
  1
GRIDFORMAT_BEGIN
 90
        0
 91
        1
 62
     0
 92
       -2
340
14
 93
        0
 40
0.045
309
GRIDFORMAT_END
 95
        2
302
GRIDFORMAT
  1
GRIDFORMAT_BEGIN
 90
        0
 91
        1
 62
     0
 92
       -2
340
14
 93
        0
 40
0.045
309
GRIDFORMAT_END
 95
        4
302
GRIDFORMAT
  1
GRIDFORMAT_BEGIN
 90
        0
 91
        1
 62
     0
 92
       -2
340
14
 93
        0
 40
0.045
309
GRIDFORMAT_END
 95
        8
302
GRIDFORMAT
  1
GRIDFORMAT_BEGIN
 90
        0
 91
        1
 62
     0
 92
       -2
340
14
 93
        0
 40
0.045
309
GRIDFORMAT_END
 95
       16
302
GRIDFORMAT
  1
GRIDFORMAT_BEGIN
 90
        0
 91
        1
 62
     0
 92
       -2
340
14
 93
        0
 40
0.045
309
GRIDFORMAT_END
 95
       32
302
GRIDFORMAT
  1
GRIDFORMAT_BEGIN
 90
        0
 91
        1
 62
     0
 92
       -2
340
14
 93
        0
 40
0.045
309
GRIDFORMAT_END
309
TABLEFORMAT_END
  1
CELLSTYLE_BEGIN
 90
        3
 91
        2
300
_DATA
309
CELLSTYLE_END
  0
ENDSEC
  0
EOF
