  0
SECTION
  2
HEADER
  9
$ACADVER
  1
AC1027
  9
$ACADMAINTVER
 70
   105
  9
$DWGCODEPAGE
  3
ANSI_1252
  9
$LASTSAVEDBY
  1
Nick
  9
$REQUIREDVERSIONS
160
                 0
  9
$INSBASE
 10
0.0
 20
0.0
 30
0.0
  9
$EXTMIN
 10
0.0
 20
0.0
 30
0.0
  9
$EXTMAX
 10
420.0
 20
297.0
 30
0.0
  9
$LIMMIN
 10
0.0
 20
0.0
  9
$LIMMAX
 10
420.0
 20
297.0
  9
$ORTHOMODE
 70
     0
  9
$REGENMODE
 70
     1
  9
$FILLMODE
 70
     1
  9
$QTEXTMODE
 70
     0
  9
$MIRRTEXT
 70
     1
  9
$LTSCALE
 40
1.0
  9
$ATTMODE
 70
     1
  9
$TEXTSIZE
 40
4.2333333333
  9
$TRACEWID
 40
1.0
  9
$TEXTSTYLE
  7
Standard
  9
$CLAYER
  8
0
  9
$CELTYPE
  6
ByLayer
  9
$CECOLOR
 62
   256
  9
$CELTSCALE
 40
1.0
  9
$DISPSILH
 70
     0
  9
$DIMSCALE
 40
1.0
  9
$DIMASZ
 40
3.302
  9
$DIMEXO
 40
1.0
  9
$DIMDLI
 40
3.75
  9
$DIMRND
 40
0.0
  9
$DIMDLE
 40
0.0
  9
$DIMEXE
 40
1.0
  9
$DIMTP
 40
0.0
  9
$DIMTM
 40
0.0
  9
$DIMTXT
 40
4.2333333333
  9
$DIMCEN
 40
2.5
  9
$DIMTSZ
 40
0.0
  9
$DIMTOL
 70
     0
  9
$DIMLIM
 70
     0
  9
$DIMTIH
 70
     1
  9
$DIMTOH
 70
     1
  9
$DIMSE1
 70
     0
  9
$DIMSE2
 70
     0
  9
$DIMTAD
 70
     1
  9
$DIMZIN
 70
     1
  9
$DIMBLK
  1

  9
$DIMASO
 70
     1
  9
$DIMSHO
 70
     1
  9
$DIMPOST
  1

  9
$DIMAPOST
  1

  9
$DIMALT
 70
     0
  9
$DIMALTD
 70
     3
  9
$DIMALTF
 40
0.0393700787
  9
$DIMLFAC
 40
1.0
  9
$DIMTOFL
 70
     1
  9
$DIMTVP
 40
0.0
  9
$DIMTIX
 70
     0
  9
$DIMSOXD
 70
     0
  9
$DIMSAH
 70
     0
  9
$DIMBLK1
  1

  9
$DIMBLK2
  1

  9
$DIMSTYLE
  2
ISO-25
  9
$DIMCLRD
 70
     0
  9
$DIMCLRE
 70
     0
  9
$DIMCLRT
 70
     0
  9
$DIMTFAC
 40
1.0
  9
$DIMGAP
 40
1.524
  9
$DIMJUST
 70
     0
  9
$DIMSD1
 70
     0
  9
$DIMSD2
 70
     0
  9
$DIMTOLJ
 70
     0
  9
$DIMTZIN
 70
     1
  9
$DIMALTZ
 70
     0
  9
$DIMALTTZ
 70
     0
  9
$DIMUPT
 70
     0
  9
$DIMDEC
 70
     0
  9
$DIMTDEC
 70
     0
  9
$DIMALTU
 70
     2
  9
$DIMALTTD
 70
     3
  9
$DIMTXSTY
  7
Standard
  9
$DIMAUNIT
 70
     0
  9
$DIMADEC
 70
     2
  9
$DIMALTRND
 40
0.0
  9
$DIMAZIN
 70
     0
  9
$DIMDSEP
 70
    44
  9
$DIMATFIT
 70
     3
  9
$DIMFRAC
 70
     0
  9
$DIMLDRBLK
  1

  9
$DIMLUNIT
 70
     2
  9
$DIMLWD
 70
    -2
  9
$DIMLWE
 70
    -2
  9
$DIMTMOVE
 70
     0
  9
$DIMFXL
 40
1.0
  9
$DIMFXLON
 70
     0
  9
$DIMJOGANG
 40
0.7853981634
  9
$DIMTFILL
 70
     0
  9
$DIMTFILLCLR
 70
     0
  9
$DIMARCSYM
 70
     0
  9
$DIMLTYPE
  6

  9
$DIMLTEX1
  6

  9
$DIMLTEX2
  6

  9
$DIMTXTDIRECTION
 70
     0
  9
$LUNITS
 70
     2
  9
$LUPREC
 70
     0
  9
$SKETCHINC
 40
1.0
  9
$FILLETRAD
 40
0.0
  9
$AUNITS
 70
     0
  9
$AUPREC
 70
     2
  9
$MENU
  1
.
  9
$ELEVATION
 40
0.0
  9
$PELEVATION
 40
0.0
  9
$THICKNESS
 40
0.0
  9
$LIMCHECK
 70
     0
  9
$CHAMFERA
 40
0.0
  9
$CHAMFERB
 40
0.0
  9
$CHAMFERC
 40
0.0
  9
$CHAMFERD
 40
0.0
  9
$SKPOLY
 70
     0
  9
$TDCREATE
 40
2460934.609594236
  9
$TDUCREATE
 40
2460934.19292757
  9
$TDUPDATE
 40
2460934.609594491
  9
$TDUUPDATE
 40
2460934.192927824
  9
$TDINDWG
 40
0.0000000116
  9
$TDUSRTIMER
 40
0.0000000116
  9
$USRTIMER
 70
     1
  9
$ANGBASE
 50
0.0
  9
$ANGDIR
 70
     0
  9
$PDMODE
 70
     0
  9
$PDSIZE
 40
-1.0
  9
$PLINEWID
 40
0.0
  9
$SPLFRAME
 70
     0
  9
$SPLINETYPE
 70
     6
  9
$SPLINESEGS
 70
     8
  9
$HANDSEED
  5
11E
  9
$SURFTAB1
 70
     6
  9
$SURFTAB2
 70
     6
  9
$SURFTYPE
 70
     6
  9
$SURFU
 70
     6
  9
$SURFV
 70
     6
  9
$UCSBASE
  2

  9
$UCSNAME
  2

  9
$UCSORG
 10
0.0
 20
0.0
 30
0.0
  9
$UCSXDIR
 10
1.0
 20
0.0
 30
0.0
  9
$UCSYDIR
 10
0.0
 20
1.0
 30
0.0
  9
$UCSORTHOREF
  2

  9
$UCSORTHOVIEW
 70
     0
  9
$UCSORGTOP
 10
0.0
 20
0.0
 30
0.0
  9
$UCSORGBOTTOM
 10
0.0
 20
0.0
 30
0.0
  9
$UCSORGLEFT
 10
0.0
 20
0.0
 30
0.0
  9
$UCSORGRIGHT
 10
0.0
 20
0.0
 30
0.0
  9
$UCSORGFRONT
 10
0.0
 20
0.0
 30
0.0
  9
$UCSORGBACK
 10
0.0
 20
0.0
 30
0.0
  9
$PUCSBASE
  2

  9
$PUCSNAME
  2

  9
$PUCSORG
 10
0.0
 20
0.0
 30
0.0
  9
$PUCSXDIR
 10
1.0
 20
0.0
 30
0.0
  9
$PUCSYDIR
 10
0.0
 20
1.0
 30
0.0
  9
$PUCSORTHOREF
  2

  9
$PUCSORTHOVIEW
 70
     0
  9
$PUCSORGTOP
 10
0.0
 20
0.0
 30
0.0
  9
$PUCSORGBOTTOM
 10
0.0
 20
0.0
 30
0.0
  9
$PUCSORGLEFT
 10
0.0
 20
0.0
 30
0.0
  9
$PUCSORGRIGHT
 10
0.0
 20
0.0
 30
0.0
  9
$PUCSORGFRONT
 10
0.0
 20
0.0
 30
0.0
  9
$PUCSORGBACK
 10
0.0
 20
0.0
 30
0.0
  9
$USERI1
 70
     0
  9
$USERI2
 70
     0
  9
$USERI3
 70
     0
  9
$USERI4
 70
     0
  9
$USERI5
 70
     0
  9
$USERR1
 40
0.0
  9
$USERR2
 40
0.0
  9
$USERR3
 40
0.0
  9
$USERR4
 40
0.0
  9
$USERR5
 40
0.0
  9
$WORLDVIEW
 70
     1
  9
$SHADEDGE
 70
     3
  9
$SHADEDIF
 70
    70
  9
$TILEMODE
 70
     1
  9
$MAXACTVP
 70
    64
  9
$PINSBASE
 10
0.0
 20
0.0
 30
0.0
  9
$PLIMCHECK
 70
     0
  9
$PEXTMIN
 10
1.0000000000E+20
 20
1.0000000000E+20
 30
1.0000000000E+20
  9
$PEXTMAX
 10
-1.0000000000E+20
 20
-1.0000000000E+20
 30
-1.0000000000E+20
  9
$PLIMMIN
 10
0.0
 20
0.0
  9
$PLIMMAX
 10
420.0
 20
297.0
  9
$UNITMODE
 70
     0
  9
$VISRETAIN
 70
     1
  9
$PLINEGEN
 70
     0
  9
$PSLTSCALE
 70
     1
  9
$TREEDEPTH
 70
  3020
  9
$CMLSTYLE
  2
Standard
  9
$CMLJUST
 70
     0
  9
$CMLSCALE
 40
20.0
  9
$PROXYGRAPHICS
 70
     1
  9
$MEASUREMENT
 70
     1
  9
$CELWEIGHT
370
    -1
  9
$ENDCAPS
280
     0
  9
$JOINSTYLE
280
     0
  9
$LWDISPLAY
290
     1
  9
$INSUNITS
 70
     4
  9
$HYPERLINKBASE
  1

  9
$STYLESHEET
  1

  9
$XEDIT
290
     1
  9
$CEPSNTYPE
380
     0
  9
$PSTYLEMODE
290
     1
  9
$FINGERPRINTGUID
  2
{18d90d32-9c4c-4444-9b98-fc5da393f5cd}
  9
$VERSIONGUID
  2
{FAEB1C32-E019-11D5-929B-00C0DF256EC4}
  9
$EXTNAMES
290
     1
  9
$PSVPSCALE
 40
0.0
  9
$OLESTARTUP
290
     0
  9
$SORTENTS
280
   127
  9
$INDEXCTL
280
     0
  9
$HIDETEXT
280
     1
  9
$XCLIPFRAME
280
     2
  9
$HALOGAP
280
     0
  9
$OBSCOLOR
 70
   257
  9
$OBSLTYPE
280
     0
  9
$INTERSECTIONDISPLAY
280
     0
  9
$INTERSECTIONCOLOR
 70
   257
  9
$DIMASSOC
280
     2
  9
$PROJECTNAME
  1

  9
$CAMERADISPLAY
290
     0
  9
$LENSLENGTH
 40
50.0
  9
$CAMERAHEIGHT
 40
0.0
  9
$STEPSPERSEC
 40
2.0
  9
$STEPSIZE
 40
6.0
  9
$3DDWFPREC
 40
2.0
  9
$PSOLWIDTH
 40
5.0
  9
$PSOLHEIGHT
 40
80.0
  9
$LOFTANG1
 40
1.5707963268
  9
$LOFTANG2
 40
1.5707963268
  9
$LOFTMAG1
 40
0.0
  9
$LOFTMAG2
 40
0.0
  9
$LOFTPARAM
 70
     7
  9
$LOFTNORMALS
280
     1
  9
$LATITUDE
 40
37.795
  9
$LONGITUDE
 40
-122.394
  9
$NORTHDIRECTION
 40
0.0
  9
$TIMEZONE
 70
 -8000
  9
$LIGHTGLYPHDISPLAY
280
     1
  9
$TILEMODELIGHTSYNCH
280
     1
  9
$CMATERIAL
347
44
  9
$SOLIDHIST
280
     0
  9
$SHOWHIST
280
     1
  9
$DWFFRAME
280
     2
  9
$DGNFRAME
280
     2
  9
$REALWORLDSCALE
290
     1
  9
$INTERFERECOLOR
 62
   256
  9
$CSHADOW
280
     0
  9
$SHADOWPLANELOCATION
 40
0.0
  0
ENDSEC
  0
SECTION
  2
CLASSES
  0
CLASS
  1
ACDBDICTIONARYWDFLT
  2
AcDbDictionaryWithDefault
  3
ObjectDBX Classes
 90
        0
 91
        3
280
     0
281
     0
  0
CLASS
  1
VISUALSTYLE
  2
AcDbVisualStyle
  3
ObjectDBX Classes
 90
     4095
 91
        3
280
     0
281
     0
  0
CLASS
  1
MATERIAL
  2
AcDbMaterial
  3
ObjectDBX Classes
 90
     1153
 91
        3
280
     0
281
     0
  0
CLASS
  1
SCALE
  2
AcDbScale
  3
ObjectDBX Classes
 90
     1153
 91
        3
280
     0
281
     0
  0
CLASS
  1
TABLESTYLE
  2
AcDbTableStyle
  3
ObjectDBX Classes
 90
     4095
 91
        3
280
     0
281
     0
  0
CLASS
  1
MLEADERSTYLE
  2
AcDbMLeaderStyle
  3
ACDB_MLEADERSTYLE_CLASS
 90
     4095
 91
        3
280
     0
281
     0
  0
CLASS
  1
SUN
  2
AcDbSun
  3
SCENEOE
 90
     1153
 91
        3
280
     0
281
     0
  0
CLASS
  1
DICTIONARYVAR
  2
AcDbDictionaryVar
  3
ObjectDBX Classes
 90
        0
 91
        3
280
     0
281
     0
  0
CLASS
  1
CELLSTYLEMAP
  2
AcDbCellStyleMap
  3
ObjectDBX Classes
 90
     1152
 91
        3
280
     0
281
     0
  0
ENDSEC
  0
SECTION
  2
TABLES
  0
TABLE
  2
VPORT
  5
8
330
0
100
AcDbSymbolTable
 70
     1
  0
VPORT
  5
29
330
8
100
AcDbSymbolTableRecord
100
AcDbViewportTableRecord
  2
*Active
 70
     0
 10
0.0
 20
0.0
 11
1.0
 21
1.0
 12
210.0
 22
148.5
 13
0.0
 23
0.0
 14
10.0
 24
10.0
 15
10.0
 25
10.0
 16
0.0
 26
0.0
 36
1.0
 17
0.0
 27
0.0
 37
0.0
 40
297.0
 41
1.4141414141
 42
50.0
 43
0.0
 44
0.0
 50
0.0
 51
0.0
 71
     0
 72
  2000
 73
     1
 74
     3
 75
     0
 76
     0
 77
     0
 78
     0
281
     0
 65
     1
110
0.0
120
0.0
130
0.0
111
1.0
121
0.0
131
0.0
112
0.0
122
1.0
132
0.0
 79
     0
146
0.0
348
2F
 60
     3
 61
     5
292
     1
282
     1
141
0.0
142
0.0
 63
   250
361
5D
  0
ENDTAB
  0
TABLE
  2
LTYPE
  5
5
330
0
100
AcDbSymbolTable
 70
     6
  0
LTYPE
  5
14
330
5
100
AcDbSymbolTableRecord
100
AcDbLinetypeTableRecord
  2
ByBlock
 70
     0
  3

 72
    65
 73
     0
 40
0.0
  0
LTYPE
  5
15
330
5
100
AcDbSymbolTableRecord
100
AcDbLinetypeTableRecord
  2
ByLayer
 70
     0
  3

 72
    65
 73
     0
 40
0.0
  0
LTYPE
  5
16
330
5
100
AcDbSymbolTableRecord
100
AcDbLinetypeTableRecord
  2
Continuous
 70
     0
  3
Solid line
 72
    65
 73
     0
 40
0.0
  0
LTYPE
  5
5E
330
5
100
AcDbSymbolTableRecord
100
AcDbLinetypeTableRecord
  2
HIDDEN
 70
     0
  3
Hidden __ __ __ __ __ __ __ __ __ __ __ __ __ __
 72
    65
 73
     2
 40
1.905
 49
1.27
 74
     0
 49
-0.635
 74
     0
  0
LTYPE
  5
5F
330
5
100
AcDbSymbolTableRecord
100
AcDbLinetypeTableRecord
  2
PHANTOM
 70
     0
  3
Phantom ______  __  __  ______  __  __  ______
 72
    65
 73
     6
 40
12.7
 49
6.35
 74
     0
 49
-1.27
 74
     0
 49
1.27
 74
     0
 49
-1.27
 74
     0
 49
1.27
 74
     0
 49
-1.27
 74
     0
  0
LTYPE
  5
60
330
5
100
AcDbSymbolTableRecord
100
AcDbLinetypeTableRecord
  2
CENTER
 70
     0
  3
Center ____ _ ____ _ ____ _ ____ _ ____ _ ____
 72
    65
 73
     4
 40
10.16
 49
6.35
 74
     0
 49
-1.27
 74
     0
 49
1.27
 74
     0
 49
-1.27
 74
     0
  0
LTYPE
  5
61
330
5
100
AcDbSymbolTableRecord
100
AcDbLinetypeTableRecord
  2
CENTERX2
 70
     0
  3
Center (2x) ________  __  ________  __  _____
 72
    65
 73
     4
 40
20.32
 49
12.7
 74
     0
 49
-2.54
 74
     0
 49
2.54
 74
     0
 49
-2.54
 74
     0
  0
LTYPE
  5
62
330
5
100
AcDbSymbolTableRecord
100
AcDbLinetypeTableRecord
  2
DOT2
 70
     0
  3
Dot (.5x) ........................................
 72
    65
 73
     2
 40
0.635
 49
0.0
 74
     0
 49
-0.635
 74
     0
  0
ENDTAB
  0
TABLE
  2
LAYER
  5
2
330
0
100
AcDbSymbolTable
 70
    13
  0
LAYER
  5
10
330
2
100
AcDbSymbolTableRecord
100
AcDbLayerTableRecord
  2
0
 70
     0
 62
     7
  6
Continuous
370
    -3
390
F
347
46
348
0
  0
LAYER
  5
63
330
2
100
AcDbSymbolTableRecord
100
AcDbLayerTableRecord
  2
DRAWING-SHEET
 70
     0
 62
   179
  6
Continuous
370
    -3
390
F
347
46
348
0
  0
LAYER
  5
64
330
2
100
AcDbSymbolTableRecord
100
AcDbLayerTableRecord
  2
BORDER
 70
     0
 62
   179
  6
Continuous
370
    -3
390
F
347
46
348
0
  0
LAYER
  5
65
330
2
100
AcDbSymbolTableRecord
100
AcDbLayerTableRecord
  2
DIMENSIONS
 70
     0
 62
     7
  6
Continuous
370
    -3
390
F
347
46
348
0
  0
LAYER
  5
66
330
2
100
AcDbSymbolTableRecord
100
AcDbLayerTableRecord
  2
CENTRE_LINES
 70
     0
 62
     7
  6
Continuous
370
    -3
390
F
347
46
348
0
  0
LAYER
  5
67
330
2
100
AcDbSymbolTableRecord
100
AcDbLayerTableRecord
  2
FORMAT
 70
     0
 62
     7
  6
Continuous
370
    -3
390
F
347
46
348
0
  0
LAYER
  5
68
330
2
100
AcDbSymbolTableRecord
100
AcDbLayerTableRecord
  2
SLD-0
 70
     0
 62
   179
  6
Continuous
370
    -3
390
F
347
46
348
0
  0
LAYER
  5
69
330
2
100
AcDbSymbolTableRecord
100
AcDbLayerTableRecord
  2
OUTLINE
 70
     0
 62
     4
  6
Continuous
370
    -3
390
F
347
46
348
0
  0
LAYER
  5
6A
330
2
100
AcDbSymbolTableRecord
100
AcDbLayerTableRecord
  2
4
 70
     0
 62
     7
  6
Continuous
370
    70
390
F
347
46
348
0
  0
LAYER
  5
6B
330
2
100
AcDbSymbolTableRecord
100
AcDbLayerTableRecord
  2
TEXT25
 70
     0
 62
   179
  6
Continuous
370
    -3
390
F
347
46
348
0
  0
LAYER
  5
6C
330
2
100
AcDbSymbolTableRecord
100
AcDbLayerTableRecord
  2
TEXT35
 70
     0
 62
     7
  6
Continuous
370
    -3
390
F
347
46
348
0
  0
LAYER
  5
6D
330
2
100
AcDbSymbolTableRecord
100
AcDbLayerTableRecord
  2
TEXT5
 70
     0
 62
     7
  6
Continuous
370
    -3
390
F
347
46
348
0
  0
LAYER
  5
6E
330
2
100
AcDbSymbolTableRecord
100
AcDbLayerTableRecord
  2
5
 70
     0
 62
     7
  6
Continuous
370
    35
390
F
347
46
348
0
  0
ENDTAB
  0
TABLE
  2
STYLE
  5
3
330
0
100
AcDbSymbolTable
 70
     3
  0
STYLE
  5
11
330
3
100
AcDbSymbolTableRecord
100
AcDbTextStyleTableRecord
  2
Standard
 70
     0
 40
0.0
 41
1.0
 50
0.0
 71
     0
 42
4.2333333333
  3
txt
  4

  0
STYLE
  5
75
330
3
100
AcDbSymbolTableRecord
100
AcDbTextStyleTableRecord
  2
SLDTEXTSTYLE0
 70
     0
 40
0.0
 41
0.75
 50
0.0
 71
     0
 42
4.2333333333
  3
TXT
  4

  0
STYLE
  5
7B
330
3
100
AcDbSymbolTableRecord
100
AcDbTextStyleTableRecord
  2
SLDTEXTSTYLE1
 70
     0
 40
0.0
 41
0.6
 50
0.0
 71
     0
 42
4.2333333333
  3
TXT
  4

  0
ENDTAB
  0
TABLE
  2
VIEW
  5
6
330
0
100
AcDbSymbolTable
 70
     0
  0
ENDTAB
  0
TABLE
  2
UCS
  5
7
330
0
100
AcDbSymbolTable
 70
     0
  0
ENDTAB
  0
TABLE
  2
APPID
  5
9
330
0
100
AcDbSymbolTable
 70
     1
  0
APPID
  5
12
330
9
100
AcDbSymbolTableRecord
100
AcDbRegAppTableRecord
  2
ACAD
 70
     0
  0
ENDTAB
  0
TABLE
  2
DIMSTYLE
  5
A
330
0
100
AcDbSymbolTable
 70
     1
100
AcDbDimStyleTable
  0
DIMSTYLE
105
27
330
A
100
AcDbSymbolTableRecord
100
AcDbDimStyleTableRecord
  2
ISO-25
 70
     0
 41
2.5
 42
0.625
 43
3.75
 44
1.25
 73
     0
 74
     0
 77
     1
 78
     8
140
2.5
141
2.5
143
0.0393700787
147
0.625
171
     3
172
     1
178
     0
271
     2
272
     2
274
     3
278
    44
283
     0
284
     8
340
11
  0
ENDTAB
  0
TABLE
  2
BLOCK_RECORD
  5
1
330
0
100
AcDbSymbolTable
 70
     6
  0
BLOCK_RECORD
  5
1F
330
1
100
AcDbSymbolTableRecord
100
AcDbBlockTableRecord
  2
*Model_Space
340
22
 70
     0
280
     1
281
     0
  0
BLOCK_RECORD
  5
1B
330
1
100
AcDbSymbolTableRecord
100
AcDbBlockTableRecord
  2
*Paper_Space
340
1E
 70
     0
280
     1
281
     0
  0
BLOCK_RECORD
  5
23
330
1
100
AcDbSymbolTableRecord
100
AcDbBlockTableRecord
  2
*Paper_Space0
340
26
 70
     0
280
     1
281
     0
  0
BLOCK_RECORD
  5
6F
330
1
100
AcDbSymbolTableRecord
100
AcDbBlockTableRecord
  2
Block1
340
0
 70
     0
280
     1
281
     0
  0
BLOCK_RECORD
  5
72
330
1
100
AcDbSymbolTableRecord
100
AcDbBlockTableRecord
  2
SW_NOTE_0
340
0
102
{BLKREFS
331
77
102
}
 70
     0
280
     1
281
     0
  0
BLOCK_RECORD
  5
78
330
1
100
AcDbSymbolTableRecord
100
AcDbBlockTableRecord
  2
SW_NOTE_0_1
340
0
102
{BLKREFS
331
7D
102
}
 70
     0
280
     1
281
     0
  0
BLOCK_RECORD
  5
7E
330
1
100
AcDbSymbolTableRecord
100
AcDbBlockTableRecord
  2
SW_NOTE_0_2
340
0
102
{BLKREFS
331
82
102
}
 70
     0
280
     1
281
     0
  0
BLOCK_RECORD
  5
83
330
1
100
AcDbSymbolTableRecord
100
AcDbBlockTableRecord
  2
SW_NOTE_0_3
340
0
102
{BLKREFS
331
87
102
}
 70
     0
280
     1
281
     0
  0
ENDTAB
  0
ENDSEC
  0
SECTION
  2
BLOCKS
  0
BLOCK
  5
20
330
1F
100
AcDbEntity
  8
0
100
AcDbBlockBegin
  2
*Model_Space
 70
     0
 10
0.0
 20
0.0
 30
0.0
  3
*Model_Space
  1

  0
ENDBLK
  5
21
330
1F
100
AcDbEntity
  8
0
100
AcDbBlockEnd
  0
BLOCK
  5
1C
330
1B
100
AcDbEntity
 67
     1
  8
0
100
AcDbBlockBegin
  2
*Paper_Space
 70
     0
 10
0.0
 20
0.0
 30
0.0
  3
*Paper_Space
  1

  0
ENDBLK
  5
1D
330
1B
100
AcDbEntity
 67
     1
  8
0
100
AcDbBlockEnd
  0
BLOCK
  5
24
330
23
100
AcDbEntity
  8
0
100
AcDbBlockBegin
  2
*Paper_Space0
 70
     0
 10
0.0
 20
0.0
 30
0.0
  3
*Paper_Space0
  1

  0
ENDBLK
  5
25
330
23
100
AcDbEntity
  8
0
100
AcDbBlockEnd
  0
BLOCK
  5
70
330
6F
100
AcDbEntity
  8
0
100
AcDbBlockBegin
  2
Block1
 70
     0
 10
0.0
 20
0.0
 30
0.0
  3
Block1
  1

  0
INSERT
  5
77
330
6F
100
AcDbEntity
  8
0
  6
Continuous
 62
     7
370
     0
100
AcDbBlockReference
  2
SW_NOTE_0
 10
40.5248655077
 20
20.5912386523
 30
0.0
  0
INSERT
  5
7D
330
6F
100
AcDbEntity
  8
DRAWING-SHEET
 62
     7
100
AcDbBlockReference
  2
SW_NOTE_0_1
 10
3.556761253
 20
-0.3611706024
 30
0.0
  0
INSERT
  5
82
330
6F
100
AcDbEntity
  8
DRAWING-SHEET
 62
     7
100
AcDbBlockReference
  2
SW_NOTE_0_2
 10
7.9590819428
 20
3.0109637777
 30
0.0
  0
INSERT
  5
87
330
6F
100
AcDbEntity
  8
DRAWING-SHEET
 62
     7
100
AcDbBlockReference
  2
SW_NOTE_0_3
 10
0.0721004934
 20
6.5234823937
 30
0.0
  0
ENDBLK
  5
71
330
6F
100
AcDbEntity
  8
0
100
AcDbBlockEnd
  0
BLOCK
  5
73
330
72
100
AcDbEntity
  8
0
100
AcDbBlockBegin
  2
SW_NOTE_0
 70
     0
 10
0.0
 20
0.0
 30
0.0
  3
SW_NOTE_0
  1

  0
MTEXT
  5
76
330
72
100
AcDbEntity
  8
0
  6
Continuous
 62
     0
370
     0
100
AcDbMText
 10
0.0
 20
1.9336016097
 30
0.0
 40
1.5
 41
0.0
 46
0.0
 71
     1
 72
     1
  1
TITLE:
  7
SLDTEXTSTYLE0
 73
     1
 44
1.0
  0
ENDBLK
  5
74
330
72
100
AcDbEntity
  8
0
100
AcDbBlockEnd
  0
BLOCK
  5
79
330
78
100
AcDbEntity
  8
0
100
AcDbBlockBegin
  2
SW_NOTE_0_1
 70
     0
 10
0.0
 20
0.0
 30
0.0
  3
SW_NOTE_0_1
  1

  0
MTEXT
  5
7C
330
78
100
AcDbEntity
  8
DRAWING-SHEET
 62
     0
100
AcDbMText
 10
0.0
 20
2.7285267159
 30
0.0
 40
2.1166666667
 41
0.0
 46
0.0
 71
     1
 72
     1
  1
Email: roddyeng.com.au
  7
SLDTEXTSTYLE1
 73
     1
 44
1.0
  0
ENDBLK
  5
7A
330
78
100
AcDbEntity
  8
0
100
AcDbBlockEnd
  0
BLOCK
  5
7F
330
7E
100
AcDbEntity
  8
0
100
AcDbBlockBegin
  2
SW_NOTE_0_2
 70
     0
 10
0.0
 20
0.0
 30
0.0
  3
SW_NOTE_0_2
  1

  0
MTEXT
  5
81
330
7E
100
AcDbEntity
  8
DRAWING-SHEET
 62
     0
100
AcDbMText
 10
0.0
 20
2.7285267159
 30
0.0
 40
2.1166666667
 41
0.0
 46
0.0
 71
     1
 72
     1
  1
Ph: - 02 6947 4039
  7
SLDTEXTSTYLE1
 73
     1
 44
1.0
  0
ENDBLK
  5
80
330
7E
100
AcDbEntity
  8
0
100
AcDbBlockEnd
  0
BLOCK
  5
84
330
83
100
AcDbEntity
  8
0
100
AcDbBlockBegin
  2
SW_NOTE_0_3
 70
     0
 10
0.0
 20
0.0
 30
0.0
  3
SW_NOTE_0_3
  1

  0
MTEXT
  5
86
330
83
100
AcDbEntity
  8
DRAWING-SHEET
 62
     0
100
AcDbMText
 10
0.0
 20
2.7285267159
 30
0.0
 40
2.1166666667
 41
0.0
 46
0.0
 71
     1
 72
     1
  1
14 Waratah St TUMUT NSW 2720
  7
SLDTEXTSTYLE1
 73
     1
 44
1.0
  0
ENDBLK
  5
85
330
83
100
AcDbEntity
  8
0
100
AcDbBlockEnd
  0
ENDSEC
  0
SECTION
  2
ENTITIES
  0
LINE
  5
88
330
1F
100
AcDbEntity
  8
0
  6
Continuous
 62
     7
370
    25
100
AcDbLine
 10
923.4630917258
 20
839.2999264744
 30
0.0
 11
923.4630917258
 21
846.4794136539
 31
0.0
  0
LINE
  5
89
330
1F
100
AcDbEntity
  8
0
  6
Continuous
 62
     7
370
    25
100
AcDbLine
 10
924.1810404437
 20
839.2999264744
 30
0.0
 11
923.4630917258
 21
839.2999264744
 31
0.0
  0
LINE
  5
8A
330
1F
100
AcDbEntity
  8
0
  6
Continuous
 62
     7
370
    25
100
AcDbLine
 10
924.1810404437
 20
847.2999264744
 30
0.0
 11
924.1810404437
 21
839.2999264744
 31
0.0
  0
LINE
  5
8B
330
1F
100
AcDbEntity
  8
0
  6
Continuous
 62
     7
370
    25
100
AcDbLine
 10
922.701873777
 20
847.2999264744
 30
0.0
 11
924.1810404437
 21
847.2999264744
 31
0.0
  0
LINE
  5
8C
330
1F
100
AcDbEntity
  8
0
  6
Continuous
 62
     7
370
    25
100
AcDbLine
 10
922.232322495
 20
846.4794136539
 30
0.0
 11
922.701873777
 21
847.2999264744
 31
0.0
  0
LINE
  5
8D
330
1F
100
AcDbEntity
  8
0
  6
Continuous
 62
     7
370
    25
100
AcDbLine
 10
923.4630917258
 20
846.4794136539
 30
0.0
 11
922.232322495
 21
846.4794136539
 31
0.0
  0
SPLINE
  5
8E
330
1F
100
AcDbEntity
  8
0
  6
Continuous
 62
     7
370
    25
100
AcDbSpline
210
0.0
220
0.0
230
1.0
 70
     8
 71
     3
 72
    15
 73
    11
 74
     0
 42
0.00000001
 43
0.00000001
 40
0.0
 40
0.0
 40
0.0
 40
0.0
 40
0.1022030370352205
 40
0.2110233423738754
 40
0.3250996615652079
 40
0.4465020971348904
 40
0.5737877176488557
 40
0.7089007097660681
 40
0.8503578712934009
 40
1.0
 40
1.0
 40
1.0
 40
1.0
 10
929.841296853966
 20
843.7101828846658
 30
0.0
 10
929.779287873837
 20
843.7088558191626
 30
0.0
 10
929.6512550616662
 20
843.7061157655779
 30
0.0
 10
929.4548600291422
 20
843.6859409156891
 30
0.0
 10
929.2484789480525
 20
843.6533939569962
 30
0.0
 10
929.0329029582099
 20
843.6086253913523
 30
0.0
 10
928.8074846539744
 20
843.5500400730471
 30
0.0
 10
928.5726997380262
 20
843.4798355001885
 30
0.0
 10
928.3280545572279
 20
843.3958995031289
 30
0.0
 10
928.1632140443164
 20
843.3325115859936
 30
0.0
 10
928.0784763411455
 20
843.2999264744093
 30
0.0
  0
SPLINE
  5
8F
330
1F
100
AcDbEntity
  8
0
  6
Continuous
 62
     7
370
    25
100
AcDbSpline
210
0.0
220
0.0
230
1.0
 70
     8
 71
     3
 72
    23
 73
    19
 74
     0
 42
0.00000001
 43
0.00000001
 40
0.0
 40
0.0
 40
0.0
 40
0.0
 40
0.0653513820265938
 40
0.1279160318306124
 40
0.1883602055717016
 40
0.2472160772654531
 40
0.3056301291974118
 40
0.3637698398318194
 40
0.4226609139127803
 40
0.4826872940903942
 40
0.5433002212395599
 40
0.6041179553231039
 40
0.6649648912652848
 40
0.7274134941125656
 40
0.7914676251494241
 40
0.8580554427291005
 40
0.9270368146149474
 40
1.0
 40
1.0
 40
1.0
 40
1.0
 10
931.7707840334532
 20
841.9441572436401
 30
0.0
 10
931.7692789375412
 20
842.0083303902028
 30
0.0
 10
931.7663329264456
 20
842.1339401937576
 30
0.0
 10
931.7422630514674
 20
842.3177098084805
 30
0.0
 10
931.7003956860874
 20
842.4915910480269
 30
0.0
 10
931.6422839604943
 20
842.6564235828199
 30
0.0
 10
931.5685022285318
 20
842.8123628796154
 30
0.0
 10
931.478339228946
 20
842.9595698743587
 30
0.0
 10
931.3701028907893
 20
843.0961043502981
 30
0.0
 10
931.246464288301
 20
843.2220301871199
 30
0.0
 10
931.1110173375739
 20
843.3382470439726
 30
0.0
 10
930.9614316402091
 20
843.4373192415771
 30
0.0
 10
930.8008375218202
 20
843.520665339067
 30
0.0
 10
930.6311698658914
 20
843.5925921924219
 30
0.0
 10
930.4483929548345
 20
843.644251039049
 30
0.0
 10
930.2561263665386
 20
843.6830347772025
 30
0.0
 10
930.0522938912313
 20
843.7054698918955
 30
0.0
 10
929.9129323183537
 20
843.7085827796114
 30
0.0
 10
929.841296853966
 20
843.7101828846658
 30
0.0
  0
SPLINE
  5
90
330
1F
100
AcDbEntity
  8
0
  6
Continuous
 62
     7
370
    25
100
AcDbSpline
210
0.0
220
0.0
230
1.0
 70
     8
 71
     3
 72
    23
 73
    19
 74
     0
 42
0.00000001
 43
0.00000001
 40
0.0
 40
0.0
 40
0.0
 40
0.0
 40
0.0642072952829857
 40
0.126424689779743
 40
0.1876802842649233
 40
0.2482164244552136
 40
0.3083050600086129
 40
0.3696609913251444
 40
0.4316985517867817
 40
0.4959468922087647
 40
0.5597580239721205
 40
0.6222954078261591
 40
0.6839106352841736
 40
0.7450924080566254
 40
0.8067402253892928
 40
0.8690866181212035
 40
0.9332900029748
 40
1.0
 40
1.0
 40
1.0
 40
1.0
 10
929.7403353155044
 20
839.9153110897939
 30
0.0
 10
929.8088117598868
 20
839.917187153577
 30
0.0
 10
929.9436424391749
 20
839.9208811385166
 30
0.0
 10
930.1420684659018
 20
839.9493131661505
 30
0.0
 10
930.3336407497924
 20
839.9931019005679
 30
0.0
 10
930.5164689938129
 20
840.0586329976737
 30
0.0
 10
930.6937525128735
 20
840.1382780683613
 30
0.0
 10
930.8610068452692
 20
840.2404839559405
 30
0.0
 10
931.0230705644478
 20
840.3581068552432
 30
0.0
 10
931.1749062982103
 20
840.492864866771
 30
0.0
 10
931.3139678965179
 20
840.6413670259008
 30
0.0
 10
931.4368390305383
 20
840.8001724965862
 30
0.0
 10
931.5391862612265
 20
840.9695824315414
 30
0.0
 10
931.6254356529288
 20
841.1466639237722
 30
0.0
 10
931.6909289073805
 20
841.3333577687514
 30
0.0
 10
931.7376511501755
 20
841.5287890262883
 30
0.0
 10
931.7650867131891
 20
841.7334404096173
 30
0.0
 10
931.7688608388394
 20
841.8730274033916
 30
0.0
 10
931.7707840334532
 20
841.9441572436401
 30
0.0
  0
SPLINE
  5
91
330
1F
100
AcDbEntity
  8
0
  6
Continuous
 62
     7
370
    25
100
AcDbSpline
210
0.0
220
0.0
230
1.0
 70
     8
 71
     3
 72
    19
 73
    15
 74
     0
 42
0.00000001
 43
0.00000001
 40
0.0
 40
0.0
 40
0.0
 40
0.0
 40
0.094687251867554
 40
0.1819941557072738
 40
0.2643769486105113
 40
0.3421798619477711
 40
0.4186176108621468
 40
0.4965090753719086
 40
0.5773690916117324
 40
0.6615105924541991
 40
0.7467325508291975
 40
0.8312579843277424
 40
0.9152056162136544
 40
1.0
 40
1.0
 40
1.0
 40
1.0
 10
927.9759122385814
 20
841.3512085256914
 30
0.0
 10
927.9935775126161
 20
841.274919491523
 30
0.0
 10
928.027531150195
 20
841.1282877318157
 30
0.0
 10
928.102058575914
 20
840.9222732373402
 30
0.0
 10
928.1931805769945
 20
840.7386864403663
 30
0.0
 10
928.3015333733767
 20
840.5750988214554
 30
0.0
 10
928.4307905859167
 20
840.432449684833
 30
0.0
 10
928.5782864234953
 20
840.3053249718324
 30
0.0
 10
928.7436526479507
 20
840.1906389619407
 30
0.0
 10
928.9274086011391
 20
840.0950440654899
 30
0.0
 10
929.121267068157
 20
840.0135154862897
 30
0.0
 10
929.324163548179
 20
839.9592258978288
 30
0.0
 10
929.53057348297
 20
839.9210524284738
 30
0.0
 10
929.6701811862763
 20
839.9172312609272
 30
0.0
 10
929.7403353155044
 20
839.9153110897939
 30
0.0
  0
LINE
  5
92
330
1F
100
AcDbEntity
  8
0
  6
Continuous
 62
     7
370
    25
100
AcDbLine
 10
927.2579635206
 20
841.3512085257
 30
0.0
 11
927.9759122386
 21
841.3512085257
 31
0.0
  0
SPLINE
  5
93
330
1F
100
AcDbEntity
  8
0
  6
Continuous
 62
     7
370
    25
100
AcDbSpline
210
0.0
220
0.0
230
1.0
 70
     8
 71
     3
 72
    23
 73
    19
 74
     0
 42
0.00000001
 43
0.00000001
 40
0.0
 40
0.0
 40
0.0
 40
0.0
 40
0.0654211437588926
 40
0.1287083718818824
 40
0.1902361418635384
 40
0.250724402033539
 40
0.3106371794134438
 40
0.3707664082897275
 40
0.4316147444123527
 40
0.493522973566354
 40
0.5558834553775343
 40
0.6173423673185097
 40
0.6786680390972761
 40
0.7407113595451479
 40
0.802985362512746
 40
0.8668025802655183
 40
0.9323471713458883
 40
1.0
 40
1.0
 40
1.0
 40
1.0
 10
929.6986686488377
 20
839.0947982692811
 30
0.0
 10
929.6189562358041
 20
839.0963773275306
 30
0.0
 10
929.4621314799095
 20
839.0994839380961
 30
0.0
 10
929.232370183746
 20
839.1319833329625
 30
0.0
 10
929.0113082278751
 20
839.178529427574
 30
0.0
 10
928.8007251395154
 20
839.2485551872275
 30
0.0
 10
928.5987336796177
 20
839.3362975750907
 30
0.0
 10
928.4080531818146
 20
839.447191681366
 30
0.0
 10
928.223811407991
 20
839.5728582042163
 30
0.0
 10
928.053498181135
 20
839.7211561538502
 30
0.0
 10
927.8954270646328
 20
839.8832491413531
 30
0.0
 10
927.7539264729292
 20
840.0591523211605
 30
0.0
 10
927.6279068689597
 20
840.2459624745002
 30
0.0
 10
927.5193863044137
 20
840.4445868266732
 30
0.0
 10
927.4268193985478
 20
840.6545034688163
 30
0.0
 10
927.3540994253439
 20
840.8764988994265
 30
0.0
 10
927.2954060426167
 20
841.1094131941451
 30
0.0
 10
927.2705753672423
 20
841.2697640750835
 30
0.0
 10
927.2579635206326
 20
841.3512085256914
 30
0.0
  0
SPLINE
  5
94
330
1F
100
AcDbEntity
  8
0
  6
Continuous
 62
     7
370
    25
100
AcDbSpline
210
0.0
220
0.0
230
1.0
 70
     8
 71
     3
 72
    31
 73
    27
 74
     0
 42
0.00000001
 43
0.00000001
 40
0.0
 40
0.0
 40
0.0
 40
0.0
 40
0.0440144705761397
 40
0.0874341236677056
 40
0.1301183986578981
 40
0.1725536945581829
 40
0.2145547559681386
 40
0.2562980920971305
 40
0.2984382251332501
 40
0.3408490025880955
 40
0.3827151889670265
 40
0.4239240454075313
 40
0.4642462432504176
 40
0.5040736714617959
 40
0.5438619058684914
 40
0.583566724979654
 40
0.6230943188523338
 40
0.6632290607685842
 40
0.7035512586114705
 40
0.7439378946861852
 40
0.784541254800093
 40
0.8257501112405972
 40
0.8677573633885062
 40
0.91074516403231
 40
0.954914446891478
 40
1.0
 40
1.0
 40
1.0
 40
1.0
 10
932.4887327514019
 20
841.9137085256914
 30
0.0
 10
932.4872125793485
 20
841.8485148791725
 30
0.0
 10
932.4841927790515
 20
841.7190086218563
 30
0.0
 10
932.4688360072852
 20
841.52667902029
 30
0.0
 10
932.4392686562812
 20
841.3384211161018
 30
0.0
 10
932.3995710011864
 20
841.1542099347562
 30
0.0
 10
932.348045474408
 20
840.9743942269182
 30
0.0
 10
932.2856704940599
 20
840.7984593059426
 30
0.0
 10
932.2093367168944
 20
840.6275002048154
 30
0.0
 10
932.1256078591598
 20
840.459899301904
 30
0.0
 10
932.0313301950791
 20
840.2994455711732
 30
0.0
 10
931.9266936068757
 20
840.1493907447899
 30
0.0
 10
931.8161439126532
 20
840.0074838156929
 30
0.0
 10
931.6971921744629
 20
839.8752467116719
 30
0.0
 10
931.5687327570627
 20
839.7535483850594
 30
0.0
 10
931.432321404236
 20
839.64166659876
 30
0.0
 10
931.2890466178836
 20
839.537709272353
 30
0.0
 10
931.1366917782929
 20
839.445896254809
 30
0.0
 10
930.9786518172333
 20
839.3614094978883
 30
0.0
 10
930.8126444637693
 20
839.2920985554075
 30
0.0
 10
930.6424485770093
 20
839.2301316340705
 30
0.0
 10
930.4656145756497
 20
839.1807384281011
 30
0.0
 10
930.2825430039566
 20
839.1420354463427
 30
0.0
 10
930.0929320885689
 20
839.1157483592513
 30
0.0
 10
929.8977762713718
 20
839.0966022164622
 30
0.0
 10
929.7654905283321
 20
839.0954036862893
 30
0.0
 10
929.6986686488377
 20
839.0947982692811
 30
0.0
  0
SPLINE
  5
95
330
1F
100
AcDbEntity
  8
0
  6
Continuous
 62
     7
370
    25
100
AcDbSpline
210
0.0
220
0.0
230
1.0
 70
     8
 71
     3
 72
    23
 73
    19
 74
     0
 42
0.00000001
 43
0.00000001
 40
0.0
 40
0.0
 40
0.0
 40
0.0
 40
0.0658076458106949
 40
0.1293942736680547
 40
0.1908940606321903
 40
0.2512810689298358
 40
0.3108149644652729
 40
0.3703709874482449
 40
0.4307682625897257
 40
0.4928812506175017
 40
0.5551039481552505
 40
0.616067050993843
 40
0.6772560331746539
 40
0.7382598051991163
 40
0.8007621343762961
 40
0.864777581574485
 40
0.9310452949994039
 40
1.0
 40
1.0
 40
1.0
 40
1.0
 10
929.9711045462736
 20
844.5306957051786
 30
0.0
 10
930.060438808473
 20
844.5287621378766
 30
0.0
 10
930.2360922880732
 20
844.5249602614599
 30
0.0
 10
930.4930955954873
 20
844.4884531770159
 30
0.0
 10
930.738427922843
 20
844.4309905150038
 30
0.0
 10
930.9715761975318
 20
844.3507150367485
 30
0.0
 10
931.1929717418456
 20
844.2480642180187
 30
0.0
 10
931.4005775966582
 20
844.1198357829151
 30
0.0
 10
931.5975099691995
 20
843.9700453117158
 30
0.0
 10
931.7802358982376
 20
843.7978281415225
 30
0.0
 10
931.9460057454728
 20
843.6082930175176
 30
0.0
 10
932.0917565789973
 20
843.4045035979896
 30
0.0
 10
932.2155567854071
 20
843.1884403702534
 30
0.0
 10
932.3151242251247
 20
842.9580389788517
 30
0.0
 10
932.3946312748983
 20
842.7158466281994
 30
0.0
 10
932.4475501202556
 20
842.4593150109372
 30
0.0
 10
932.482788312167
 20
842.1908621651924
 30
0.0
 10
932.4867251951832
 20
842.0073088621588
 30
0.0
 10
932.4887327514019
 20
841.9137085256914
 30
0.0
  0
SPLINE
  5
96
330
1F
100
AcDbEntity
  8
0
  6
Continuous
 62
     7
370
    25
100
AcDbSpline
210
0.0
220
0.0
230
1.0
 70
     8
 71
     3
 72
    11
 73
     7
 74
     0
 42
0.00000001
 43
0.00000001
 40
0.0
 40
0.0
 40
0.0
 40
0.0
 40
0.2750683690187423
 40
0.532901460089937
 40
0.7739734595924415
 40
0.9999999999999999
 40
0.9999999999999999
 40
0.9999999999999999
 40
0.9999999999999999
 10
929.028796853966
 20
844.3752469872298
 30
0.0
 10
929.1134959953915
 20
844.3986304656532
 30
0.0
 10
929.2775871858655
 20
844.4439322567617
 30
0.0
 10
929.5197811537826
 20
844.4942311606006
 30
0.0
 10
929.7497061902876
 20
844.5245521755891
 30
0.0
 10
929.8989070369403
 20
844.5286923139028
 30
0.0
 10
929.9711045462736
 20
844.5306957051786
 30
0.0
  0
LINE
  5
97
330
1F
100
AcDbEntity
  8
0
  6
Continuous
 62
     7
370
    25
100
AcDbLine
 10
929.4598865976
 20
846.4794136539
 30
0.0
 11
929.028796854
 21
844.3752469872
 31
0.0
  0
LINE
  5
98
330
1F
100
AcDbEntity
  8
0
  6
Continuous
 62
     7
370
    25
100
AcDbLine
 10
932.1810404437
 20
846.4794136539
 30
0.0
 11
929.4598865976
 21
846.4794136539
 31
0.0
  0
LINE
  5
99
330
1F
100
AcDbEntity
  8
0
  6
Continuous
 62
     7
370
    25
100
AcDbLine
 10
932.1810404437
 20
847.2999264744
 30
0.0
 11
932.1810404437
 21
846.4794136539
 31
0.0
  0
LINE
  5
9A
330
1F
100
AcDbEntity
  8
0
  6
Continuous
 62
     7
370
    25
100
AcDbLine
 10
928.8989891617
 20
847.2999264744
 30
0.0
 11
932.1810404437
 21
847.2999264744
 31
0.0
  0
LINE
  5
9B
330
1F
100
AcDbEntity
  8
0
  6
Continuous
 62
     7
370
    25
100
AcDbLine
 10
928.0784763411
 20
843.2999264744
 30
0.0
 11
928.8989891617
 21
847.2999264744
 31
0.0
  0
SPLINE
  5
9C
330
1F
100
AcDbEntity
  8
0
  6
Continuous
 62
     7
370
    25
100
AcDbSpline
210
0.0
220
0.0
230
1.0
 70
     8
 71
     3
 72
    31
 73
    27
 74
     0
 42
0.00000001
 43
0.00000001
 40
0.0
 40
0.0
 40
0.0
 40
0.0
 40
0.0337881161627104
 40
0.06719393237388
 40
0.0998624108568252
 40
0.1325666121262582
 40
0.165151173254786
 40
0.1979131873557921
 40
0.2313190035669614
 40
0.2650832782673728
 40
0.2992553087581148
 40
0.3343985665049785
 40
0.3699428235093069
 40
0.4062835607000611
 40
0.4440638196985078
 40
0.4829977068727755
 40
0.523354446613304
 40
0.5655365896041485
 40
0.6096129240658194
 40
0.6563908113764166
 40
0.7058854949364569
 40
0.7583245002617313
 40
0.8138317829411498
 40
0.87279455903939
 40
0.9347222295400733
 40
1.0
 40
1.0
 40
1.0
 40
1.0
 10
935.9839250590941
 20
847.5050546795375
 30
0.0
 10
936.0475490099155
 20
847.5039396734218
 30
0.0
 10
936.1740770302484
 20
847.5017222770691
 30
0.0
 10
936.3611407450963
 20
847.4804104084186
 30
0.0
 10
936.5438828747297
 20
847.4450478413399
 30
0.0
 10
936.7215243346233
 20
847.3949427565794
 30
0.0
 10
936.8955243036925
 20
847.3327812099294
 30
0.0
 10
937.0645218068826
 20
847.2548677993941
 30
0.0
 10
937.2295665649216
 20
847.1641732454639
 30
0.0
 10
937.3880357935385
 20
847.0576043830488
 30
0.0
 10
937.5416692000438
 20
846.9387877517419
 30
0.0
 10
937.6866931154086
 20
846.8044730801913
 30
0.0
 10
937.823120740317
 20
846.656016579006
 30
0.0
 10
937.9526642954856
 20
846.4950066044079
 30
0.0
 10
938.0716485176554
 20
846.3183549819312
 30
0.0
 10
938.1849592199078
 20
846.1291341594989
 30
0.0
 10
938.2863810162544
 20
845.9240350399701
 30
0.0
 10
938.3840602738055
 20
845.7064796849048
 30
0.0
 10
938.4683733863524
 20
845.4704484647754
 30
0.0
 10
938.5444105184033
 20
845.2172718693054
 30
0.0
 10
938.6058481608603
 20
844.9439594422121
 30
0.0
 10
938.6570236404903
 20
844.6519451672518
 30
0.0
 10
938.6966691169375
 20
844.3401566341314
 30
0.0
 10
938.7255437274027
 20
844.009262198676
 30
0.0
 10
938.7407964932115
 20
843.6590441629257
 30
0.0
 10
938.7436689531124
 20
843.4195976505208
 30
0.0
 10
938.7451430078121
 20
843.2967213462041
 30
0.0
  0
SPLINE
  5
9D
330
1F
100
AcDbEntity
  8
0
  6
Continuous
 62
     7
370
    25
100
AcDbSpline
210
0.0
220
0.0
230
1.0
 70
     8
 71
     3
 72
    31
 73
    27
 74
     0
 42
0.00000001
 43
0.00000001
 40
0.0
 40
0.0
 40
0.0
 40
0.0
 40
0.0685946222587427
 40
0.1332460424433013
 40
0.1943125864682559
 40
0.2512792231169661
 40
0.3045134392563467
 40
0.354234906653325
 40
0.400480588773989
 40
0.443410754938492
 40
0.4840148686163451
 40
0.5232523007732032
 40
0.5610423727283603
 40
0.5979002393643993
 40
0.6335184888561957
 40
0.6683143511696514
 40
0.7024956712863819
 40
0.7366853535134584
 40
0.7702931693607894
 40
0.8034372550192485
 40
0.8359129516660283
 40
0.8684602457892909
 40
0.9008465382431828
 40
0.9334665246307077
 40
0.9662575752981228
 40
1.0
 40
1.0
 40
1.0
 40
1.0
 10
933.3092455719146
 20
843.2967213462041
 30
0.0
 10
933.3099953277032
 20
843.4249439467396
 30
0.0
 10
933.3114517391291
 20
843.6740181964482
 30
0.0
 10
933.32765384414
 20
844.0369545211722
 30
0.0
 10
933.3545689122843
 20
844.3774351817327
 30
0.0
 10
933.3914543359421
 20
844.6954764755347
 30
0.0
 10
933.4363411478818
 20
844.9911605087182
 30
0.0
 10
933.4962622601133
 20
845.2636970964583
 30
0.0
 10
933.5644058089475
 20
845.5143476258595
 30
0.0
 10
933.6433828279429
 20
845.7439294509476
 30
0.0
 10
933.7324977742705
 20
845.955535629284
 30
0.0
 10
933.8294903702068
 20
846.1530789465268
 30
0.0
 10
933.9382099003177
 20
846.3362605061607
 30
0.0
 10
934.0524428441511
 20
846.5080040271205
 30
0.0
 10
934.1768132935862
 20
846.6654981866457
 30
0.0
 10
934.3077819575113
 20
846.8109671295452
 30
0.0
 10
934.4504605318363
 20
846.941048844891
 30
0.0
 10
934.5999988364612
 20
847.0595546789141
 30
0.0
 10
934.7577507550708
 20
847.1634391855929
 30
0.0
 10
934.9192197062553
 20
847.2549425881432
 30
0.0
 10
935.0855170910689
 20
847.3331137133034
 30
0.0
 10
935.2570969376926
 20
847.3945775666966
 30
0.0
 10
935.432417070012
 20
847.4453452164627
 30
0.0
 10
935.6120903653064
 20
847.4800628110834
 30
0.0
 10
935.7964134828751
 20
847.5019071733449
 30
0.0
 10
935.9208281909852
 20
847.5039955567511
 30
0.0
 10
935.9839250590941
 20
847.5050546795375
 30
0.0
  0
SPLINE
  5
9E
330
1F
100
AcDbEntity
  8
0
  6
Continuous
 62
     7
370
    25
100
AcDbSpline
210
0.0
220
0.0
230
1.0
 70
     8
 71
     3
 72
    31
 73
    27
 74
     0
 42
0.00000001
 43
0.00000001
 40
0.0
 40
0.0
 40
0.0
 40
0.0
 40
0.0337871463469913
 40
0.066621657724294
 40
0.099284878095972
 40
0.1313611650426506
 40
0.163585187595343
 40
0.1961039269870674
 40
0.2289022543238167
 40
0.2621580559050071
 40
0.2959912222583161
 40
0.3302178457247998
 40
0.3650598258919542
 40
0.4009507373401076
 40
0.4376203820767376
 40
0.4757075294370922
 40
0.515380691625048
 40
0.5564135414931645
 40
0.5997648298727305
 40
0.6464241555840872
 40
0.6964314445175672
 40
0.7497815178015571
 40
0.8065733069755329
 40
0.8674355315654002
 40
0.9318867532508747
 40
1.0
 40
1.0
 40
1.0
 40
1.0
 10
935.9839250590941
 20
839.0947982692811
 30
0.0
 10
935.9208299414136
 20
839.0958642246155
 30
0.0
 10
935.7964186848067
 20
839.0979660804725
 30
0.0
 10
935.6120702838023
 20
839.1197117524455
 30
0.0
 10
935.433138984511
 20
839.1546729026451
 30
0.0
 10
935.258741832425
 20
839.2036251405676
 30
0.0
 10
935.0879840836623
 20
839.2635447664316
 30
0.0
 10
934.9231925713062
 20
839.3416103289526
 30
0.0
 10
934.7625350085847
 20
839.4315167722806
 30
0.0
 10
934.6064400234004
 20
839.5339063069966
 30
0.0
 10
934.4578407981666
 20
839.6512130112901
 30
0.0
 10
934.3159011288777
 20
839.7809599568592
 30
0.0
 10
934.1841867995133
 20
839.9263848969675
 30
0.0
 10
934.0615945809594
 20
840.0851915783566
 30
0.0
 10
933.9450823793692
 20
840.2559189894029
 30
0.0
 10
933.837906668925
 20
840.4408981277925
 30
0.0
 10
933.7387732881981
 20
840.6393955231972
 30
0.0
 10
933.6481595952415
 20
840.8526936047404
 30
0.0
 10
933.5678197929217
 20
841.0839048684198
 30
0.0
 10
933.4968536029481
 20
841.3356744192827
 30
0.0
 10
933.4408212430166
 20
841.6102244446862
 30
0.0
 10
933.3928602022556
 20
841.9053498552128
 30
0.0
 10
933.3541758981563
 20
842.2223188389519
 30
0.0
 10
933.3277660117143
 20
842.5613034748076
 30
0.0
 10
933.3114430059182
 20
842.9220925237817
 30
0.0
 10
933.3099914163867
 20
843.1695662936482
 30
0.0
 10
933.3092455719146
 20
843.2967213462041
 30
0.0
  0
SPLINE
  5
9F
330
1F
100
AcDbEntity
  8
0
  6
Continuous
 62
     7
370
    25
100
AcDbSpline
210
0.0
220
0.0
230
1.0
 70
     8
 71
     3
 72
    31
 73
    27
 74
     0
 42
0.00000001
 43
0.00000001
 40
0.0
 40
0.0
 40
0.0
 40
0.0
 40
0.0650632896172782
 40
0.1267731664665232
 40
0.1855157632260793
 40
0.2407646791677144
 40
0.2929797960235975
 40
0.3422503727797677
 40
0.3889192861856604
 40
0.4327756640583105
 40
0.4746284326311172
 40
0.5147746906379532
 40
0.5536058934984428
 40
0.5914264064311728
 40
0.6280281199460672
 40
0.6638036341103208
 40
0.6989843361316639
 40
0.7335914893067054
 40
0.7676284691511395
 40
0.8012083477865918
 40
0.8342638397266232
 40
0.8669806947287768
 40
0.8997197415181606
 40
0.9327019124985382
 40
0.9661758834327496
 40
0.9999999999999999
 40
0.9999999999999999
 40
0.9999999999999999
 40
0.9999999999999999
 10
938.7451430078121
 20
843.2967213462041
 30
0.0
 10
938.7436536717117
 20
843.1743809851964
 30
0.0
 10
938.7407517610569
 20
842.9360057809477
 30
0.0
 10
938.7257147170163
 20
842.5873635516454
 30
0.0
 10
938.6960949886078
 20
842.2582251669628
 30
0.0
 10
938.6590435867593
 20
841.9478012527715
 30
0.0
 10
938.6077270999627
 20
841.6573838382961
 30
0.0
 10
938.5446295771027
 20
841.3859679560837
 30
0.0
 10
938.4745716963673
 20
841.1323815065629
 30
0.0
 10
938.3880921669734
 20
840.8987019371687
 30
0.0
 10
938.2934391147512
 20
840.6816694277635
 30
0.0
 10
938.1904558092075
 20
840.4790016601527
 30
0.0
 10
938.0801247781545
 20
840.2889072768849
 30
0.0
 10
937.9599219324333
 20
840.112907855328
 30
0.0
 10
937.8317998451272
 20
839.9497566391614
 30
0.0
 10
937.6930163278861
 20
839.8023335016723
 30
0.0
 10
937.5474835619386
 20
839.6670862514707
 30
0.0
 10
937.3933980400325
 20
839.5467396744144
 30
0.0
 10
937.2324573515018
 20
839.4414029781027
 30
0.0
 10
937.0679794613877
 20
839.347199891502
 30
0.0
 10
936.8970460137369
 20
839.2712394456737
 30
0.0
 10
936.7235306932123
 20
839.2060164948675
 30
0.0
 10
936.5449515706639
 20
839.1561868905562
 30
0.0
 10
936.361531249088
 20
839.1217323636521
 30
0.0
 10
936.1742027098225
 20
839.0975681386126
 30
0.0
 10
936.0475705610653
 20
839.0957247560405
 30
0.0
 10
935.9839250590941
 20
839.0947982692811
 30
0.0
  0
LINE
  5
A0
330
1F
100
AcDbEntity
  8
0
  6
Continuous
 62
     7
370
    25
100
AcDbLine
 10
957.1041173668
 20
842.7871059616
 30
0.0
 11
957.1041173668
 21
841.9665931411
 31
0.0
  0
LINE
  5
A1
330
1F
100
AcDbEntity
  8
0
  6
Continuous
 62
     7
370
    25
100
AcDbLine
 10
954.0271942899
 20
842.7871059616
 30
0.0
 11
957.1041173668
 21
842.7871059616
 31
0.0
  0
LINE
  5
A2
330
1F
100
AcDbEntity
  8
0
  6
Continuous
 62
     7
370
    25
100
AcDbLine
 10
954.0271942899
 20
841.9665931411
 30
0.0
 11
954.0271942899
 21
842.7871059616
 31
0.0
  0
LINE
  5
A3
330
1F
100
AcDbEntity
  8
0
  6
Continuous
 62
     7
370
    25
100
AcDbLine
 10
957.1041173668
 20
841.9665931411
 30
0.0
 11
954.0271942899
 21
841.9665931411
 31
0.0
  0
SPLINE
  5
A4
330
1F
100
AcDbEntity
  8
0
  6
Continuous
 62
     7
370
    25
100
AcDbSpline
210
0.0
220
0.0
230
1.0
 70
     8
 71
     3
 72
    11
 73
     7
 74
     0
 42
0.00000001
 43
0.00000001
 40
0.0
 40
0.0
 40
0.0
 40
0.0
 40
0.2629516255674852
 40
0.5157066923583608
 40
0.7621092269531
 40
1.0
 40
1.0
 40
1.0
 40
1.0
 10
959.3701430078121
 20
840.0306957051786
 30
0.0
 10
959.4142214342329
 20
840.0134169455448
 30
0.0
 10
959.5006690439209
 20
839.9795294502325
 30
0.0
 10
959.6328406545896
 20
839.9417102540929
 30
0.0
 10
959.7642578819296
 20
839.9210418885611
 30
0.0
 10
959.8513840393391
 20
839.9171988413872
 30
0.0
 10
959.8941814693505
 20
839.9153110897939
 30
0.0
  0
SPLINE
  5
A5
330
1F
100
AcDbEntity
  8
0
  6
Continuous
 62
     7
370
    25
100
AcDbSpline
210
0.0
220
0.0
230
1.0
 70
     8
 71
     3
 72
    11
 73
     7
 74
     0
 42
0.00000001
 43
0.00000001
 40
0.0
 40
0.0
 40
0.0
 40
0.0
 40
0.2991842876765359
 40
0.5648989463568093
 40
0.7985478688426173
 40
1.0
 40
1.0
 40
1.0
 40
1.0
 10
958.3477071103762
 20
840.6332598077427
 30
0.0
 10
958.4453132338563
 20
840.5659514735923
 30
0.0
 10
958.6296063220395
 20
840.4388645622515
 30
0.0
 10
958.9004736154935
 20
840.2753751898148
 30
0.0
 10
959.1404671080785
 20
840.1352033828265
 30
0.0
 10
959.2974567019675
 20
840.0637696020456
 30
0.0
 10
959.3701430078121
 20
840.0306957051786
 30
0.0
  0
LINE
  5
A6
330
1F
100
AcDbEntity
  8
0
  6
Continuous
 62
     7
370
    25
100
AcDbLine
 10
957.9246301873
 20
840.0178751924
 30
0.0
 11
958.3477071104
 21
840.6332598077
 31
0.0
  0
SPLINE
  5
A7
330
1F
100
AcDbEntity
  8
0
  6
Continuous
 62
     7
370
    25
100
AcDbSpline
210
0.0
220
0.0
230
1.0
 70
     8
 71
     3
 72
    15
 73
    11
 74
     0
 42
0.00000001
 43
0.00000001
 40
0.0
 40
0.0
 40
0.0
 40
0.0
 40
0.1060709021051295
 40
0.213421680412451
 40
0.321685488130326
 40
0.4338579390981599
 40
0.5540812827743559
 40
0.687587043966562
 40
0.8364658500651129
 40
1.0
 40
1.0
 40
1.0
 40
1.0
 10
959.8541173667865
 20
839.0947982692811
 30
0.0
 10
959.7764982621842
 20
839.0972682330048
 30
0.0
 10
959.6203234827907
 20
839.1022379636094
 30
0.0
 10
959.3878875770487
 20
839.1427447362945
 30
0.0
 10
959.1561116322328
 20
839.2051814068004
 30
0.0
 10
958.9237654634552
 20
839.2966159105689
 30
0.0
 10
958.6862586260883
 20
839.420971564248
 30
0.0
 10
958.4403744050742
 20
839.5836797164287
 30
0.0
 10
958.1829499685969
 20
839.784437491051
 30
0.0
 10
958.0133881717815
 20
839.9376666238695
 30
0.0
 10
957.9246301872993
 20
840.017875192358
 30
0.0
  0
SPLINE
  5
A8
330
1F
100
AcDbEntity
  8
0
  6
Continuous
 62
     7
370
    25
100
AcDbSpline
210
0.0
220
0.0
230
1.0
 70
     8
 71
     3
 72
    23
 73
    19
 74
     0
 42
0.00000001
 43
0.00000001
 40
0.0
 40
0.0
 40
0.0
 40
0.0
 40
0.0773606839426997
 40
0.148541953025043
 40
0.2140077372521333
 40
0.2729945033606887
 40
0.3264091957674691
 40
0.3738804007298088
 40
0.416019938265759
 40
0.4521255195126342
 40
0.5180017107054566
 40
0.5823669297335151
 40
0.6470437823418074
 40
0.7133304210644739
 40
0.7809119703509694
 40
0.8503949591306453
 40
0.9229229735922772
 40
1.0
 40
1.0
 40
1.0
 40
1.0
 10
961.7195019821711
 20
841.8976828846658
 30
0.0
 10
961.7187844538697
 20
841.7977853511896
 30
0.0
 10
961.7174067119756
 20
841.6059698970255
 30
0.0
 10
961.709830916466
 20
841.329686706416
 30
0.0
 10
961.695811538394
 20
841.0774108522368
 30
0.0
 10
961.6753886527039
 20
840.8485686876819
 30
0.0
 10
961.6481424062498
 20
840.6438771327383
 30
0.0
 10
961.616962913404
 20
840.4617545777331
 30
0.0
 10
961.579219373345
 20
840.3037210181266
 30
0.0
 10
961.5223817360168
 20
840.1262687764399
 30
0.0
 10
961.42918413934
 20
839.9316543656208
 30
0.0
 10
961.2889166235801
 20
839.7214711642362
 30
0.0
 10
961.1146702317294
 20
839.537623368464
 30
0.0
 10
960.91283929876
 20
839.3779599972281
 30
0.0
 10
960.681659815149
 20
839.250743468825
 30
0.0
 10
960.425892457151
 20
839.1594173467455
 30
0.0
 10
960.1471116858413
 20
839.1037125316043
 30
0.0
 10
959.9537420576073
 20
839.0978293199537
 30
0.0
 10
959.8541173667865
 20
839.0947982692811
 30
0.0
  0
LINE
  5
A9
330
1F
100
AcDbEntity
  8
0
  6
Continuous
 62
     7
370
    25
100
AcDbLine
 10
961.7195019822
 20
847.2999264744
 30
0.0
 11
961.7195019822
 21
841.8976828847
 31
0.0
  0
LINE
  5
AA
330
1F
100
AcDbEntity
  8
0
  6
Continuous
 62
     7
370
    25
100
AcDbLine
 10
961.0015532642
 20
847.2999264744
 30
0.0
 11
961.7195019822
 21
847.2999264744
 31
0.0
  0
LINE
  5
AB
330
1F
100
AcDbEntity
  8
0
  6
Continuous
 62
     7
370
    25
100
AcDbLine
 10
961.0015532642
 20
841.9778110898
 30
0.0
 11
961.0015532642
 21
847.2999264744
 31
0.0
  0
SPLINE
  5
AC
330
1F
100
AcDbEntity
  8
0
  6
Continuous
 62
     7
370
    25
100
AcDbSpline
210
0.0
220
0.0
230
1.0
 70
     8
 71
     3
 72
    23
 73
    19
 74
     0
 42
0.00000001
 43
0.00000001
 40
0.0
 40
0.0
 40
0.0
 40
0.0
 40
0.06232636599144
 40
0.123196245194445
 40
0.1840362202545508
 40
0.2469640854288896
 40
0.310699395789571
 40
0.3732676370734422
 40
0.4365875799673891
 40
0.5021247910366466
 40
0.5390047220341614
 40
0.5832553755259834
 40
0.6344465152828105
 40
0.6926760461021156
 40
0.7585704862865261
 40
0.8316586747921138
 40
0.9119171022748334
 40
1.0
 40
1.0
 40
1.0
 40
1.0
 10
959.8941814693505
 20
839.9153110897939
 30
0.0
 10
959.9494564143275
 20
839.917648769643
 30
0.0
 10
960.0587146001076
 20
839.9222695007782
 30
0.0
 10
960.2174894435549
 20
839.9630678442553
 30
0.0
 10
960.3693935148915
 20
840.0253407654296
 30
0.0
 10
960.5089813038767
 20
840.1165208654674
 30
0.0
 10
960.6376336172067
 20
840.2249355413521
 30
0.0
 10
960.7437886471205
 20
840.3560349897323
 30
0.0
 10
960.8322852059433
 20
840.5013286674613
 30
0.0
 10
960.8855416478874
 20
840.6388634191003
 30
0.0
 10
960.9194725553411
 20
840.7642957168675
 30
0.0
 10
960.9410077024431
 20
840.8795714560152
 30
0.0
 10
960.9598389261947
 20
841.0143405497316
 30
0.0
 10
960.9762539019695
 20
841.1687638647262
 30
0.0
 10
960.9858641203909
 20
841.3431505667418
 30
0.0
 10
960.9966464582764
 20
841.5369886077234
 30
0.0
 10
961.0005441974528
 20
841.750766692743
 30
0.0
 10
961.0012066451548
 20
841.8998202971311
 30
0.0
 10
961.0015532642224
 20
841.9778110897939
 30
0.0
  0
LINE
  5
AD
330
1F
100
AcDbEntity
  8
0
  6
Continuous
 62
     7
370
    25
100
AcDbLine
 10
964.4887327514
 20
847.2999264744
 30
0.0
 11
964.4887327514
 21
839.2999264744
 31
0.0
  0
LINE
  5
AE
330
1F
100
AcDbEntity
  8
0
  6
Continuous
 62
     7
370
    25
100
AcDbLine
 10
963.7707840335
 20
847.2999264744
 30
0.0
 11
964.4887327514
 21
847.2999264744
 31
0.0
  0
LINE
  5
AF
330
1F
100
AcDbEntity
  8
0
  6
Continuous
 62
     7
370
    25
100
AcDbLine
 10
963.7707840335
 20
839.2999264744
 30
0.0
 11
963.7707840335
 21
847.2999264744
 31
0.0
  0
LINE
  5
B0
330
1F
100
AcDbEntity
  8
0
  6
Continuous
 62
     7
370
    25
100
AcDbLine
 10
964.4887327514
 20
839.2999264744
 30
0.0
 11
963.7707840335
 21
839.2999264744
 31
0.0
  0
SPLINE
  5
B1
330
1F
100
AcDbEntity
  8
0
  6
Continuous
 62
     7
370
    25
100
AcDbSpline
210
0.0
220
0.0
230
1.0
 70
     8
 71
     3
 72
    19
 73
    15
 74
     0
 42
0.00000001
 43
0.00000001
 40
0.0
 40
0.0
 40
0.0
 40
0.0
 40
0.0969723103815161
 40
0.1877734389628681
 40
0.2723961390136943
 40
0.3513209973752885
 40
0.424334774451468
 40
0.4919087840005266
 40
0.5542332197968021
 40
0.6112676582441555
 40
0.7163478449915549
 40
0.8145400858216161
 40
0.9084954561491856
 40
1.0
 40
1.0
 40
1.0
 40
1.0
 10
968.5528353155044
 20
843.841593141076
 30
0.0
 10
968.639660260207
 20
843.7784128906767
 30
0.0
 10
968.8077847319292
 20
843.6560730923842
 30
0.0
 10
969.0470020574413
 20
843.47226582375
 30
0.0
 10
969.2639021902296
 20
843.2924994955803
 30
0.0
 10
969.4592466555329
 20
843.117922107932
 30
0.0
 10
969.6349653033952
 20
842.9498578953522
 30
0.0
 10
969.7891086649375
 20
842.7862849117405
 30
0.0
 10
969.9232473628739
 20
842.6283750313239
 30
0.0
 10
970.0676570050686
 20
842.4259234297441
 30
0.0
 10
970.2152177354011
 20
842.1772809514027
 30
0.0
 10
970.3419411809465
 20
841.872644977585
 30
0.0
 10
970.4218459751283
 20
841.5668248164491
 30
0.0
 10
970.4322951532586
 20
841.3612777616489
 30
0.0
 10
970.4374507001198
 20
841.2598623718452
 30
0.0
  0
SPLINE
  5
B2
330
1F
100
AcDbEntity
  8
0
  6
Continuous
 62
     7
370
    25
100
AcDbSpline
210
0.0
220
0.0
230
1.0
 70
     8
 71
     3
 72
    15
 73
    11
 74
     0
 42
0.00000001
 43
0.00000001
 40
0.0
 40
0.0
 40
0.0
 40
0.0
 40
0.0525942815291374
 40
0.1249519739750381
 40
0.2180938989285935
 40
0.3335024107325195
 40
0.4687891785044474
 40
0.6249375859645985
 40
0.8016830479282241
 40
1.0
 40
1.0
 40
1.0
 40
1.0
 10
967.4775148026839
 20
844.6380675000503
 30
0.0
 10
967.4950265110443
 20
844.6224400124713
 30
0.0
 10
967.536630321643
 20
844.5853126791473
 30
0.0
 10
967.6126895804765
 20
844.5245303233902
 30
0.0
 10
967.713130262145
 20
844.4495525581438
 30
0.0
 10
967.8353295791205
 20
844.3567815490587
 30
0.0
 10
967.9815406916396
 20
844.2491667785048
 30
0.0
 10
968.1517796771129
 20
844.1280842364162
 30
0.0
 10
968.3441488950214
 20
843.9896031872576
 30
0.0
 10
968.4806561313634
 20
843.8927859515777
 30
0.0
 10
968.5528353155044
 20
843.841593141076
 30
0.0
  0
SPLINE
  5
B3
330
1F
100
AcDbEntity
  8
0
  6
Continuous
 62
     7
370
    25
100
AcDbSpline
210
0.0
220
0.0
230
1.0
 70
     8
 71
     3
 72
    15
 73
    11
 74
     0
 42
0.00000001
 43
0.00000001
 40
0.0
 40
0.0
 40
0.0
 40
0.0
 40
0.1072852142689548
 40
0.2147458609696411
 40
0.3229385595552872
 40
0.4341161625174656
 40
0.5534123109627955
 40
0.6860729848107301
 40
0.8342559920595846
 40
1.0
 40
1.0
 40
1.0
 40
1.0
 10
966.9502712129403
 20
845.6717213462042
 30
0.0
 10
966.9511697881059
 20
845.628860823826
 30
0.0
 10
966.9529684077839
 20
845.5430696936835
 30
0.0
 10
966.9780536596386
 20
845.4163235863602
 30
0.0
 10
967.0102806972565
 20
845.289897667689
 30
0.0
 10
967.0613495698358
 20
845.1643603354967
 30
0.0
 10
967.1318531209575
 20
845.0375160862343
 30
0.0
 10
967.224436380172
 20
844.9071806861004
 30
0.0
 10
967.3410382362864
 20
844.7722053519929
 30
0.0
 10
967.430357121661
 20
844.6844170690787
 30
0.0
 10
967.4775148026839
 20
844.6380675000503
 30
0.0
  0
SPLINE
  5
B4
330
1F
100
AcDbEntity
  8
0
  6
Continuous
 62
     7
370
    25
100
AcDbSpline
210
0.0
220
0.0
230
1.0
 70
     8
 71
     3
 72
    15
 73
    11
 74
     0
 42
0.00000001
 43
0.00000001
 40
0.0
 40
0.0
 40
0.0
 40
0.0
 40
0.1430730837303606
 40
0.2759029640930102
 40
0.4023708562739964
 40
0.5284136450935928
 40
0.650356379186951
 40
0.7658950861246917
 40
0.8807741308440217
 40
1.0
 40
1.0
 40
1.0
 40
1.0
 10
968.1233481360172
 20
846.6845418590248
 30
0.0
 10
968.0407046562333
 20
846.6817722591346
 30
0.0
 10
967.8813344907148
 20
846.6764313466507
 30
0.0
 10
967.6550710938975
 20
846.6180999516985
 30
0.0
 10
967.45142783661
 20
846.5262556995707
 30
0.0
 10
967.2764505450531
 20
846.3975357496379
 30
0.0
 10
967.1307660260975
 20
846.2450306235004
 30
0.0
 10
967.0253821203491
 20
846.0695360976149
 30
0.0
 10
966.9619531728016
 20
845.8757477488044
 30
0.0
 10
966.9542131050279
 20
845.7405668200463
 30
0.0
 10
966.9502712129403
 20
845.6717213462042
 30
0.0
  0
SPLINE
  5
B5
330
1F
100
AcDbEntity
  8
0
  6
Continuous
 62
     7
370
    25
100
AcDbSpline
210
0.0
220
0.0
230
1.0
 70
     8
 71
     3
 72
    19
 73
    15
 74
     0
 42
0.00000001
 43
0.00000001
 40
0.0
 40
0.0
 40
0.0
 40
0.0
 40
0.0984694310255562
 40
0.1896291011376331
 40
0.2741840894379691
 40
0.3521831609671533
 40
0.4231988731834684
 40
0.4885509460005321
 40
0.5484733460279362
 40
0.6014401636178729
 40
0.7011980824257655
 40
0.7995918021381826
 40
0.8985450984822272
 40
1.0
 40
1.0
 40
1.0
 40
1.0
 10
969.6858481360172
 20
845.6589008333837
 30
0.0
 10
969.6466574332235
 20
845.7093892686354
 30
0.0
 10
969.5711853027728
 20
845.8066181902907
 30
0.0
 10
969.4566036185201
 20
845.9427811973908
 30
0.0
 10
969.3486067089882
 20
846.0671617220352
 30
0.0
 10
969.2422057951956
 20
846.1751963003895
 30
0.0
 10
969.1430203518449
 20
846.2728011765904
 30
0.0
 10
969.046752826709
 20
846.3563663350463
 30
0.0
 10
968.9547885953093
 20
846.4267105531723
 30
0.0
 10
968.8388642281184
 20
846.5017815473645
 30
0.0
 10
968.6932237290939
 20
846.5761964126326
 30
0.0
 10
968.5104019319755
 20
846.6391657339532
 30
0.0
 10
968.3193475890383
 20
846.6770058754818
 30
0.0
 10
968.1892227170597
 20
846.6820090470653
 30
0.0
 10
968.1233481360172
 20
846.6845418590248
 30
0.0
  0
LINE
  5
B6
330
1F
100
AcDbEntity
  8
0
  6
Continuous
 62
     7
370
    25
100
AcDbLine
 10
970.3348865976
 20
846.1508880129
 30
0.0
 11
969.685848136
 21
845.6589008334
 31
0.0
  0
SPLINE
  5
B7
330
1F
100
AcDbEntity
  8
0
  6
Continuous
 62
     7
370
    25
100
AcDbSpline
210
0.0
220
0.0
230
1.0
 70
     8
 71
     3
 72
    19
 73
    15
 74
     0
 42
0.00000001
 43
0.00000001
 40
0.0
 40
0.0
 40
0.0
 40
0.0
 40
0.1072327993600893
 40
0.2132518127818507
 40
0.3188304473075882
 40
0.4267935306342768
 40
0.4836459507827185
 40
0.5436038220211433
 40
0.6083076495640842
 40
0.6771267602600406
 40
0.7506856360204964
 40
0.8287134184432883
 40
0.9121903482234537
 40
0.9999999999999999
 40
0.9999999999999999
 40
0.9999999999999999
 40
0.9999999999999999
 10
968.2034763411455
 20
847.5050546795375
 30
0.0
 10
968.2977485703981
 20
847.5018031330252
 30
0.0
 10
968.4852259458194
 20
847.4953368447975
 30
0.0
 10
968.7609955814069
 20
847.4391139160666
 30
0.0
 10
969.0265057903224
 20
847.3460838091227
 30
0.0
 10
969.2400903956242
 20
847.2405097337454
 30
0.0
 10
969.4072509932512
 20
847.1350664978294
 30
0.0
 10
969.5347315251116
 20
847.039021185192
 30
0.0
 10
969.6639142697666
 20
846.9284495083824
 30
0.0
 10
969.7958412522324
 20
846.803056945912
 30
0.0
 10
969.9282770452362
 20
846.6616929434214
 30
0.0
 10
970.0631877932227
 20
846.505325654486
 30
0.0
 10
970.2008889790759
 20
846.3349106696531
 30
0.0
 10
970.2894738022162
 20
846.2132546679286
 30
0.0
 10
970.3348865975557
 20
846.1508880128708
 30
0.0
  0
SPLINE
  5
B8
330
1F
100
AcDbEntity
  8
0
  6
Continuous
 62
     7
370
    25
100
AcDbSpline
210
0.0
220
0.0
230
1.0
 70
     8
 71
     3
 72
    19
 73
    15
 74
     0
 42
0.00000001
 43
0.00000001
 40
0.0
 40
0.0
 40
0.0
 40
0.0
 40
0.0837853706537116
 40
0.1657798879221427
 40
0.2462800078932648
 40
0.3274609277363902
 40
0.4087969540320696
 40
0.4897152412309891
 40
0.5713760321300533
 40
0.6555233211112769
 40
0.7410194827999725
 40
0.8265467605037614
 40
0.911988851654834
 40
1.0
 40
1.0
 40
1.0
 40
1.0
 10
966.2323224949915
 20
845.6380675000503
 30
0.0
 10
966.2353058298336
 20
845.7227069847697
 30
0.0
 10
966.2412087328329
 20
845.8901768447355
 30
0.0
 10
966.2911299151655
 20
846.1348187428889
 30
0.0
 10
966.3699251006614
 20
846.368387696529
 30
0.0
 10
966.4803134157736
 20
846.5885713164712
 30
0.0
 10
966.6226159367295
 20
846.7896364156442
 30
0.0
 10
966.7872924495643
 20
846.9738958144603
 30
0.0
 10
966.9834329895356
 20
847.1287954309652
 30
0.0
 10
967.1986389855663
 20
847.2641372787119
 30
0.0
 10
967.4341964074695
 20
847.3700708220424
 30
0.0
 10
967.6810327580927
 20
847.4499816338378
 30
0.0
 10
967.9395403512932
 20
847.4952599371313
 30
0.0
 10
968.1146332304323
 20
847.5017576855032
 30
0.0
 10
968.2034763411455
 20
847.5050546795375
 30
0.0
  0
SPLINE
  5
B9
330
1F
100
AcDbEntity
  8
0
  6
Continuous
 62
     7
370
    25
100
AcDbSpline
210
0.0
220
0.0
230
1.0
 70
     8
 71
     3
 72
    15
 73
    11
 74
     0
 42
0.00000001
 43
0.00000001
 40
0.0
 40
0.0
 40
0.0
 40
0.0
 40
0.1335067689985154
 40
0.2625589787303677
 40
0.3882644471488776
 40
0.5126673546814279
 40
0.6337222699657615
 40
0.7553938601370975
 40
0.877552945091281
 40
1.0
 40
1.0
 40
1.0
 40
1.0
 10
966.679437879607
 20
844.4201187821017
 30
0.0
 10
966.6440720619358
 20
844.4672068663398
 30
0.0
 10
966.5745204351578
 20
844.5598119035277
 30
0.0
 10
966.4827124226663
 20
844.7045544355682
 30
0.0
 10
966.4046800505556
 20
844.8527218993606
 30
0.0
 10
966.3435090056728
 20
845.0047124469369
 30
0.0
 10
966.2919976483252
 20
845.1583922843781
 30
0.0
 10
966.2573509495417
 20
845.3157665602631
 30
0.0
 10
966.2356563280199
 20
845.4761291167533
 30
0.0
 10
966.2334346445157
 20
845.5840456896047
 30
0.0
 10
966.2323224949915
 20
845.6380675000503
 30
0.0
  0
SPLINE
  5
BA
330
1F
100
AcDbEntity
  8
0
  6
Continuous
 62
     7
370
    25
100
AcDbSpline
210
0.0
220
0.0
230
1.0
 70
     8
 71
     3
 72
    15
 73
    11
 74
     0
 42
0.00000001
 43
0.00000001
 40
0.0
 40
0.0
 40
0.0
 40
0.0
 40
0.1815353013762874
 40
0.34708167248163
 40
0.4955678164315543
 40
0.6283573018772124
 40
0.7455196699921548
 40
0.845830750757651
 40
0.9307818073847574
 40
1.0
 40
1.0
 40
1.0
 40
1.0
 10
967.9903353155044
 20
843.3319777564607
 30
0.0
 10
967.9061661813809
 20
843.3919288138762
 30
0.0
 10
967.7452412063404
 20
843.5065506704358
 30
0.0
 10
967.5201930181202
 20
843.6766633196098
 30
0.0
 10
967.3189485312404
 20
843.832192164277
 30
0.0
 10
967.1424022077584
 20
843.9746013347971
 30
0.0
 10
966.9906317006818
 20
844.1039101456082
 30
0.0
 10
966.8624410469351
 20
844.2188768636474
 30
0.0
 10
966.761095773574
 20
844.3226107170608
 30
0.0
 10
966.7047401606401
 20
844.3899052124783
 30
0.0
 10
966.679437879607
 20
844.4201187821017
 30
0.0
  0
SPLINE
  5
BB
330
1F
100
AcDbEntity
  8
0
  6
Continuous
 62
     7
370
    25
100
AcDbSpline
210
0.0
220
0.0
230
1.0
 70
     8
 71
     3
 72
    15
 73
    11
 74
     0
 42
0.00000001
 43
0.00000001
 40
0.0
 40
0.0
 40
0.0
 40
0.0
 40
0.0902792146500176
 40
0.1895299184469602
 40
0.2991978724002875
 40
0.4189258867738195
 40
0.5483762854012477
 40
0.688136369538681
 40
0.8390835016589189
 40
1.0
 40
1.0
 40
1.0
 40
1.0
 10
969.4326430078121
 20
842.0563367308196
 30
0.0
 10
969.3968244611136
 20
842.102158041913
 30
0.0
 10
969.3216279027367
 20
842.1983541529261
 30
0.0
 10
969.1923535882383
 20
842.3415432625843
 30
0.0
 10
969.0406596126832
 20
842.4892425059032
 30
0.0
 10
968.8717372014564
 20
842.6470917789303
 30
0.0
 10
968.6794329983923
 20
842.8077495999315
 30
0.0
 10
968.4697701083279
 20
842.9788770923634
 30
0.0
 10
968.2373955735482
 20
843.1539664113272
 30
0.0
 10
968.0744252955642
 20
843.2713894182908
 30
0.0
 10
967.9903353155044
 20
843.3319777564607
 30
0.0
  0
SPLINE
  5
BC
330
1F
100
AcDbEntity
  8
0
  6
Continuous
 62
     7
370
    25
100
AcDbSpline
210
0.0
220
0.0
230
1.0
 70
     8
 71
     3
 72
    11
 73
     7
 74
     0
 42
0.00000001
 43
0.00000001
 40
0.0
 40
0.0
 40
0.0
 40
0.0
 40
0.2347233736739069
 40
0.4771583189289874
 40
0.7285562842030578
 40
0.9999999999999999
 40
0.9999999999999999
 40
0.9999999999999999
 40
0.9999999999999999
 10
969.7195019821711
 20
841.2710803205632
 30
0.0
 10
969.7161321291441
 20
841.3376879770374
 30
0.0
 10
969.7092817103716
 20
841.4730916093795
 30
0.0
 10
969.6513811844916
 20
841.6728622447027
 30
0.0
 10
969.5602971917066
 20
841.8705595476154
 30
0.0
 10
969.4762682918094
 20
841.9928481546502
 30
0.0
 10
969.4326430078121
 20
842.0563367308196
 30
0.0
  0
SPLINE
  5
BD
330
1F
100
AcDbEntity
  8
0
  6
Continuous
 62
     7
370
    25
100
AcDbSpline
210
0.0
220
0.0
230
1.0
 70
     8
 71
     3
 72
    19
 73
    15
 74
     0
 42
0.00000001
 43
0.00000001
 40
0.0
 40
0.0
 40
0.0
 40
0.0
 40
0.0912636048966267
 40
0.1809303110850813
 40
0.2700882198317228
 40
0.3601561333877255
 40
0.4483425324981547
 40
0.5326658421383297
 40
0.613833704107048
 40
0.6939815272835586
 40
0.7727159770890041
 40
0.8493351720622467
 40
0.9239673265752314
 40
1.0
 40
1.0
 40
1.0
 40
1.0
 10
968.1521942898635
 20
839.9153110897939
 30
0.0
 10
968.2223356853183
 20
839.9172646269647
 30
0.0
 10
968.3613911665691
 20
839.9211375189947
 30
0.0
 10
968.5661048647659
 20
839.9583507808218
 30
0.0
 10
968.7649204128026
 20
840.0155213611954
 30
0.0
 10
968.9537401561868
 20
840.0973977760721
 30
0.0
 10
969.1299587036873
 20
840.1964571720148
 30
0.0
 10
969.2844882930282
 20
840.3161055777458
 30
0.0
 10
969.418079408867
 20
840.450062619377
 30
0.0
 10
969.5273573850205
 20
840.5995086871301
 30
0.0
 10
969.6111974656795
 20
840.7602335982325
 30
0.0
 10
969.6756364791955
 20
840.9252072012914
 30
0.0
 10
969.7113966475529
 20
841.0970210716434
 30
0.0
 10
969.7167835125969
 20
841.2127021295812
 30
0.0
 10
969.7195019821711
 20
841.2710803205632
 30
0.0
  0
SPLINE
  5
BE
330
1F
100
AcDbEntity
  8
0
  6
Continuous
 62
     7
370
    25
100
AcDbSpline
210
0.0
220
0.0
230
1.0
 70
     8
 71
     3
 72
    15
 73
    11
 74
     0
 42
0.00000001
 43
0.00000001
 40
0.0
 40
0.0
 40
0.0
 40
0.0
 40
0.1590042985173781
 40
0.3046460998968138
 40
0.4385469045795914
 40
0.562322298775928
 40
0.6774325425257306
 40
0.7868973929387534
 40
0.8936108891042673
 40
1.0
 40
1.0
 40
1.0
 40
1.0
 10
966.3957840334532
 20
841.2486444231273
 30
0.0
 10
966.4586828614543
 20
841.143354400391
 30
0.0
 10
966.5791945886047
 20
840.9416227800277
 30
0.0
 10
966.7802262666675
 20
840.6690329733333
 30
0.0
 10
966.9885300636182
 20
840.4373480435985
 30
0.0
 10
967.2056485403026
 20
840.2479157977932
 30
0.0
 10
967.4302564217252
 20
840.0987754852272
 30
0.0
 10
967.6638199731234
 20
839.9931703841562
 30
0.0
 10
967.9055521118923
 20
839.9273052975932
 30
0.0
 10
968.0700637038453
 20
839.919305099754
 30
0.0
 10
968.1521942898635
 20
839.9153110897939
 30
0.0
  0
LINE
  5
BF
330
1F
100
AcDbEntity
  8
0
  6
Continuous
 62
     7
370
    25
100
AcDbLine
 10
965.7195019822
 20
840.8431957052
 30
0.0
 11
966.3957840335
 21
841.2486444231
 31
0.0
  0
SPLINE
  5
C0
330
1F
100
AcDbEntity
  8
0
  6
Continuous
 62
     7
370
    25
100
AcDbSpline
210
0.0
220
0.0
230
1.0
 70
     8
 71
     3
 72
    23
 73
    19
 74
     0
 42
0.00000001
 43
0.00000001
 40
0.0
 40
0.0
 40
0.0
 40
0.0
 40
0.0572082694335106
 40
0.1136960596574914
 40
0.1691779164171953
 40
0.2241592165805425
 40
0.278719878381045
 40
0.3337942174469897
 40
0.3892414593400036
 40
0.4458220733936226
 40
0.5037042811090208
 40
0.5642938918193634
 40
0.6279754158952235
 40
0.6950382596840512
 40
0.7653727258510141
 40
0.8396114430907355
 40
0.9175377500777895
 40
1.0
 40
1.0
 40
1.0
 40
1.0
 10
968.1521942898635
 20
839.0947982692811
 30
0.0
 10
968.091770648764
 20
839.095966684361
 30
0.0
 10
967.971684340068
 20
839.0982887995364
 30
0.0
 10
967.794062667215
 20
839.1188174405014
 30
0.0
 10
967.6200293204766
 20
839.1478622487099
 30
0.0
 10
967.4517681043986
 20
839.193974408657
 30
0.0
 10
967.2871111635031
 20
839.2499217847534
 30
0.0
 10
967.1267746274439
 20
839.3188094021207
 30
0.0
 10
966.970680790059
 20
839.401363005429
 30
0.0
 10
966.8179548863599
 20
839.4957516331515
 30
0.0
 10
966.6689853444487
 20
839.6055979064397
 30
0.0
 10
966.5251694177542
 20
839.73353732687
 30
0.0
 10
966.3817884222952
 20
839.8760413382786
 30
0.0
 10
966.2430743735601
 20
840.0369797688196
 30
0.0
 10
966.1062214722899
 20
840.2137525296374
 30
0.0
 10
965.9739279647778
 20
840.40801352026
 30
0.0
 10
965.8434554672257
 20
840.6187046145664
 30
0.0
 10
965.7615915407633
 20
840.7669676676402
 30
0.0
 10
965.7195019821711
 20
840.8431957051785
 30
0.0
  0
SPLINE
  5
C1
330
1F
100
AcDbEntity
  8
0
  6
Continuous
 62
     7
370
    25
100
AcDbSpline
210
0.0
220
0.0
230
1.0
 70
     8
 71
     3
 72
    23
 73
    19
 74
     0
 42
0.00000001
 43
0.00000001
 40
0.0
 40
0.0
 40
0.0
 40
0.0
 40
0.0614842551968908
 40
0.1217745277022101
 40
0.1809195598139335
 40
0.2402561150782715
 40
0.3001144444023517
 40
0.361145947612612
 40
0.4235005824125854
 40
0.4886693612807191
 40
0.5539541046535638
 40
0.6175812610152616
 40
0.6802384268167395
 40
0.7421873887724542
 40
0.804663211769293
 40
0.8682589893126633
 40
0.9330202571803768
 40
1.0
 40
1.0
 40
1.0
 40
1.0
 10
970.4374507001198
 20
841.2598623718452
 30
0.0
 10
970.4359486701221
 20
841.1881403944839
 30
0.0
 10
970.4329737785346
 20
841.0460892320997
 30
0.0
 10
970.3987774041834
 20
840.8375061992263
 30
0.0
 10
970.3486753123833
 20
840.6349213542344
 30
0.0
 10
970.273161634782
 20
840.4408388115029
 30
0.0
 10
970.1809944159023
 20
840.2517079253693
 30
0.0
 10
970.0640429922084
 20
840.0724898672872
 30
0.0
 10
969.9284825699509
 20
839.8992180990884
 30
0.0
 10
969.772976821598
 20
839.736512975991
 30
0.0
 10
969.6028147591603
 20
839.58715024231
 30
0.0
 10
969.4229663142169
 20
839.4542838160872
 30
0.0
 10
969.2331371189388
 20
839.343499076898
 30
0.0
 10
969.0343569665199
 20
839.2530971522124
 30
0.0
 10
968.8265801969038
 20
839.1823919692953
 30
0.0
 10
968.6098766909964
 20
839.1311625541389
 30
0.0
 10
968.3838892367802
 20
839.0997209291938
 30
0.0
 10
968.2302881360432
 20
839.0964574744175
 30
0.0
 10
968.1521942898635
 20
839.0947982692811
 30
0.0
  0
LINE
  5
C2
330
1F
100
AcDbEntity
  8
0
  6
Continuous
 62
     7
370
    25
100
AcDbLine
 10
975.1553994181
 20
839.2999264744
 30
0.0
 11
975.1553994181
 21
841.1460803206
 31
0.0
  0
LINE
  5
C3
330
1F
100
AcDbEntity
  8
0
  6
Continuous
 62
     7
370
    25
100
AcDbLine
 10
975.873348136
 20
839.2999264744
 30
0.0
 11
975.1553994181
 21
839.2999264744
 31
0.0
  0
LINE
  5
C4
330
1F
100
AcDbEntity
  8
0
  6
Continuous
 62
     7
370
    25
100
AcDbLine
 10
975.873348136
 20
841.1460803206
 30
0.0
 11
975.873348136
 21
839.2999264744
 31
0.0
  0
LINE
  5
C5
330
1F
100
AcDbEntity
  8
0
  6
Continuous
 62
     7
370
    25
100
AcDbLine
 10
976.7964250591
 20
841.1460803206
 30
0.0
 11
975.873348136
 21
841.1460803206
 31
0.0
  0
LINE
  5
C6
330
1F
100
AcDbEntity
  8
0
  6
Continuous
 62
     7
370
    25
100
AcDbLine
 10
976.7964250591
 20
841.9665931411
 30
0.0
 11
976.7964250591
 21
841.1460803206
 31
0.0
  0
LINE
  5
C7
330
1F
100
AcDbEntity
  8
0
  6
Continuous
 62
     7
370
    25
100
AcDbLine
 10
975.873348136
 20
841.9665931411
 30
0.0
 11
976.7964250591
 21
841.9665931411
 31
0.0
  0
LINE
  5
C8
330
1F
100
AcDbEntity
  8
0
  6
Continuous
 62
     7
370
    25
100
AcDbLine
 10
975.873348136
 20
847.5050546795
 30
0.0
 11
975.873348136
 21
841.9665931411
 31
0.0
  0
LINE
  5
C9
330
1F
100
AcDbEntity
  8
0
  6
Continuous
 62
     7
370
    25
100
AcDbLine
 10
975.7275148027
 20
847.5050546795
 30
0.0
 11
975.873348136
 21
847.5050546795
 31
0.0
  0
LINE
  5
CA
330
1F
100
AcDbEntity
  8
0
  6
Continuous
 62
     7
370
    25
100
AcDbLine
 10
971.3605276232
 20
841.1460803206
 30
0.0
 11
975.7275148027
 21
847.5050546795
 31
0.0
  0
LINE
  5
CB
330
1F
100
AcDbEntity
  8
0
  6
Continuous
 62
     7
370
    25
100
AcDbLine
 10
975.1553994181
 20
841.1460803206
 30
0.0
 11
971.3605276232
 21
841.1460803206
 31
0.0
  0
LINE
  5
CC
330
1F
100
AcDbEntity
  8
0
  6
Continuous
 62
     7
370
    25
100
AcDbLine
 10
985.1041173668
 20
843.1605033975
 30
0.0
 11
985.1041173668
 21
839.2999264744
 31
0.0
  0
LINE
  5
CD
330
1F
100
AcDbEntity
  8
0
  6
Continuous
 62
     7
370
    25
100
AcDbLine
 10
988.8140532642
 20
839.2999264744
 30
0.0
 11
985.1041173668
 21
843.1605033975
 31
0.0
  0
LINE
  5
CE
330
1F
100
AcDbEntity
  8
0
  6
Continuous
 62
     7
370
    25
100
AcDbLine
 10
989.7707840335
 20
839.2999264744
 30
0.0
 11
988.8140532642
 21
839.2999264744
 31
0.0
  0
LINE
  5
CF
330
1F
100
AcDbEntity
  8
0
  6
Continuous
 62
     7
370
    25
100
AcDbLine
 10
985.5320019822
 20
843.7101828847
 30
0.0
 11
989.7707840335
 21
839.2999264744
 31
0.0
  0
LINE
  5
D0
330
1F
100
AcDbEntity
  8
0
  6
Continuous
 62
     7
370
    25
100
AcDbLine
 10
989.4630917258
 20
847.2999264744
 30
0.0
 11
985.5320019822
 21
843.7101828847
 31
0.0
  0
LINE
  5
D1
330
1F
100
AcDbEntity
  8
0
  6
Continuous
 62
     7
370
    25
100
AcDbLine
 10
988.4390532642
 20
847.2999264744
 30
0.0
 11
989.4630917258
 21
847.2999264744
 31
0.0
  0
LINE
  5
D2
330
1F
100
AcDbEntity
  8
0
  6
Continuous
 62
     7
370
    25
100
AcDbLine
 10
985.1041173668
 20
844.2534521154
 30
0.0
 11
988.4390532642
 21
847.2999264744
 31
0.0
  0
LINE
  5
D3
330
1F
100
AcDbEntity
  8
0
  6
Continuous
 62
     7
370
    25
100
AcDbLine
 10
985.1041173668
 20
847.2999264744
 30
0.0
 11
985.1041173668
 21
844.2534521154
 31
0.0
  0
LINE
  5
D4
330
1F
100
AcDbEntity
  8
0
  6
Continuous
 62
     7
370
    25
100
AcDbLine
 10
984.3861686488
 20
847.2999264744
 30
0.0
 11
985.1041173668
 21
847.2999264744
 31
0.0
  0
LINE
  5
D5
330
1F
100
AcDbEntity
  8
0
  6
Continuous
 62
     7
370
    25
100
AcDbLine
 10
984.3861686488
 20
839.2999264744
 30
0.0
 11
984.3861686488
 21
847.2999264744
 31
0.0
  0
LINE
  5
D6
330
1F
100
AcDbEntity
  8
0
  6
Continuous
 62
     7
370
    25
100
AcDbLine
 10
985.1041173668
 20
839.2999264744
 30
0.0
 11
984.3861686488
 21
839.2999264744
 31
0.0
  0
CIRCLE
  5
D7
330
1F
100
AcDbEntity
  8
0
  6
Continuous
 62
     7
370
    25
100
AcDbCircle
 10
951.4872798434
 20
785.6360078278
 30
0.0
 40
177.5
  0
CIRCLE
  5
D8
330
1F
100
AcDbEntity
  8
0
  6
Continuous
 62
     7
370
    25
100
AcDbCircle
 10
989.6630889961
 20
928.1100672054
 30
0.0
 40
16.5
  0
CIRCLE
  5
D9
330
1F
100
AcDbEntity
  8
0
  6
Continuous
 62
     7
370
    25
100
AcDbCircle
 10
847.1890296184
 20
889.9342580528
 30
0.0
 40
16.50000000000007
  0
CIRCLE
  5
DA
330
1F
100
AcDbEntity
  8
0
  6
Continuous
 62
     7
370
    25
100
AcDbCircle
 10
809.0132204658
 20
823.8118169804
 30
0.0
 40
16.49999999999989
  0
CIRCLE
  5
DB
330
1F
100
AcDbEntity
  8
0
  6
Continuous
 62
     7
370
    25
100
AcDbCircle
 10
809.0132204658
 20
747.4601986752
 30
0.0
 40
16.50000000000003
  0
CIRCLE
  5
DC
330
1F
100
AcDbEntity
  8
0
  6
Continuous
 62
     7
370
    25
100
AcDbCircle
 10
847.1890296184
 20
681.3377576028
 30
0.0
 40
16.50000000000002
  0
CIRCLE
  5
DD
330
1F
100
AcDbEntity
  8
0
  6
Continuous
 62
     7
370
    25
100
AcDbCircle
 10
913.3114706908
 20
643.1619484502
 30
0.0
 40
16.5
  0
CIRCLE
  5
DE
330
1F
100
AcDbEntity
  8
0
  6
Continuous
 62
     7
370
    25
100
AcDbCircle
 10
989.6630889961
 20
643.1619484502
 30
0.0
 40
16.50000000000003
  0
CIRCLE
  5
DF
330
1F
100
AcDbEntity
  8
0
  6
Continuous
 62
     7
370
    25
100
AcDbCircle
 10
1055.7855300685
 20
681.3377576028
 30
0.0
 40
16.49999999999998
  0
CIRCLE
  5
E0
330
1F
100
AcDbEntity
  8
0
  6
Continuous
 62
     7
370
    25
100
AcDbCircle
 10
1093.9613392211
 20
747.4601986752
 30
0.0
 40
16.49999999999989
  0
CIRCLE
  5
E1
330
1F
100
AcDbEntity
  8
0
  6
Continuous
 62
     7
370
    25
100
AcDbCircle
 10
1093.9613392211
 20
823.8118169804
 30
0.0
 40
16.49999999999988
  0
CIRCLE
  5
E2
330
1F
100
AcDbEntity
  8
0
  6
Continuous
 62
     7
370
    25
100
AcDbCircle
 10
1055.7855300685
 20
889.9342580528
 30
0.0
 40
16.50000000000011
  0
CIRCLE
  5
E3
330
1F
100
AcDbEntity
  8
0
  6
Continuous
 62
     7
370
    25
100
AcDbCircle
 10
913.3114706908
 20
928.1100672054
 30
0.0
 40
16.49999999999998
  0
SPLINE
  5
E4
330
1F
100
AcDbEntity
  8
0
  6
Continuous
 62
     7
370
    25
100
AcDbSpline
210
0.0
220
0.0
230
1.0
 70
     8
 71
     3
 72
    31
 73
    27
 74
     0
 42
0.00000001
 43
0.00000001
 40
0.0
 40
0.0
 40
0.0
 40
0.0
 40
0.0337881161627101
 40
0.0671939323738797
 40
0.0998624108568255
 40
0.1325666121262585
 40
0.1651511732547863
 40
0.1979131873557918
 40
0.2313190035669611
 40
0.265083278267373
 40
0.299255308758115
 40
0.3343985665049787
 40
0.3699428235093075
 40
0.4062835607000613
 40
0.4440638196985079
 40
0.4829977068727757
 40
0.5233544466133041
 40
0.5655365896041484
 40
0.6096129240658192
 40
0.6563908113764165
 40
0.7058854949364568
 40
0.7583245002617313
 40
0.8138317829411499
 40
0.87279455903939
 40
0.9347222295400733
 40
1.0
 40
1.0
 40
1.0
 40
1.0
 10
980.1890532642224
 20
847.5050546795375
 30
0.0
 10
980.2526772150437
 20
847.5039396734218
 30
0.0
 10
980.3792052353767
 20
847.5017222770691
 30
0.0
 10
980.5662689502245
 20
847.4804104084186
 30
0.0
 10
980.749011079858
 20
847.4450478413398
 30
0.0
 10
980.9266525397516
 20
847.3949427565794
 30
0.0
 10
981.1006525088208
 20
847.3327812099294
 30
0.0
 10
981.2696500120109
 20
847.2548677993941
 30
0.0
 10
981.4346947700498
 20
847.1641732454639
 30
0.0
 10
981.5931639986667
 20
847.0576043830488
 30
0.0
 10
981.7467974051721
 20
846.9387877517419
 30
0.0
 10
981.8918213205368
 20
846.8044730801913
 30
0.0
 10
982.0282489454453
 20
846.656016579006
 30
0.0
 10
982.1577925006138
 20
846.4950066044079
 30
0.0
 10
982.2767767227836
 20
846.3183549819312
 30
0.0
 10
982.390087425036
 20
846.1291341594989
 30
0.0
 10
982.4915092213827
 20
845.9240350399701
 30
0.0
 10
982.5891884789337
 20
845.7064796849048
 30
0.0
 10
982.6735015914804
 20
845.4704484647754
 30
0.0
 10
982.7495387235316
 20
845.2172718693054
 30
0.0
 10
982.8109763659885
 20
844.9439594422121
 30
0.0
 10
982.8621518456185
 20
844.6519451672518
 30
0.0
 10
982.9017973220656
 20
844.3401566341314
 30
0.0
 10
982.9306719325309
 20
844.009262198676
 30
0.0
 10
982.9459246983396
 20
843.6590441629257
 30
0.0
 10
982.9487971582407
 20
843.4195976505208
 30
0.0
 10
982.9502712129403
 20
843.2967213462041
 30
0.0
  0
SPLINE
  5
E5
330
1F
100
AcDbEntity
  8
0
  6
Continuous
 62
     7
370
    25
100
AcDbSpline
210
0.0
220
0.0
230
1.0
 70
     8
 71
     3
 72
    31
 73
    27
 74
     0
 42
0.00000001
 43
0.00000001
 40
0.0
 40
0.0
 40
0.0
 40
0.0
 40
0.0685946222587427
 40
0.1332460424433014
 40
0.194312586468256
 40
0.2512792231169662
 40
0.3045134392563468
 40
0.3542349066533251
 40
0.400480588773989
 40
0.4434107549384921
 40
0.4840148686163452
 40
0.5232523007732034
 40
0.5610423727283604
 40
0.5979002393643995
 40
0.6335184888561959
 40
0.6683143511696515
 40
0.7024956712863816
 40
0.7366853535134587
 40
0.7702931693607897
 40
0.8034372550192487
 40
0.8359129516660286
 40
0.8684602457892912
 40
0.9008465382431832
 40
0.9334665246307073
 40
0.9662575752981237
 40
1.0
 40
1.0
 40
1.0
 40
1.0
 10
977.5143737770429
 20
843.2967213462041
 30
0.0
 10
977.5151235328314
 20
843.4249439467396
 30
0.0
 10
977.5165799442574
 20
843.6740181964482
 30
0.0
 10
977.5327820492682
 20
844.0369545211722
 30
0.0
 10
977.5596971174125
 20
844.3774351817327
 30
0.0
 10
977.5965825410703
 20
844.6954764755347
 30
0.0
 10
977.64146935301
 20
844.9911605087182
 30
0.0
 10
977.7013904652415
 20
845.2636970964583
 30
0.0
 10
977.7695340140757
 20
845.5143476258595
 30
0.0
 10
977.8485110330711
 20
845.7439294509476
 30
0.0
 10
977.9376259793988
 20
845.955535629284
 30
0.0
 10
978.0346185753349
 20
846.1530789465268
 30
0.0
 10
978.143338105446
 20
846.3362605061607
 30
0.0
 10
978.2575710492794
 20
846.5080040271205
 30
0.0
 10
978.3819414987144
 20
846.6654981866457
 30
0.0
 10
978.5129101626395
 20
846.8109671295452
 30
0.0
 10
978.6555887369643
 20
846.9410488448912
 30
0.0
 10
978.8051270415893
 20
847.0595546789141
 30
0.0
 10
978.9628789601991
 20
847.1634391855929
 30
0.0
 10
979.1243479113834
 20
847.2549425881432
 30
0.0
 10
979.290645296197
 20
847.3331137133034
 30
0.0
 10
979.4622251428209
 20
847.3945775666966
 30
0.0
 10
979.6375452751403
 20
847.4453452164627
 30
0.0
 10
979.8172185704345
 20
847.4800628110834
 30
0.0
 10
980.0015416880034
 20
847.5019071733449
 30
0.0
 10
980.1259563961133
 20
847.503995556751
 30
0.0
 10
980.1890532642224
 20
847.5050546795375
 30
0.0
  0
SPLINE
  5
E6
330
1F
100
AcDbEntity
  8
0
  6
Continuous
 62
     7
370
    25
100
AcDbSpline
210
0.0
220
0.0
230
1.0
 70
     8
 71
     3
 72
    31
 73
    27
 74
     0
 42
0.00000001
 43
0.00000001
 40
0.0
 40
0.0
 40
0.0
 40
0.0
 40
0.0337871463469904
 40
0.0666216577242943
 40
0.0992848780959717
 40
0.1313611650426509
 40
0.1635851875953427
 40
0.1961039269870672
 40
0.2289022543238171
 40
0.2621580559050075
 40
0.2959912222583159
 40
0.3302178457248001
 40
0.3650598258919541
 40
0.4009507373401079
 40
0.4376203820767379
 40
0.4757075294370925
 40
0.515380691625048
 40
0.5564135414931645
 40
0.5997648298727305
 40
0.6464241555840874
 40
0.6964314445175674
 40
0.7497815178015572
 40
0.8065733069755328
 40
0.8674355315654001
 40
0.9318867532508747
 40
1.0
 40
1.0
 40
1.0
 40
1.0
 10
980.1890532642224
 20
839.0947982692811
 30
0.0
 10
980.1259581465418
 20
839.0958642246155
 30
0.0
 10
980.001546889935
 20
839.0979660804725
 30
0.0
 10
979.8171984889304
 20
839.1197117524455
 30
0.0
 10
979.6382671896391
 20
839.1546729026451
 30
0.0
 10
979.4638700375532
 20
839.2036251405676
 30
0.0
 10
979.2931122887904
 20
839.2635447664316
 30
0.0
 10
979.1283207764344
 20
839.3416103289526
 30
0.0
 10
978.9676632137129
 20
839.4315167722806
 30
0.0
 10
978.8115682285287
 20
839.5339063069966
 30
0.0
 10
978.6629690032947
 20
839.6512130112901
 30
0.0
 10
978.521029334006
 20
839.7809599568592
 30
0.0
 10
978.3893150046414
 20
839.9263848969675
 30
0.0
 10
978.2667227860876
 20
840.0851915783566
 30
0.0
 10
978.1502105844974
 20
840.2559189894029
 30
0.0
 10
978.0430348740533
 20
840.4408981277925
 30
0.0
 10
977.9439014933263
 20
840.6393955231972
 30
0.0
 10
977.8532878003697
 20
840.8526936047404
 30
0.0
 10
977.77294799805
 20
841.0839048684198
 30
0.0
 10
977.7019818080763
 20
841.3356744192827
 30
0.0
 10
977.6459494481447
 20
841.6102244446862
 30
0.0
 10
977.5979884073839
 20
841.9053498552128
 30
0.0
 10
977.5593041032845
 20
842.2223188389519
 30
0.0
 10
977.5328942168426
 20
842.5613034748076
 30
0.0
 10
977.5165712110465
 20
842.9220925237817
 30
0.0
 10
977.5151196215147
 20
843.1695662936482
 30
0.0
 10
977.5143737770429
 20
843.2967213462041
 30
0.0
  0
SPLINE
  5
E7
330
1F
100
AcDbEntity
  8
0
  6
Continuous
 62
     7
370
    25
100
AcDbSpline
210
0.0
220
0.0
230
1.0
 70
     8
 71
     3
 72
    31
 73
    27
 74
     0
 42
0.00000001
 43
0.00000001
 40
0.0
 40
0.0
 40
0.0
 40
0.0
 40
0.0650632896172782
 40
0.1267731664665232
 40
0.1855157632260793
 40
0.2407646791677144
 40
0.2929797960235974
 40
0.3422503727797676
 40
0.3889192861856603
 40
0.4327756640583104
 40
0.4746284326311173
 40
0.5147746906379533
 40
0.5536058934984425
 40
0.5914264064311725
 40
0.6280281199460669
 40
0.6638036341103201
 40
0.6989843361316641
 40
0.7335914893067051
 40
0.7676284691511392
 40
0.8012083477865914
 40
0.8342638397266229
 40
0.8669806947287759
 40
0.8997197415181609
 40
0.9327019124985385
 40
0.9661758834327498
 40
1.0
 40
1.0
 40
1.0
 40
1.0
 10
982.9502712129403
 20
843.2967213462041
 30
0.0
 10
982.9487818768399
 20
843.1743809851964
 30
0.0
 10
982.9458799661851
 20
842.9360057809477
 30
0.0
 10
982.9308429221446
 20
842.5873635516454
 30
0.0
 10
982.9012231937361
 20
842.2582251669628
 30
0.0
 10
982.8641717918874
 20
841.9478012527715
 30
0.0
 10
982.812855305091
 20
841.6573838382961
 30
0.0
 10
982.749757782231
 20
841.3859679560837
 30
0.0
 10
982.6796999014955
 20
841.1323815065628
 30
0.0
 10
982.5932203721017
 20
840.8987019371687
 30
0.0
 10
982.4985673198794
 20
840.6816694277635
 30
0.0
 10
982.3955840143357
 20
840.4790016601527
 30
0.0
 10
982.2852529832827
 20
840.2889072768849
 30
0.0
 10
982.1650501375615
 20
840.112907855328
 30
0.0
 10
982.0369280502555
 20
839.9497566391615
 30
0.0
 10
981.8981445330143
 20
839.8023335016723
 30
0.0
 10
981.7526117670668
 20
839.6670862514708
 30
0.0
 10
981.5985262451607
 20
839.5467396744144
 30
0.0
 10
981.4375855566301
 20
839.4414029781027
 30
0.0
 10
981.273107666516
 20
839.347199891502
 30
0.0
 10
981.1021742188651
 20
839.2712394456737
 30
0.0
 10
980.9286588983405
 20
839.2060164948675
 30
0.0
 10
980.7500797757921
 20
839.1561868905562
 30
0.0
 10
980.5666594542162
 20
839.1217323636521
 30
0.0
 10
980.3793309149505
 20
839.0975681386126
 30
0.0
 10
980.2526987661935
 20
839.0957247560405
 30
0.0
 10
980.1890532642224
 20
839.0947982692811
 30
0.0
  0
SPLINE
  5
E8
330
1F
100
AcDbEntity
  8
0
  6
Continuous
 62
     7
370
    25
100
AcDbSpline
210
0.0
220
0.0
230
1.0
 70
     8
 71
     3
 72
    23
 73
    19
 74
     0
 42
0.00000001
 43
0.00000001
 40
0.0
 40
0.0
 40
0.0
 40
0.0
 40
0.0611602766365182
 40
0.1203345577262017
 40
0.1781802550631247
 40
0.2352351259863637
 40
0.2926829614441804
 40
0.3511862482150802
 40
0.4104566095096936
 40
0.471719854462996
 40
0.5337612027725894
 40
0.5957390238870951
 40
0.6578875151248847
 40
0.7212951802914618
 40
0.7868225145418899
 40
0.8546861538286843
 40
0.9254779862699963
 40
1.0
 40
1.0
 40
1.0
 40
1.0
 10
953.1041173667865
 20
841.5707598077427
 30
0.0
 10
953.1018845758759
 20
841.4926641000355
 30
0.0
 10
953.0974914972065
 20
841.339008607221
 30
0.0
 10
953.0650801330997
 20
841.1132825853913
 30
0.0
 10
953.0102021742633
 20
840.8975684217048
 30
0.0
 10
952.9346109825727
 20
840.690470861238
 30
0.0
 10
952.8359542634907
 20
840.4923905538765
 30
0.0
 10
952.7158903450189
 20
840.3031030933358
 30
0.0
 10
952.5727324853096
 20
840.1245103376488
 30
0.0
 10
952.412588784848
 20
839.9546277705563
 30
0.0
 10
952.2314181665881
 20
839.8018785423511
 30
0.0
 10
952.0359535839082
 20
839.6658426413652
 30
0.0
 10
951.8237334241512
 20
839.5539659279585
 30
0.0
 10
951.5982431521136
 20
839.4599864502377
 30
0.0
 10
951.3569532867097
 20
839.3881985680318
 30
0.0
 10
951.1009473270301
 20
839.3379755419763
 30
0.0
 10
950.830446065693
 20
839.304135457408
 30
0.0
 10
950.6448237774381
 20
839.301353274791
 30
0.0
 10
950.5496301872993
 20
839.2999264744093
 30
0.0
  0
SPLINE
  5
E9
330
1F
100
AcDbEntity
  8
0
  6
Continuous
 62
     7
370
    25
100
AcDbSpline
210
0.0
220
0.0
230
1.0
 70
     8
 71
     3
 72
    19
 73
    15
 74
     0
 42
0.00000001
 43
0.00000001
 40
0.0
 40
0.0
 40
0.0
 40
0.0
 40
0.1060574933033971
 40
0.2029142570846091
 40
0.2903001653958375
 40
0.3702225656250405
 40
0.4463837207709694
 40
0.521396899964827
 40
0.5982910828464567
 40
0.6761424688569282
 40
0.7555286995560226
 40
0.8348871724576566
 40
0.9166460487466405
 40
1.0
 40
1.0
 40
1.0
 40
1.0
 10
951.5640532642224
 20
843.6156316026145
 30
0.0
 10
951.6549342415818
 20
843.5807401764645
 30
0.0
 10
951.8288120641632
 20
843.5139842349904
 30
0.0
 10
952.0680943782934
 20
843.3959603172829
 30
0.0
 10
952.2742540239989
 20
843.2675897792454
 30
0.0
 10
952.4488760719651
 20
843.1274026932026
 30
0.0
 10
952.5982192832031
 20
842.9762968399681
 30
0.0
 10
952.7286260067982
 20
842.812056578829
 30
0.0
 10
952.839897719166
 20
842.6325394179663
 30
0.0
 10
952.9352415444588
 20
842.4396170514237
 30
0.0
 10
953.0096387010901
 20
842.2352594094652
 30
0.0
 10
953.0653550539353
 20
842.0213833498141
 30
0.0
 10
953.09728065196
 20
841.7987557950842
 30
0.0
 10
953.1018238320245
 20
841.6472463565962
 30
0.0
 10
953.1041173667865
 20
841.5707598077427
 30
0.0
  0
SPLINE
  5
EA
330
1F
100
AcDbEntity
  8
0
  6
Continuous
 62
     7
370
    25
100
AcDbSpline
210
0.0
220
0.0
230
1.0
 70
     8
 71
     3
 72
    15
 73
    11
 74
     0
 42
0.00000001
 43
0.00000001
 40
0.0
 40
0.0
 40
0.0
 40
0.0
 40
0.1305691070873079
 40
0.2565806086940818
 40
0.3805516168036833
 40
0.5036229172007082
 40
0.6257393231697888
 40
0.7475485819596254
 40
0.8717661185648738
 40
1.0
 40
1.0
 40
1.0
 40
1.0
 10
952.4887327514019
 20
845.3175546795375
 30
0.0
 10
952.4862339663903
 20
845.2292059808451
 30
0.0
 10
952.4813236181956
 20
845.0555924562257
 30
0.0
 10
952.4343687397208
 20
844.8016630635773
 30
0.0
 10
952.3608586404304
 20
844.559945991972
 30
0.0
 10
952.25867521377
 20
844.3313233967332
 30
0.0
 10
952.1258706510315
 20
844.1209608524005
 30
0.0
 10
951.9684802083683
 20
843.9271613871545
 30
0.0
 10
951.7785903741033
 20
843.7581303997374
 30
0.0
 10
951.6363201112738
 20
843.6636323367644
 30
0.0
 10
951.5640532642224
 20
843.6156316026145
 30
0.0
  0
SPLINE
  5
EB
330
1F
100
AcDbEntity
  8
0
  6
Continuous
 62
     7
370
    25
100
AcDbSpline
210
0.0
220
0.0
230
1.0
 70
     8
 71
     3
 72
    23
 73
    19
 74
     0
 42
0.00000001
 43
0.00000001
 40
0.0
 40
0.0
 40
0.0
 40
0.0
 40
0.0625940971873315
 40
0.1213229386347494
 40
0.1766801421977652
 40
0.2283650957096748
 40
0.2768684458368071
 40
0.3218791276660453
 40
0.3640986251098918
 40
0.4033556962427014
 40
0.4779679481633705
 40
0.5505354613647756
 40
0.6235844567403237
 40
0.6981748822642032
 40
0.7733536703408754
 40
0.8472811254977322
 40
0.9228183395566693
 40
1.0
 40
1.0
 40
1.0
 40
1.0
 10
949.9470660847352
 20
847.2999264744093
 30
0.0
 10
950.0234740348787
 20
847.2995247592054
 30
0.0
 10
950.1715716585048
 20
847.2987461351619
 30
0.0
 10
950.3869303826848
 20
847.2866704068259
 30
0.0
 10
950.5886419498631
 20
847.2702048756747
 30
0.0
 10
950.7767648580931
 20
847.2440789496309
 30
0.0
 10
950.951212177844
 20
847.2125548875842
 30
0.0
 10
951.1125096343876
 20
847.1743793079493
 30
0.0
 10
951.2601443138581
 20
847.1286041910145
 30
0.0
 10
951.4364019970722
 20
847.0558126910545
 30
0.0
 10
951.6373635076524
 20
846.9476454491123
 30
0.0
 10
951.8549598338307
 20
846.7878087287717
 30
0.0
 10
952.0410266666519
 20
846.5923059559251
 30
0.0
 10
952.2014525346311
 20
846.3717741720981
 30
0.0
 10
952.3289979508854
 20
846.1291781223815
 30
0.0
 10
952.4212706304643
 20
845.8702999766042
 30
0.0
 10
952.4796886312839
 20
845.5984788522169
 30
0.0
 10
952.4856964809203
 20
845.4118658742078
 30
0.0
 10
952.4887327514019
 20
845.3175546795375
 30
0.0
  0
LINE
  5
EC
330
1F
100
AcDbEntity
  8
0
  6
Continuous
 62
     7
370
    25
100
AcDbLine
 10
948.3861686488
 20
847.2999264744
 30
0.0
 11
949.9470660847
 21
847.2999264744
 31
0.0
  0
LINE
  5
ED
330
1F
100
AcDbEntity
  8
0
  6
Continuous
 62
     7
370
    25
100
AcDbLine
 10
948.3861686488
 20
839.2999264744
 30
0.0
 11
948.3861686488
 21
847.2999264744
 31
0.0
  0
LINE
  5
EE
330
1F
100
AcDbEntity
  8
0
  6
Continuous
 62
     7
370
    25
100
AcDbLine
 10
950.5496301873
 20
839.2999264744
 30
0.0
 11
948.3861686488
 21
839.2999264744
 31
0.0
  0
LINE
  5
EF
330
1F
100
AcDbEntity
  8
0
  6
Continuous
 62
     7
370
    25
100
AcDbLine
 10
946.1714250591
 20
839.2999264744
 30
0.0
 11
940.8989891617
 21
845.5819777565
 31
0.0
  0
LINE
  5
F0
330
1F
100
AcDbEntity
  8
0
  6
Continuous
 62
     7
370
    25
100
AcDbLine
 10
946.3348865976
 20
839.2999264744
 30
0.0
 11
946.1714250591
 21
839.2999264744
 31
0.0
  0
LINE
  5
F1
330
1F
100
AcDbEntity
  8
0
  6
Continuous
 62
     7
370
    25
100
AcDbLine
 10
946.3348865976
 20
847.2999264744
 30
0.0
 11
946.3348865976
 21
839.2999264744
 31
0.0
  0
LINE
  5
F2
330
1F
100
AcDbEntity
  8
0
  6
Continuous
 62
     7
370
    25
100
AcDbLine
 10
945.6169378796
 20
847.2999264744
 30
0.0
 11
946.3348865976
 21
847.2999264744
 31
0.0
  0
LINE
  5
F3
330
1F
100
AcDbEntity
  8
0
  6
Continuous
 62
     7
370
    25
100
AcDbLine
 10
945.6169378796
 20
841.0034521154
 30
0.0
 11
945.6169378796
 21
847.2999264744
 31
0.0
  0
LINE
  5
F4
330
1F
100
AcDbEntity
  8
0
  6
Continuous
 62
     7
370
    25
100
AcDbLine
 10
940.3316814694
 20
847.2999264744
 30
0.0
 11
945.6169378796
 21
841.0034521154
 31
0.0
  0
LINE
  5
F5
330
1F
100
AcDbEntity
  8
0
  6
Continuous
 62
     7
370
    25
100
AcDbLine
 10
940.1810404437
 20
847.2999264744
 30
0.0
 11
940.3316814694
 21
847.2999264744
 31
0.0
  0
LINE
  5
F6
330
1F
100
AcDbEntity
  8
0
  6
Continuous
 62
     7
370
    25
100
AcDbLine
 10
940.1810404437
 20
839.2999264744
 30
0.0
 11
940.1810404437
 21
847.2999264744
 31
0.0
  0
LINE
  5
F7
330
1F
100
AcDbEntity
  8
0
  6
Continuous
 62
     7
370
    25
100
AcDbLine
 10
940.8989891617
 20
839.2999264744
 30
0.0
 11
940.1810404437
 21
839.2999264744
 31
0.0
  0
LINE
  5
F8
330
1F
100
AcDbEntity
  8
0
  6
Continuous
 62
     7
370
    25
100
AcDbLine
 10
940.8989891617
 20
845.5819777565
 30
0.0
 11
940.8989891617
 21
839.2999264744
 31
0.0
  0
CIRCLE
  5
F9
330
1F
100
AcDbEntity
  8
0
  6
Continuous
 62
     7
370
    25
100
AcDbCircle
 10
1016.4872798434
 20
785.6360078278
 30
0.0
 40
10.00000000000011
  0
CIRCLE
  5
FA
330
1F
100
AcDbEntity
  8
0
  6
Continuous
 62
     7
370
    25
100
AcDbCircle
 10
886.4872798434
 20
785.6360078278
 30
0.0
 40
9.999999999999886
  0
SPLINE
  5
FB
330
1F
100
AcDbEntity
  8
0
  6
Continuous
 62
     7
370
    25
100
AcDbSpline
210
0.0
220
0.0
230
1.0
 70
     8
 71
     3
 72
    27
 73
    23
 74
     0
 42
0.00000001
 43
0.00000001
 40
0.0
 40
0.0
 40
0.0
 40
0.0
 40
0.0729510658758678
 40
0.1415836941865455
 40
0.2059264601708677
 40
0.2653013571846063
 40
0.3205972327139289
 40
0.3718165030988104
 40
0.418789769709452
 40
0.4616987286157648
 40
0.5021335821035655
 40
0.5408043152926487
 40
0.5781805253279657
 40
0.6142968652075155
 40
0.649678243264788
 40
0.6842994600896372
 40
0.7183589527723608
 40
0.7520808646475974
 40
0.8176524386023851
 40
0.879722076405437
 40
0.9399655597309878
 40
1.0
 40
1.0
 40
1.0
 40
1.0
 10
978.2323224949915
 20
843.2999264744093
 30
0.0
 10
978.2325955168602
 20
843.1930723057148
 30
0.0
 10
978.2331253986965
 20
842.9856893461739
 30
0.0
 10
978.246968142873
 20
842.684333321086
 30
0.0
 10
978.2658258160147
 20
842.4032582837896
 30
0.0
 10
978.2901487810094
 20
842.1421073432979
 30
0.0
 10
978.3262698062116
 20
841.9017644575612
 30
0.0
 10
978.3667424640807
 20
841.6805766105551
 30
0.0
 10
978.4159952403531
 20
841.4797143542951
 30
0.0
 10
978.4742695669063
 20
841.297799358399
 30
0.0
 10
978.5406446455199
 20
841.1317443446953
 30
0.0
 10
978.6131151910515
 20
840.9772272815471
 30
0.0
 10
978.690968271977
 20
840.8324228554081
 30
0.0
 10
978.7780977589553
 20
840.6986317505531
 30
0.0
 10
978.8729893320501
 20
840.5754176612437
 30
0.0
 10
978.9734996386501
 20
840.4605997587927
 30
0.0
 10
979.0833798312035
 20
840.358206658597
 30
0.0
 10
979.235388385588
 20
840.2354024185297
 30
0.0
 10
979.4360660414213
 20
840.1085015414335
 30
0.0
 10
979.6889127962353
 20
839.9979961932469
 30
0.0
 10
979.9487263984786
 20
839.9285505785444
 30
0.0
 10
980.125072112963
 20
839.9197191363613
 30
0.0
 10
980.2130917257609
 20
839.9153110897939
 30
0.0
  0
SPLINE
  5
FC
330
1F
100
AcDbEntity
  8
0
  6
Continuous
 62
     7
370
    25
100
AcDbSpline
210
0.0
220
0.0
230
1.0
 70
     8
 71
     3
 72
    19
 73
    15
 74
     0
 42
0.00000001
 43
0.00000001
 40
0.0
 40
0.0
 40
0.0
 40
0.0
 40
0.1128134007444562
 40
0.2253938839207291
 40
0.3395948145627013
 40
0.4596754102248628
 40
0.5217351900879341
 40
0.5839258387389159
 40
0.648174144765371
 40
0.713881038113067
 40
0.7810044549073896
 40
0.8514509275565542
 40
0.924050692664179
 40
1.0
 40
1.0
 40
1.0
 40
1.0
 10
980.2130917257609
 20
839.9153110897939
 30
0.0
 10
980.3016806895454
 20
839.9189631602203
 30
0.0
 10
980.4786757139675
 20
839.9262597609107
 30
0.0
 10
980.7372672457261
 20
839.996656874909
 30
0.0
 10
980.9883078630569
 20
840.1028729651116
 30
0.0
 10
981.1850437265516
 20
840.2284672632128
 30
0.0
 10
981.3347181116977
 20
840.3480748733872
 30
0.0
 10
981.4419569462254
 20
840.4500512123882
 30
0.0
 10
981.5403844855015
 20
840.5642360519456
 30
0.0
 10
981.6337377994548
 20
840.6874344426083
 30
0.0
 10
981.7193585438546
 20
840.8220001207198
 30
0.0
 10
981.7972171443008
 20
840.967286007042
 30
0.0
 10
981.8682647958326
 20
841.1236955565557
 30
0.0
 10
981.9087426151475
 20
841.2328835316775
 30
0.0
 10
981.929437879607
 20
841.2887085256914
 30
0.0
  0
SPLINE
  5
FD
330
1F
100
AcDbEntity
  8
0
  6
Continuous
 62
     7
370
    25
100
AcDbSpline
210
0.0
220
0.0
230
1.0
 70
     8
 71
     3
 72
    15
 73
    11
 74
     0
 42
0.00000001
 43
0.00000001
 40
0.0
 40
0.0
 40
0.0
 40
0.0
 40
0.1105883385953361
 40
0.2245417540535963
 40
0.3425034940501039
 40
0.4643240984173573
 40
0.5907560327017671
 40
0.7222274753555148
 40
0.8588428362087224
 40
1.0
 40
1.0
 40
1.0
 40
1.0
 10
981.929437879607
 20
841.2887085256914
 30
0.0
 10
981.9535562059928
 20
841.3600907873287
 30
0.0
 10
982.0025267518955
 20
841.5050273913138
 30
0.0
 10
982.0656393788001
 20
841.7298585960692
 30
0.0
 10
982.1153431484086
 20
841.9657506279274
 30
0.0
 10
982.1600594129786
 20
842.2112937518552
 30
0.0
 10
982.1905806836011
 20
842.4682987827374
 30
0.0
 10
982.2151471139629
 20
842.735970517402
 30
0.0
 10
982.2296172555383
 20
843.0145107739402
 30
0.0
 10
982.2314109722728
 20
843.2037564681008
 30
0.0
 10
982.2323224949916
 20
843.2999264744093
 30
0.0
  0
SPLINE
  5
FE
330
1F
100
AcDbEntity
  8
0
  6
Continuous
 62
     7
370
    25
100
AcDbSpline
210
0.0
220
0.0
230
1.0
 70
     8
 71
     3
 72
    27
 73
    23
 74
     0
 42
0.00000001
 43
0.00000001
 40
0.0
 40
0.0
 40
0.0
 40
0.0
 40
0.0656811979906383
 40
0.128486464174064
 40
0.1881751303280079
 40
0.2451061306699861
 40
0.2994484245294748
 40
0.3508229360093826
 40
0.3999416805337775
 40
0.4466717436323716
 40
0.4912545333734982
 40
0.5333763442704357
 40
0.5738527549682239
 40
0.6125263117194533
 40
0.6495971364453286
 40
0.6855320415538506
 40
0.7201057860682002
 40
0.7538376629736492
 40
0.8189254160467137
 40
0.8804934616501641
 40
0.9403113338460578
 40
1.0
 40
1.0
 40
1.0
 40
1.0
 10
982.2323224949916
 20
843.2999264744093
 30
0.0
 10
982.231064919602
 20
843.3960809258791
 30
0.0
 10
982.2286048333036
 20
843.5841795882347
 30
0.0
 10
982.2192014328439
 20
843.8596497154624
 30
0.0
 10
982.1949189768621
 20
844.1212903118262
 30
0.0
 10
982.1679495623148
 20
844.3702285350589
 30
0.0
 10
982.1281844855329
 20
844.605086369812
 30
0.0
 10
982.0853094983779
 20
844.8278299246837
 30
0.0
 10
982.0277067274288
 20
845.0356996956992
 30
0.0
 10
981.9661758132025
 20
845.231950168183
 30
0.0
 10
981.8957520519879
 20
845.4143516641848
 30
0.0
 10
981.8182303736849
 20
845.5837546044406
 30
0.0
 10
981.7354377822128
 20
845.7409768324562
 30
0.0
 10
981.645512661163
 20
845.8855869846311
 30
0.0
 10
981.5495225284424
 20
846.0182327969995
 30
0.0
 10
981.4449338445622
 20
846.1362547274156
 30
0.0
 10
981.3358952781375
 20
846.2433106545209
 30
0.0
 10
981.1831702819691
 20
846.3655108125131
 30
0.0
 10
980.9832290481396
 20
846.4901089736175
 30
0.0
 10
980.7344389970713
 20
846.604773567584
 30
0.0
 10
980.4755346673544
 20
846.6706210935746
 30
0.0
 10
980.3005096294297
 20
846.6799049496617
 30
0.0
 10
980.2130917257609
 20
846.6845418590248
 30
0.0
  0
SPLINE
  5
FF
330
1F
100
AcDbEntity
  8
0
  6
Continuous
 62
     7
370
    25
100
AcDbSpline
210
0.0
220
0.0
230
1.0
 70
     8
 71
     3
 72
    27
 73
    23
 74
     0
 42
0.00000001
 43
0.00000001
 40
0.0
 40
0.0
 40
0.0
 40
0.0
 40
0.0603866193110627
 40
0.1208832485859965
 40
0.1827546186251395
 40
0.2478110297583514
 40
0.2812991000432486
 40
0.3150876241506567
 40
0.3497023955502763
 40
0.384856581118556
 40
0.4209661972261021
 40
0.4585111882611398
 40
0.4971747221273132
 40
0.537602047866271
 40
0.580503018420012
 40
0.6274675400267049
 40
0.678388209559244
 40
0.7339832205925612
 40
0.793746704550835
 40
0.8577136721607319
 40
0.9266978643613873
 40
1.0
 40
1.0
 40
1.0
 40
1.0
 10
980.2130917257609
 20
846.6845418590248
 30
0.0
 10
980.1246103724196
 20
846.6798985524024
 30
0.0
 10
979.9474864738936
 20
846.6706034801648
 30
0.0
 10
979.6858911488039
 20
846.6050189005268
 30
0.0
 10
979.4351383450501
 20
846.4907035498123
 30
0.0
 10
979.2357258314984
 20
846.3650981270353
 30
0.0
 10
979.082894319481
 20
846.2454677008831
 30
0.0
 10
978.9752767346198
 20
846.1417272344637
 30
0.0
 10
978.8743711981223
 20
846.028250081629
 30
0.0
 10
978.7814164549504
 20
845.9039028476853
 30
0.0
 10
978.6943552362254
 20
845.7702677223845
 30
0.0
 10
978.6143986360522
 20
845.6262934030126
 30
0.0
 10
978.5423590253641
 20
845.471250284783
 30
0.0
 10
978.4758800855237
 20
845.305269860968
 30
0.0
 10
978.4174279986067
 20
845.123370559401
 30
0.0
 10
978.3692132255096
 20
844.9227557169016
 30
0.0
 10
978.3246713898069
 20
844.7022713928121
 30
0.0
 10
978.2931393466057
 20
844.4606268032231
 30
0.0
 10
978.2651079048646
 20
844.1994104526649
 30
0.0
 10
978.2470933952595
 20
843.9176337252836
 30
0.0
 10
978.2330790924727
 20
843.6157722843639
 30
0.0
 10
978.2325797453578
 20
843.4073170649292
 30
0.0
 10
978.2323224949915
 20
843.2999264744093
 30
0.0
  0
LINE
  5
100
330
1F
100
AcDbEntity
  8
0
  6
Continuous
 62
     7
370
    25
100
AcDbLine
 10
949.1041173668
 20
846.4794136539
 30
0.0
 11
949.1041173668
 21
843.9153110898
 31
0.0
  0
LINE
  5
101
330
1F
100
AcDbEntity
  8
0
  6
Continuous
 62
     7
370
    25
100
AcDbLine
 10
949.1041173668
 20
843.9153110898
 30
0.0
 11
949.5864891617
 21
843.9153110898
 31
0.0
  0
SPLINE
  5
102
330
1F
100
AcDbEntity
  8
0
  6
Continuous
 62
     7
370
    25
100
AcDbSpline
210
0.0
220
0.0
230
1.0
 70
     8
 71
     3
 72
    23
 73
    19
 74
     0
 42
0.00000001
 43
0.00000001
 40
0.0
 40
0.0
 40
0.0
 40
0.0
 40
0.072301033995506
 40
0.139700331739386
 40
0.2022885114847727
 40
0.2605995332222006
 40
0.3131903291553325
 40
0.3617389329854275
 40
0.4057064756322223
 40
0.4455399848948716
 40
0.5188319558616066
 40
0.5897782395835762
 40
0.6588674786561453
 40
0.7284304780610629
 40
0.7972827036080987
 40
0.8648153774014445
 40
0.9313637528792665
 40
1.0
 40
1.0
 40
1.0
 40
1.0
 10
949.5864891616582
 20
843.9153110897939
 30
0.0
 10
949.6570006939245
 20
843.9162251995232
 30
0.0
 10
949.7932433436443
 20
843.9179914458041
 30
0.0
 10
949.9905459643502
 20
843.9230509133743
 30
0.0
 10
950.1736888630842
 20
843.937217869756
 30
0.0
 10
950.3423559101104
 20
843.9513807544523
 30
0.0
 10
950.4962814963199
 20
843.9744083833981
 30
0.0
 10
950.6351246083246
 20
844.0018189500549
 30
0.0
 10
950.7610642584699
 20
844.0308084474182
 30
0.0
 10
950.9062975054103
 20
844.0801101317619
 30
0.0
 10
951.0710356733146
 20
844.1529733893252
 30
0.0
 10
951.2466541970961
 20
844.2660518718851
 30
0.0
 10
951.4014758418706
 20
844.4007361077688
 30
0.0
 10
951.5322122709432
 20
844.5561440203517
 30
0.0
 10
951.6392099178657
 20
844.7272667308845
 30
0.0
 10
951.7135269810755
 20
844.9113738861639
 30
0.0
 10
951.7639207734928
 20
845.1038770451023
 30
0.0
 10
951.7684728451665
 20
845.236033051479
 30
0.0
 10
951.7707840334532
 20
845.3031316026145
 30
0.0
  0
SPLINE
  5
103
330
1F
100
AcDbEntity
  8
0
  6
Continuous
 62
     7
370
    25
100
AcDbSpline
210
0.0
220
0.0
230
1.0
 70
     8
 71
     3
 72
    23
 73
    19
 74
     0
 42
0.00000001
 43
0.00000001
 40
0.0
 40
0.0
 40
0.0
 40
0.0
 40
0.0570031325129237
 40
0.1118178691207218
 40
0.1644023722182107
 40
0.215869804898795
 40
0.2668411100818663
 40
0.3174789632053578
 40
0.3699021362727594
 40
0.4234004494436343
 40
0.4797183982994503
 40
0.5392414966442959
 40
0.6024306889434222
 40
0.671029546147335
 40
0.744484797560848
 40
0.8234539713786844
 40
0.9087403127306664
 40
1.0
 40
1.0
 40
1.0
 40
1.0
 10
951.7707840334532
 20
845.3031316026145
 30
0.0
 10
951.7695813358902
 20
845.347533366074
 30
0.0
 10
951.7672221132868
 20
845.4346322737371
 30
0.0
 10
951.7479002787612
 20
845.5616022260946
 30
0.0
 10
951.7150601086228
 20
845.681016517551
 30
0.0
 10
951.672878866931
 20
845.7945116268636
 30
0.0
 10
951.6139332927222
 20
845.8985387130814
 30
0.0
 10
951.5445310908891
 20
845.9966945889552
 30
0.0
 10
951.4606780845126
 20
846.085636574091
 30
0.0
 10
951.3652327984418
 20
846.1687668559546
 30
0.0
 10
951.2554988033369
 20
846.2424686337787
 30
0.0
 10
951.1315415648928
 20
846.3070189496041
 30
0.0
 10
950.9916840173116
 20
846.3589978677295
 30
0.0
 10
950.8382832059254
 20
846.404520501964
 30
0.0
 10
950.6689778630715
 20
846.436493744977
 30
0.0
 10
950.4857217409947
 20
846.4631300596218
 30
0.0
 10
950.2870138117902
 20
846.4766906127752
 30
0.0
 10
950.1495392917315
 20
846.4784857279172
 30
0.0
 10
950.0784763411453
 20
846.4794136538965
 30
0.0
  0
LINE
  5
104
330
1F
100
AcDbEntity
  8
0
  6
Continuous
 62
     7
370
    25
100
AcDbLine
 10
950.0784763411
 20
846.4794136539
 30
0.0
 11
949.1041173668
 21
846.4794136539
 31
0.0
  0
LINE
  5
105
330
1F
100
AcDbEntity
  8
0
  6
Continuous
 62
     7
370
    25
100
AcDbLine
 10
949.1041173668
 20
843.0947982693
 30
0.0
 11
949.1041173668
 21
840.1204392949
 31
0.0
  0
LINE
  5
106
330
1F
100
AcDbEntity
  8
0
  6
Continuous
 62
     7
370
    25
100
AcDbLine
 10
949.1041173668
 20
840.1204392949
 30
0.0
 11
950.1265532642
 21
840.1204392949
 31
0.0
  0
SPLINE
  5
107
330
1F
100
AcDbEntity
  8
0
  6
Continuous
 62
     7
370
    25
100
AcDbSpline
210
0.0
220
0.0
230
1.0
 70
     8
 71
     3
 72
    19
 73
    15
 74
     0
 42
0.00000001
 43
0.00000001
 40
0.0
 40
0.0
 40
0.0
 40
0.0
 40
0.0602873979279725
 40
0.1196023547075218
 40
0.1775033710185399
 40
0.2351426637323311
 40
0.2921325932269331
 40
0.3508712086415664
 40
0.410097862566594
 40
0.4707315215304482
 40
0.5948287040804139
 40
0.7225788240942899
 40
0.8566913895440157
 40
1.0
 40
1.0
 40
1.0
 40
1.0
 10
952.3861686488377
 20
841.5707598077427
 30
0.0
 10
952.3855375532094
 20
841.6130303003486
 30
0.0
 10
952.3842855415818
 20
841.6968894587145
 30
0.0
 10
952.365404136042
 20
841.8201256168583
 30
0.0
 10
952.3379438622277
 20
841.9394990415652
 30
0.0
 10
952.3024434419248
 20
842.0553338769589
 30
0.0
 10
952.2507418028595
 20
842.1655358800397
 30
0.0
 10
952.1903839856776
 20
842.2722845875521
 30
0.0
 10
952.1196150676327
 20
842.3757211119494
 30
0.0
 10
952.0093426885066
 20
842.5064919769765
 30
0.0
 10
951.8489495810323
 20
842.6571594350414
 30
0.0
 10
951.62104838002
 20
842.8046737259366
 30
0.0
 10
951.3619116989474
 20
842.9236401421366
 30
0.0
 10
951.1739631437565
 20
842.9741532309101
 30
0.0
 10
951.0768737770429
 20
843.0002469872298
 30
0.0
  0
SPLINE
  5
108
330
1F
100
AcDbEntity
  8
0
  6
Continuous
 62
     7
370
    25
100
AcDbSpline
210
0.0
220
0.0
230
1.0
 70
     8
 71
     3
 72
    15
 73
    11
 74
     0
 42
0.00000001
 43
0.00000001
 40
0.0
 40
0.0
 40
0.0
 40
0.0
 40
0.079306485522998
 40
0.1719528189279297
 40
0.277056507391589
 40
0.3947305758644749
 40
0.5261773212767583
 40
0.6713447665976114
 40
0.8292852571892514
 40
1.0
 40
1.0
 40
1.0
 40
1.0
 10
951.0768737770429
 20
843.0002469872298
 30
0.0
 10
951.0379501293805
 20
843.0081443219851
 30
0.0
 10
950.9535556325828
 20
843.0252673726943
 30
0.0
 10
950.8159383058885
 20
843.0433421232987
 30
0.0
 10
950.6588277483975
 20
843.0594451173378
 30
0.0
 10
950.4818611718808
 20
843.0713563348548
 30
0.0
 10
950.2848146779068
 20
843.0836684343932
 30
0.0
 10
950.0672674351966
 20
843.0884565969584
 30
0.0
 10
949.8301078588328
 20
843.0941691914576
 30
0.0
 10
949.6655538647764
 20
843.0945832125818
 30
0.0
 10
949.580078905248
 20
843.0947982692811
 30
0.0
  0
LINE
  5
109
330
1F
100
AcDbEntity
  8
0
  6
Continuous
 62
     7
370
    25
100
AcDbLine
 10
949.5800789052
 20
843.0947982693
 30
0.0
 11
949.1041173668
 21
843.0947982693
 31
0.0
  0
SPLINE
  5
10A
330
1F
100
AcDbEntity
  8
0
  6
Continuous
 62
     7
370
    25
100
AcDbSpline
210
0.0
220
0.0
230
1.0
 70
     8
 71
     3
 72
    23
 73
    19
 74
     0
 42
0.00000001
 43
0.00000001
 40
0.0
 40
0.0
 40
0.0
 40
0.0
 40
0.0725024889330345
 40
0.1397389892678949
 40
0.201795134825923
 40
0.2598219344148623
 40
0.3122059893845975
 40
0.3607734341243376
 40
0.4045403426007494
 40
0.4436980985527634
 40
0.51684079424397
 40
0.5878743359442804
 40
0.6579654175616318
 40
0.7289693886473125
 40
0.7993077199548837
 40
0.8666357778344713
 40
0.9331163290572736
 40
1.0
 40
1.0
 40
1.0
 40
1.0
 10
950.1265532642224
 20
840.1204392949222
 30
0.0
 10
950.199739380595
 20
840.121316431829
 30
0.0
 10
950.3407959716287
 20
840.1230069975823
 30
0.0
 10
950.5444559261907
 20
840.1285259794355
 30
0.0
 10
950.7332173063076
 20
840.141079752462
 30
0.0
 10
950.9062187594034
 20
840.1608416945505
 30
0.0
 10
951.0653283654165
 20
840.1822781498012
 30
0.0
 10
951.208637400911
 20
840.211103934765
 30
0.0
 10
951.3373075573943
 20
840.2441301302517
 30
0.0
 10
951.4865059750844
 20
840.295179666789
 30
0.0
 10
951.6545139940123
 20
840.3744858860283
 30
0.0
 10
951.8355673800365
 20
840.4940612606986
 30
0.0
 10
951.9965415929371
 20
840.636514535608
 30
0.0
 10
952.1332393282665
 20
840.8013851965762
 30
0.0
 10
952.2452690163716
 20
840.9806568009836
 30
0.0
 10
952.3267671994198
 20
841.1707033151613
 30
0.0
 10
952.3770320147778
 20
841.3683845206891
 30
0.0
 10
952.3831169731546
 20
841.5031655779302
 30
0.0
 10
952.3861686488377
 20
841.5707598077427
 30
0.0
  0
SPLINE
  5
10B
330
1F
100
AcDbEntity
  8
0
  6
Continuous
 62
     7
370
    25
100
AcDbSpline
210
0.0
220
0.0
230
1.0
 70
     8
 71
     3
 72
    27
 73
    23
 74
     0
 42
0.00000001
 43
0.00000001
 40
0.0
 40
0.0
 40
0.0
 40
0.0
 40
0.0729510658758678
 40
0.1415836941865455
 40
0.2059264601708678
 40
0.2653013571846064
 40
0.320597232713929
 40
0.3718165030988105
 40
0.4187897697094521
 40
0.4616987286157649
 40
0.5021335821035657
 40
0.5408043152926489
 40
0.5781805253279659
 40
0.6142968652075157
 40
0.6496782432647882
 40
0.6842994600896375
 40
0.7183589527723611
 40
0.7520808646475977
 40
0.8176524386023853
 40
0.8797220764054373
 40
0.9399655597309882
 40
1.0
 40
1.0
 40
1.0
 40
1.0
 10
934.0271942898634
 20
843.2999264744093
 30
0.0
 10
934.027467311732
 20
843.1930723057148
 30
0.0
 10
934.0279971935684
 20
842.9856893461739
 30
0.0
 10
934.0418399377448
 20
842.6843333210859
 30
0.0
 10
934.0606976108865
 20
842.4032582837896
 30
0.0
 10
934.0850205758811
 20
842.142107343298
 30
0.0
 10
934.1211416010835
 20
841.9017644575612
 30
0.0
 10
934.1616142589525
 20
841.6805766105551
 30
0.0
 10
934.210867035225
 20
841.4797143542951
 30
0.0
 10
934.2691413617781
 20
841.297799358399
 30
0.0
 10
934.3355164403918
 20
841.1317443446953
 30
0.0
 10
934.4079869859233
 20
840.9772272815471
 30
0.0
 10
934.4858400668488
 20
840.8324228554081
 30
0.0
 10
934.5729695538271
 20
840.6986317505531
 30
0.0
 10
934.6678611269219
 20
840.5754176612437
 30
0.0
 10
934.768371433522
 20
840.4605997587927
 30
0.0
 10
934.8782516260753
 20
840.358206658597
 30
0.0
 10
935.0302601804598
 20
840.2354024185297
 30
0.0
 10
935.230937836293
 20
840.1085015414335
 30
0.0
 10
935.483784591107
 20
839.9979961932469
 30
0.0
 10
935.7435981933504
 20
839.9285505785444
 30
0.0
 10
935.9199439078349
 20
839.9197191363613
 30
0.0
 10
936.0079635206326
 20
839.9153110897939
 30
0.0
  0
SPLINE
  5
10C
330
1F
100
AcDbEntity
  8
0
  6
Continuous
 62
     7
370
    25
100
AcDbSpline
210
0.0
220
0.0
230
1.0
 70
     8
 71
     3
 72
    19
 73
    15
 74
     0
 42
0.00000001
 43
0.00000001
 40
0.0
 40
0.0
 40
0.0
 40
0.0
 40
0.1128134007444583
 40
0.2253938839207297
 40
0.3395948145627019
 40
0.4596754102248644
 40
0.5217351900879345
 40
0.5839258387389162
 40
0.6481741447653713
 40
0.7138810381130672
 40
0.7810044549073897
 40
0.8514509275565548
 40
0.9240506926641796
 40
1.0
 40
1.0
 40
1.0
 40
1.0
 10
936.0079635206326
 20
839.9153110897939
 30
0.0
 10
936.0965524844171
 20
839.9189631602203
 30
0.0
 10
936.2735475088394
 20
839.9262597609107
 30
0.0
 10
936.5321390405978
 20
839.996656874909
 30
0.0
 10
936.7831796579288
 20
840.1028729651116
 30
0.0
 10
936.9799155214233
 20
840.2284672632129
 30
0.0
 10
937.1295899065694
 20
840.3480748733872
 30
0.0
 10
937.2368287410973
 20
840.4500512123882
 30
0.0
 10
937.3352562803733
 20
840.5642360519456
 30
0.0
 10
937.4286095943268
 20
840.6874344426083
 30
0.0
 10
937.5142303387264
 20
840.8220001207198
 30
0.0
 10
937.5920889391725
 20
840.967286007042
 30
0.0
 10
937.6631365907044
 20
841.1236955565557
 30
0.0
 10
937.7036144100192
 20
841.2328835316775
 30
0.0
 10
937.7243096744787
 20
841.2887085256914
 30
0.0
  0
SPLINE
  5
10D
330
1F
100
AcDbEntity
  8
0
  6
Continuous
 62
     7
370
    25
100
AcDbSpline
210
0.0
220
0.0
230
1.0
 70
     8
 71
     3
 72
    27
 73
    23
 74
     0
 42
0.00000001
 43
0.00000001
 40
0.0
 40
0.0
 40
0.0
 40
0.0
 40
0.0603866193110623
 40
0.1208832485859961
 40
0.1827546186251399
 40
0.2478110297583511
 40
0.2812991000432483
 40
0.3150876241506564
 40
0.3497023955502755
 40
0.3848565811185558
 40
0.4209661972261022
 40
0.4585111882611393
 40
0.497174722127313
 40
0.5376020478662704
 40
0.5805030184200115
 40
0.6274675400267045
 40
0.6783882095592437
 40
0.733983220592561
 40
0.7937467045508348
 40
0.8577136721607319
 40
0.9266978643613872
 40
1.0
 40
1.0
 40
1.0
 40
1.0
 10
936.0079635206326
 20
846.6845418590248
 30
0.0
 10
935.9194821672913
 20
846.6798985524024
 30
0.0
 10
935.7423582687654
 20
846.6706034801648
 30
0.0
 10
935.4807629436757
 20
846.6050189005267
 30
0.0
 10
935.2300101399218
 20
846.4907035498123
 30
0.0
 10
935.0305976263702
 20
846.3650981270353
 30
0.0
 10
934.8777661143528
 20
846.2454677008831
 30
0.0
 10
934.7701485294917
 20
846.1417272344637
 30
0.0
 10
934.669242992994
 20
846.028250081629
 30
0.0
 10
934.5762882498223
 20
845.9039028476853
 30
0.0
 10
934.4892270310971
 20
845.7702677223845
 30
0.0
 10
934.409270430924
 20
845.6262934030126
 30
0.0
 10
934.337230820236
 20
845.471250284783
 30
0.0
 10
934.2707518803956
 20
845.305269860968
 30
0.0
 10
934.2122997934786
 20
845.123370559401
 30
0.0
 10
934.1640850203814
 20
844.9227557169016
 30
0.0
 10
934.1195431846788
 20
844.7022713928121
 30
0.0
 10
934.0880111414775
 20
844.4606268032232
 30
0.0
 10
934.0599796997365
 20
844.1994104526649
 30
0.0
 10
934.0419651901312
 20
843.9176337252836
 30
0.0
 10
934.0279508873444
 20
843.6157722843639
 30
0.0
 10
934.0274515402295
 20
843.4073170649292
 30
0.0
 10
934.0271942898634
 20
843.2999264744093
 30
0.0
  0
SPLINE
  5
10E
330
1F
100
AcDbEntity
  8
0
  6
Continuous
 62
     7
370
    25
100
AcDbSpline
210
0.0
220
0.0
230
1.0
 70
     8
 71
     3
 72
    15
 73
    11
 74
     0
 42
0.00000001
 43
0.00000001
 40
0.0
 40
0.0
 40
0.0
 40
0.0
 40
0.1105883385953366
 40
0.2245417540535968
 40
0.3425034940501041
 40
0.4643240984173574
 40
0.5907560327017671
 40
0.7222274753555146
 40
0.8588428362087224
 40
1.0
 40
1.0
 40
1.0
 40
1.0
 10
937.7243096744787
 20
841.2887085256914
 30
0.0
 10
937.7484280008646
 20
841.3600907873287
 30
0.0
 10
937.7973985467672
 20
841.5050273913138
 30
0.0
 10
937.8605111736719
 20
841.7298585960692
 30
0.0
 10
937.9102149432803
 20
841.9657506279274
 30
0.0
 10
937.9549312078504
 20
842.2112937518552
 30
0.0
 10
937.985452478473
 20
842.4682987827374
 30
0.0
 10
938.0100189088346
 20
842.735970517402
 30
0.0
 10
938.02448905041
 20
843.0145107739402
 30
0.0
 10
938.0262827671445
 20
843.2037564681008
 30
0.0
 10
938.0271942898634
 20
843.2999264744093
 30
0.0
  0
SPLINE
  5
10F
330
1F
100
AcDbEntity
  8
0
  6
Continuous
 62
     7
370
    25
100
AcDbSpline
210
0.0
220
0.0
230
1.0
 70
     8
 71
     3
 72
    27
 73
    23
 74
     0
 42
0.00000001
 43
0.00000001
 40
0.0
 40
0.0
 40
0.0
 40
0.0
 40
0.0656811979906383
 40
0.128486464174064
 40
0.1881751303280078
 40
0.2451061306699859
 40
0.2994484245294747
 40
0.3508229360093825
 40
0.3999416805337775
 40
0.4466717436323716
 40
0.4912545333734977
 40
0.5333763442704359
 40
0.5738527549682232
 40
0.6125263117194526
 40
0.6495971364453283
 40
0.68553204155385
 40
0.7201057860682001
 40
0.7538376629736496
 40
0.8189254160467133
 40
0.8804934616501637
 40
0.940311333846057
 40
1.0
 40
1.0
 40
1.0
 40
1.0
 10
938.0271942898634
 20
843.2999264744093
 30
0.0
 10
938.0259367144739
 20
843.3960809258791
 30
0.0
 10
938.0234766281754
 20
843.5841795882347
 30
0.0
 10
938.0140732277157
 20
843.8596497154624
 30
0.0
 10
937.9897907717341
 20
844.1212903118262
 30
0.0
 10
937.9628213571866
 20
844.3702285350589
 30
0.0
 10
937.9230562804046
 20
844.605086369812
 30
0.0
 10
937.8801812932497
 20
844.8278299246837
 30
0.0
 10
937.8225785223005
 20
845.0356996956993
 30
0.0
 10
937.7610476080744
 20
845.231950168183
 30
0.0
 10
937.6906238468597
 20
845.4143516641848
 30
0.0
 10
937.6131021685567
 20
845.5837546044406
 30
0.0
 10
937.5303095770846
 20
845.7409768324562
 30
0.0
 10
937.4403844560348
 20
845.8855869846311
 30
0.0
 10
937.3443943233142
 20
846.0182327969994
 30
0.0
 10
937.239805639434
 20
846.1362547274156
 30
0.0
 10
937.1307670730092
 20
846.2433106545209
 30
0.0
 10
936.9780420768409
 20
846.3655108125131
 30
0.0
 10
936.7781008430114
 20
846.4901089736175
 30
0.0
 10
936.529310791943
 20
846.6047735675841
 30
0.0
 10
936.2704064622261
 20
846.6706210935746
 30
0.0
 10
936.0953814243015
 20
846.6799049496617
 30
0.0
 10
936.0079635206326
 20
846.6845418590248
 30
0.0
  0
LINE
  5
110
330
1F
100
AcDbEntity
  8
0
  6
Continuous
 62
     7
370
    25
100
AcDbLine
 10
975.1553994181
 20
841.9665931411
 30
0.0
 11
975.1553994181
 21
845.4409521154
 31
0.0
  0
LINE
  5
111
330
1F
100
AcDbEntity
  8
0
  6
Continuous
 62
     7
370
    25
100
AcDbLine
 10
975.1553994181
 20
845.4409521154
 30
0.0
 11
972.7707840335
 21
841.9665931411
 31
0.0
  0
LINE
  5
112
330
1F
100
AcDbEntity
  8
0
  6
Continuous
 62
     7
370
    25
100
AcDbLine
 10
972.7707840335
 20
841.9665931411
 30
0.0
 11
975.1553994181
 21
841.9665931411
 31
0.0
  0
ENDSEC
  0
SECTION
  2
OBJECTS
  0
DICTIONARY
  5
C
330
0
100
AcDbDictionary
281
     1
  3
ACAD_DETAILVIEWSTYLE
350
11A
  3
ACAD_GROUP
350
D
  3
ACAD_LAYOUT
350
1A
  3
ACAD_MATERIAL
350
43
  3
ACAD_MLEADERSTYLE
350
5B
  3
ACAD_MLINESTYLE
350
17
  3
ACAD_PLOTSETTINGS
350
19
  3
ACAD_PLOTSTYLENAME
350
E
  3
ACAD_SCALELIST
350
47
  3
ACAD_SECTIONVIEWSTYLE
350
11B
  3
ACAD_TABLESTYLE
350
59
  3
ACAD_VISUALSTYLE
350
2A
  3
ACDB_RECOMPOSE_DATA
350
117
  3
AcDbVariableDictionary
350
113
  0
SUN
  5
5D
330
29
100
AcDbSun
 90
        1
290
     0
 63
     7
421
 16777215
 40
1.0
291
     1
 91
  2455826
 92
 54000000
292
     0
 70
     2
 71
   256
280
     1
  0
DICTIONARY
  5
11A
102
{ACAD_REACTORS
330
C
102
}
330
C
100
AcDbDictionary
281
     1
  0
DICTIONARY
  5
D
102
{ACAD_REACTORS
330
C
102
}
330
C
100
AcDbDictionary
281
     1
  0
DICTIONARY
  5
1A
102
{ACAD_REACTORS
330
C
102
}
330
C
100
AcDbDictionary
281
     1
  3
Layout1
350
1E
  3
Layout2
350
26
  3
Model
350
22
  0
DICTIONARY
  5
43
102
{ACAD_REACTORS
330
C
102
}
330
C
100
AcDbDictionary
281
     1
  3
ByBlock
350
45
  3
ByLayer
350
44
  3
Global
350
46
  0
DICTIONARY
  5
5B
102
{ACAD_REACTORS
330
C
102
}
330
C
100
AcDbDictionary
281
     1
  3
Standard
350
5C
  0
DICTIONARY
  5
17
102
{ACAD_REACTORS
330
C
102
}
330
C
100
AcDbDictionary
281
     1
  3
Standard
350
18
  0
DICTIONARY
  5
19
102
{ACAD_REACTORS
330
C
102
}
330
C
100
AcDbDictionary
281
     1
  0
ACDBDICTIONARYWDFLT
  5
E
102
{ACAD_REACTORS
330
C
102
}
330
C
100
AcDbDictionary
281
     1
  3
Normal
350
F
100
AcDbDictionaryWithDefault
340
F
  0
DICTIONARY
  5
47
102
{ACAD_REACTORS
330
C
102
}
330
C
100
AcDbDictionary
281
     1
  3
A0
350
48
  3
A1
350
49
  3
A2
350
4A
  3
A3
350
4B
  3
A4
350
4C
  3
A5
350
4D
  3
A6
350
4E
  3
A7
350
4F
  3
A8
350
50
  3
A9
350
51
  3
B0
350
52
  3
B1
350
53
  3
B2
350
54
  3
B3
350
55
  3
B4
350
56
  3
B5
350
57
  3
B6
350
58
  0
DICTIONARY
  5
11B
102
{ACAD_REACTORS
330
C
102
}
330
C
100
AcDbDictionary
281
     1
  0
DICTIONARY
  5
59
102
{ACAD_REACTORS
330
C
102
}
330
C
100
AcDbDictionary
281
     1
  3
Standard
350
5A
  0
DICTIONARY
  5
2A
102
{ACAD_REACTORS
330
C
102
}
330
C
100
AcDbDictionary
281
     1
  3
2dWireframe
350
2F
  3
Basic
350
32
  3
Brighten
350
36
  3
ColorChange
350
3A
  3
Conceptual
350
34
  3
Dim
350
35
  3
EdgeColorOff
350
3D
  3
Facepattern
350
39
  3
Flat
350
2B
  3
FlatWithEdges
350
2C
  3
Gouraud
350
2D
  3
GouraudWithEdges
350
2E
  3
Hidden
350
31
  3
JitterOff
350
3B
  3
Linepattern
350
38
  3
OverhangOff
350
3C
  3
Realistic
350
33
  3
Shaded
350
42
  3
Shaded with edges
350
41
  3
Shades of Gray
350
3E
  3
Sketchy
350
3F
  3
Thicken
350
37
  3
Wireframe
350
30
  3
X-Ray
350
40
  0
XRECORD
  5
117
102
{ACAD_REACTORS
330
C
102
}
330
C
100
AcDbXrecord
280
     1
 90
        1
330
5A
  0
DICTIONARY
  5
113
102
{ACAD_REACTORS
330
C
102
}
330
C
100
AcDbDictionary
281
     1
  3
CANNOSCALE
350
114
  3
CENTEREXE
350
11C
  3
CENTERLTYPEFILE
350
11D
  3
CMLEADERSTYLE
350
119
  3
CTABLESTYLE
350
118
  0
LAYOUT
  5
1E
102
{ACAD_REACTORS
330
1A
102
}
330
1A
100
AcDbPlotSettings
  1

  2
none_device
  4

  6

 40
0.0
 41
0.0
 42
0.0
 43
0.0
 44
0.0
 45
0.0
 46
0.0
 47
0.0
 48
0.0
 49
0.0
140
0.0
141
0.0
142
1.0
143
1.0
 70
   688
 72
     1
 73
     0
 74
     5
  7

 75
    16
 76
     0
 77
     2
 78
   300
147
1.0
148
0.0
149
0.0
100
AcDbLayout
  1
Layout1
 70
     1
 71
     1
 10
0.0
 20
0.0
 11
420.0
 21
297.0
 12
0.0
 22
0.0
 32
0.0
 14
1.0000000000E+20
 24
1.0000000000E+20
 34
1.0000000000E+20
 15
-1.0000000000E+20
 25
-1.0000000000E+20
 35
-1.0000000000E+20
146
0.0
 13
0.0
 23
0.0
 33
0.0
 16
1.0
 26
0.0
 36
0.0
 17
0.0
 27
1.0
 37
0.0
 76
     0
330
1B
  0
LAYOUT
  5
26
102
{ACAD_REACTORS
330
1A
102
}
330
1A
100
AcDbPlotSettings
  1

  2
none_device
  4

  6

 40
0.0
 41
0.0
 42
0.0
 43
0.0
 44
0.0
 45
0.0
 46
0.0
 47
0.0
 48
0.0
 49
0.0
140
0.0
141
0.0
142
1.0
143
1.0
 70
   688
 72
     1
 73
     0
 74
     5
  7

 75
    16
 76
     0
 77
     2
 78
   300
147
1.0
148
0.0
149
0.0
100
AcDbLayout
  1
Layout2
 70
     1
 71
     2
 10
0.0
 20
0.0
 11
0.0
 21
0.0
 12
0.0
 22
0.0
 32
0.0
 14
0.0
 24
0.0
 34
0.0
 15
0.0
 25
0.0
 35
0.0
146
0.0
 13
0.0
 23
0.0
 33
0.0
 16
1.0
 26
0.0
 36
0.0
 17
0.0
 27
1.0
 37
0.0
 76
     0
330
23
  0
LAYOUT
  5
22
102
{ACAD_REACTORS
330
1A
102
}
330
1A
100
AcDbPlotSettings
  1

  2
none_device
  4
Letter_(8.50_x_11.00_Inches)
  6

 40
6.35
 41
6.35
 42
6.35000508
 43
6.35000508
 44
215.9
 45
279.4
 46
0.0
 47
0.0
 48
0.0
 49
0.0
140
0.0
141
0.0
142
1.0
143
1.0
 70
  1712
 72
     1
 73
     0
 74
     0
  7

 75
     0
 76
     0
 77
     2
 78
   300
147
1.0
148
0.0
149
0.0
100
AcDbLayout
  1
Model
 70
     1
 71
     0
 10
0.0
 20
0.0
 11
420.0
 21
297.0
 12
0.0
 22
0.0
 32
0.0
 14
0.0
 24
0.0
 34
0.0
 15
420.0
 25
297.0
 35
0.0
146
0.0
 13
0.0
 23
0.0
 33
0.0
 16
1.0
 26
0.0
 36
0.0
 17
0.0
 27
1.0
 37
0.0
 76
     0
330
1F
331
29
  0
MATERIAL
  5
45
102
{ACAD_REACTORS
330
43
102
}
330
43
100
AcDbMaterial
  1
ByBlock
 72
     1
 94
      127
  0
MATERIAL
  5
44
102
{ACAD_REACTORS
330
43
102
}
330
43
100
AcDbMaterial
  1
ByLayer
 72
     1
 94
      127
  0
MATERIAL
  5
46
102
{ACAD_REACTORS
330
43
102
}
330
43
100
AcDbMaterial
  1
Global
 72
     1
 94
      127
  0
MLEADERSTYLE
  5
5C
102
{ACAD_REACTORS
330
5B
102
}
330
5B
100
AcDbMLeaderStyle
179
     2
170
     2
171
     1
172
     0
 90
        2
 40
0.0
 41
0.0
173
     1
 91
-1056964608
340
14
 92
       -2
290
     1
 42
2.0
291
     1
 43
8.0
  3
Standard
341
0
 44
4.0
300

342
11
174
     1
178
     6
175
     1
176
     0
 93
-1056964608
 45
4.0
292
     0
297
     0
 46
4.0
343
0
 94
-1056964608
 47
1.0
 49
1.0
140
1.0
293
     1
141
0.0
294
     1
177
     0
142
1.0
295
     0
296
     0
143
3.75
271
     0
272
     9
273
     9
298
     0
  0
MLINESTYLE
  5
18
102
{ACAD_REACTORS
330
17
102
}
330
17
100
AcDbMlineStyle
  2
Standard
 70
     0
  3

 62
   256
 51
90.0
 52
90.0
 71
     2
 49
0.5
 62
   256
  6
BYLAYER
 49
-0.5
 62
   256
  6
BYLAYER
  0
ACDBPLACEHOLDER
  5
F
102
{ACAD_REACTORS
330
E
102
}
330
E
  0
SCALE
  5
48
102
{ACAD_REACTORS
330
47
102
}
330
47
100
AcDbScale
 70
     0
300
1:1
140
1.0
141
1.0
290
     1
  0
SCALE
  5
49
102
{ACAD_REACTORS
330
47
102
}
330
47
100
AcDbScale
 70
     0
300
1:2
140
1.0
141
2.0
290
     0
  0
SCALE
  5
4A
102
{ACAD_REACTORS
330
47
102
}
330
47
100
AcDbScale
 70
     0
300
1:4
140
1.0
141
4.0
290
     0
  0
SCALE
  5
4B
102
{ACAD_REACTORS
330
47
102
}
330
47
100
AcDbScale
 70
     0
300
1:5
140
1.0
141
5.0
290
     0
  0
SCALE
  5
4C
102
{ACAD_REACTORS
330
47
102
}
330
47
100
AcDbScale
 70
     0
300
1:8
140
1.0
141
8.0
290
     0
  0
SCALE
  5
4D
102
{ACAD_REACTORS
330
47
102
}
330
47
100
AcDbScale
 70
     0
300
1:10
140
1.0
141
10.0
290
     0
  0
SCALE
  5
4E
102
{ACAD_REACTORS
330
47
102
}
330
47
100
AcDbScale
 70
     0
300
1:16
140
1.0
141
16.0
290
     0
  0
SCALE
  5
4F
102
{ACAD_REACTORS
330
47
102
}
330
47
100
AcDbScale
 70
     0
300
1:20
140
1.0
141
20.0
290
     0
  0
SCALE
  5
50
102
{ACAD_REACTORS
330
47
102
}
330
47
100
AcDbScale
 70
     0
300
1:30
140
1.0
141
30.0
290
     0
  0
SCALE
  5
51
102
{ACAD_REACTORS
330
47
102
}
330
47
100
AcDbScale
 70
     0
300
1:40
140
1.0
141
40.0
290
     0
  0
SCALE
  5
52
102
{ACAD_REACTORS
330
47
102
}
330
47
100
AcDbScale
 70
     0
300
1:50
140
1.0
141
50.0
290
     0
  0
SCALE
  5
53
102
{ACAD_REACTORS
330
47
102
}
330
47
100
AcDbScale
 70
     0
300
1:100
140
1.0
141
100.0
290
     0
  0
SCALE
  5
54
102
{ACAD_REACTORS
330
47
102
}
330
47
100
AcDbScale
 70
     0
300
2:1
140
2.0
141
1.0
290
     0
  0
SCALE
  5
55
102
{ACAD_REACTORS
330
47
102
}
330
47
100
AcDbScale
 70
     0
300
4:1
140
4.0
141
1.0
290
     0
  0
SCALE
  5
56
102
{ACAD_REACTORS
330
47
102
}
330
47
100
AcDbScale
 70
     0
300
8:1
140
8.0
141
1.0
290
     0
  0
SCALE
  5
57
102
{ACAD_REACTORS
330
47
102
}
330
47
100
AcDbScale
 70
     0
300
10:1
140
10.0
141
1.0
290
     0
  0
SCALE
  5
58
102
{ACAD_REACTORS
330
47
102
}
330
47
100
AcDbScale
 70
     0
300
100:1
140
100.0
141
1.0
290
     0
  0
TABLESTYLE
  5
5A
102
{ACAD_REACTORS
330
59
102
}
102
{ACAD_XDICTIONARY
360
115
102
}
330
59
100
AcDbTableStyle
  3
Standard
 70
     0
 71
     0
 40
0.06
 41
0.06
280
     0
281
     0
  7
Standard
140
4.5
170
     2
 62
     0
 63
   257
283
     0
 90
        4
 91
        0
  1

274
    -2
284
     1
 64
     0
275
    -2
285
     1
 65
     0
276
    -2
286
     1
 66
     0
277
    -2
287
     1
 67
     0
278
    -2
288
     1
 68
     0
279
    -2
289
     1
 69
     0
  7
Standard
140
6.0
170
     5
 62
     0
 63
   257
283
     0
 90
        4
 91
        0
  1

274
    -2
284
     1
 64
     0
275
    -2
285
     1
 65
     0
276
    -2
286
     1
 66
     0
277
    -2
287
     1
 67
     0
278
    -2
288
     1
 68
     0
279
    -2
289
     1
 69
     0
  7
Standard
140
4.5
170
     5
 62
     0
 63
   257
283
     0
 90
        4
 91
        0
  1

274
    -2
284
     1
 64
     0
275
    -2
285
     1
 65
     0
276
    -2
286
     1
 66
     0
277
    -2
287
     1
 67
     0
278
    -2
288
     1
 68
     0
279
    -2
289
     1
 69
     0
  0
VISUALSTYLE
  5
2F
102
{ACAD_REACTORS
330
2A
102
}
330
2A
100
AcDbVisualStyle
  2
2dWireframe
 70
     4
177
     3
291
     0
 70
    58
 90
        0
176
     1
 90
        2
176
     1
 90
        0
176
     1
 90
        0
176
     1
 40
0.6
176
     1
 40
30.0
176
     1
 62
     7
420
 16777215
176
     1
 90
        1
176
     1
 90
        4
176
     1
 62
     7
176
     1
 62
   257
176
     1
 90
        1
176
     1
 90
        1
176
     1
 40
1.0
176
     1
 90
        0
176
     1
 62
   257
176
     1
 40
1.0
176
     1
 90
        1
176
     1
 90
        6
176
     1
 90
        2
176
     1
 62
     7
176
     1
 90
        5
176
     1
 90
        0
176
     1
 90
        0
176
     1
290
     0
176
     1
 90
        1
176
     1
 40
0.0
176
     1
 90
        0
176
     1
290
     1
176
     1
290
     1
176
     1
290
     0
176
     1
290
     0
176
     1
290
     0
176
     1
290
     0
176
     1
290
     0
176
     1
290
     0
176
     1
290
     0
176
     1
 90
       50
176
     1
 40
0.0
176
     1
 40
1.0
176
     1
 90
        0
176
     1
 62
    18
420
        0
176
     1
 90
       50
176
     1
 90
        3
176
     1
 62
     5
420
      255
176
     1
290
     0
176
     1
 90
       50
176
     1
 90
       50
176
     1
 90
       50
176
     1
290
     0
176
     1
 90
       50
176
     1
 62
   256
176
     0
 40
1.0
176
     0
 90
        2
176
     1
  1
strokes_ogs.tif
176
     1
290
     0
176
     1
 40
1.0
176
     1
 40
1.0
176
     1
  0
VISUALSTYLE
  5
32
102
{ACAD_REACTORS
330
2A
102
}
330
2A
100
AcDbVisualStyle
  2
Basic
 70
     7
177
     3
291
     1
 70
    58
 90
        1
176
     1
 90
        0
176
     1
 90
        1
176
     1
 90
        0
176
     1
 40
0.6
176
     1
 40
30.0
176
     1
 62
     7
420
 16777215
176
     1
 90
        0
176
     1
 90
        4
176
     1
 62
     7
176
     1
 62
   257
176
     1
 90
        1
176
     1
 90
        1
176
     1
 40
1.0
176
     1
 90
        8
176
     1
 62
     7
176
     1
 40
1.0
176
     1
 90
        1
176
     1
 90
        6
176
     1
 90
        2
176
     1
 62
     7
176
     1
 90
        5
176
     1
 90
        0
176
     1
 90
        0
176
     1
290
     0
176
     1
 90
        1
176
     1
 40
0.0
176
     1
 90
        0
176
     1
290
     0
176
     1
290
     1
176
     1
290
     1
176
     1
290
     0
176
     1
290
     0
176
     1
290
     0
176
     1
290
     0
176
     1
290
     0
176
     1
290
     0
176
     1
 90
       50
176
     1
 40
0.0
176
     1
 40
1.0
176
     1
 90
        0
176
     1
 62
    18
420
        0
176
     1
 90
       50
176
     1
 90
        3
176
     1
 62
     5
420
      255
176
     1
290
     0
176
     1
 90
       50
176
     1
 90
       50
176
     1
 90
       50
176
     1
290
     0
176
     1
 90
       50
176
     1
 62
   256
176
     0
 40
1.0
176
     0
 90
        2
176
     1
  1
strokes_ogs.tif
176
     1
290
     0
176
     1
 40
1.0
176
     1
 40
1.0
176
     1
  0
VISUALSTYLE
  5
36
102
{ACAD_REACTORS
330
2A
102
}
330
2A
100
AcDbVisualStyle
  2
Brighten
 70
    12
177
     3
291
     1
 70
    58
 90
        2
176
     1
 90
        2
176
     1
 90
        0
176
     1
 90
        0
176
     1
 40
0.6
176
     1
 40
30.0
176
     1
 62
     7
420
 16777215
176
     1
 90
        1
176
     1
 90
        4
176
     1
 62
     7
176
     1
 62
   257
176
     1
 90
        1
176
     1
 90
        1
176
     1
 40
1.0
176
     1
 90
        8
176
     1
 62
     7
176
     1
 40
1.0
176
     1
 90
        1
176
     1
 90
        6
176
     1
 90
        2
176
     1
 62
     7
176
     1
 90
        5
176
     1
 90
        0
176
     1
 90
        0
176
     1
290
     0
176
     1
 90
        1
176
     1
 40
50.0
176
     1
 90
        0
176
     1
290
     0
176
     1
290
     1
176
     1
290
     1
176
     1
290
     0
176
     1
290
     0
176
     1
290
     0
176
     1
290
     0
176
     1
290
     0
176
     1
290
     0
176
     1
 90
       50
176
     1
 40
0.0
176
     1
 40
1.0
176
     1
 90
        0
176
     1
 62
    18
420
        0
176
     1
 90
       50
176
     1
 90
        3
176
     1
 62
     5
420
      255
176
     1
290
     0
176
     1
 90
       50
176
     1
 90
       50
176
     1
 90
       50
176
     1
290
     0
176
     1
 90
       50
176
     1
 62
   256
176
     0
 40
1.0
176
     0
 90
        2
176
     1
  1
strokes_ogs.tif
176
     1
290
     0
176
     1
 40
1.0
176
     1
 40
1.0
176
     1
  0
VISUALSTYLE
  5
3A
102
{ACAD_REACTORS
330
2A
102
}
330
2A
100
AcDbVisualStyle
  2
ColorChange
 70
    16
177
     3
291
     1
 70
    58
 90
        2
176
     1
 90
        2
176
     1
 90
        3
176
     1
 90
        0
176
     1
 40
0.6
176
     1
 40
30.0
176
     1
 62
     8
420
  8421504
176
     1
 90
        1
176
     1
 90
        4
176
     1
 62
     7
176
     1
 62
   257
176
     1
 90
        1
176
     1
 90
        1
176
     1
 40
1.0
176
     1
 90
        8
176
     1
 62
     8
420
  8421504
176
     1
 40
1.0
176
     1
 90
        1
176
     1
 90
        6
176
     1
 90
        2
176
     1
 62
     7
176
     1
 90
        5
176
     1
 90
        0
176
     1
 90
        0
176
     1
290
     0
176
     1
 90
        1
176
     1
 40
0.0
176
     1
 90
        0
176
     1
290
     0
176
     1
290
     1
176
     1
290
     1
176
     1
290
     0
176
     1
290
     0
176
     1
290
     0
176
     1
290
     0
176
     1
290
     0
176
     1
290
     0
176
     1
 90
       50
176
     1
 40
0.0
176
     1
 40
1.0
176
     1
 90
        0
176
     1
 62
    18
420
        0
176
     1
 90
       50
176
     1
 90
        3
176
     1
 62
     5
420
      255
176
     1
290
     0
176
     1
 90
       50
176
     1
 90
       50
176
     1
 90
       50
176
     1
290
     0
176
     1
 90
       50
176
     1
 62
   256
176
     0
 40
1.0
176
     0
 90
        2
176
     1
  1
strokes_ogs.tif
176
     1
290
     0
176
     1
 40
1.0
176
     1
 40
1.0
176
     1
  0
VISUALSTYLE
  5
34
102
{ACAD_REACTORS
330
2A
102
}
330
2A
100
AcDbVisualStyle
  2
Conceptual
 70
     9
177
     3
291
     0
 70
    58
 90
        3
176
     1
 90
        2
176
     1
 90
        0
176
     1
 90
        0
176
     1
 40
0.6
176
     1
 40
30.0
176
     1
 62
     7
420
 16777215
176
     1
 90
        2
176
     1
 90
        2
176
     1
 62
     7
176
     1
 62
   257
176
     1
 90
        1
176
     1
 90
        1
176
     1
 40
179.0
176
     1
 90
        8
176
     1
 62
     7
176
     1
 40
1.0
176
     1
 90
        1
176
     1
 90
        6
176
     1
 90
        2
176
     1
 62
     7
176
     1
 90
        3
176
     1
 90
        0
176
     1
 90
        0
176
     1
290
     0
176
     1
 90
        1
176
     1
 40
0.0
176
     1
 90
        0
176
     1
290
     0
176
     1
290
     1
176
     1
290
     1
176
     1
290
     0
176
     1
290
     0
176
     1
290
     0
176
     1
290
     0
176
     1
290
     0
176
     1
290
     0
176
     1
 90
       50
176
     1
 40
0.0
176
     1
 40
1.0
176
     1
 90
        0
176
     1
 62
    18
420
        0
176
     1
 90
       50
176
     1
 90
        3
176
     1
 62
     5
420
      255
176
     1
290
     0
176
     1
 90
       50
176
     1
 90
       50
176
     1
 90
       50
176
     1
290
     0
176
     1
 90
       50
176
     1
 62
   256
176
     0
 40
1.0
176
     0
 90
        2
176
     1
  1
strokes_ogs.tif
176
     1
290
     0
176
     1
 40
1.0
176
     1
 40
1.0
176
     1
  0
VISUALSTYLE
  5
35
102
{ACAD_REACTORS
330
2A
102
}
330
2A
100
AcDbVisualStyle
  2
Dim
 70
    11
177
     3
291
     1
 70
    58
 90
        2
176
     1
 90
        2
176
     1
 90
        0
176
     1
 90
        0
176
     1
 40
0.6
176
     1
 40
30.0
176
     1
 62
     7
420
 16777215
176
     1
 90
        1
176
     1
 90
        4
176
     1
 62
     7
176
     1
 62
   257
176
     1
 90
        1
176
     1
 90
        1
176
     1
 40
1.0
176
     1
 90
        8
176
     1
 62
     7
176
     1
 40
1.0
176
     1
 90
        1
176
     1
 90
        6
176
     1
 90
        2
176
     1
 62
     7
176
     1
 90
        5
176
     1
 90
        0
176
     1
 90
        0
176
     1
290
     0
176
     1
 90
        1
176
     1
 40
-50.0
176
     1
 90
        0
176
     1
290
     0
176
     1
290
     1
176
     1
290
     1
176
     1
290
     0
176
     1
290
     0
176
     1
290
     0
176
     1
290
     0
176
     1
290
     0
176
     1
290
     0
176
     1
 90
       50
176
     1
 40
0.0
176
     1
 40
1.0
176
     1
 90
        0
176
     1
 62
    18
420
        0
176
     1
 90
       50
176
     1
 90
        3
176
     1
 62
     5
420
      255
176
     1
290
     0
176
     1
 90
       50
176
     1
 90
       50
176
     1
 90
       50
176
     1
290
     0
176
     1
 90
       50
176
     1
 62
   256
176
     0
 40
1.0
176
     0
 90
        2
176
     1
  1
strokes_ogs.tif
176
     1
290
     0
176
     1
 40
1.0
176
     1
 40
1.0
176
     1
  0
VISUALSTYLE
  5
3D
102
{ACAD_REACTORS
330
2A
102
}
330
2A
100
AcDbVisualStyle
  2
EdgeColorOff
 70
    22
177
     3
291
     1
 70
    58
 90
        2
176
     0
 90
        2
176
     0
 90
        0
176
     0
 90
        0
176
     0
 40
0.6
176
     0
 40
30.0
176
     0
 62
     7
420
 16777215
176
     0
 90
        1
176
     0
 90
        4
176
     0
 62
     7
176
     0
 62
   257
176
     0
 90
        1
176
     0
 90
        1
176
     0
 40
1.0
176
     0
 90
        8
176
     2
 62
     7
176
     0
 40
1.0
176
     0
 90
        1
176
     0
 90
        6
176
     0
 90
        2
176
     0
 62
     7
176
     0
 90
        5
176
     0
 90
        0
176
     0
 90
        0
176
     0
290
     0
176
     0
 90
        1
176
     0
 40
0.0
176
     0
 90
        0
176
     0
290
     0
176
     0
290
     1
176
     0
290
     1
176
     0
290
     0
176
     0
290
     0
176
     0
290
     0
176
     0
290
     0
176
     0
290
     0
176
     0
290
     0
176
     0
 90
       50
176
     0
 40
0.0
176
     0
 40
1.0
176
     0
 90
        0
176
     0
 62
    18
420
        0
176
     0
 90
       50
176
     0
 90
        3
176
     0
 62
     5
420
      255
176
     0
290
     0
176
     0
 90
       50
176
     0
 90
       50
176
     0
 90
       50
176
     0
290
     0
176
     0
 90
       50
176
     0
 62
   256
176
     0
 40
1.0
176
     0
 90
        2
176
     0
  1
strokes_ogs.tif
176
     0
290
     0
176
     0
 40
1.0
176
     0
 40
1.0
176
     0
  0
VISUALSTYLE
  5
39
102
{ACAD_REACTORS
330
2A
102
}
330
2A
100
AcDbVisualStyle
  2
Facepattern
 70
    15
177
     3
291
     1
 70
    58
 90
        2
176
     1
 90
        2
176
     1
 90
        0
176
     1
 90
        0
176
     1
 40
0.6
176
     1
 40
30.0
176
     1
 62
     7
420
 16777215
176
     1
 90
        1
176
     1
 90
        4
176
     1
 62
     7
176
     1
 62
   257
176
     1
 90
        1
176
     1
 90
        1
176
     1
 40
1.0
176
     1
 90
        8
176
     1
 62
     7
176
     1
 40
1.0
176
     1
 90
        1
176
     1
 90
        6
176
     1
 90
        2
176
     1
 62
     7
176
     1
 90
        5
176
     1
 90
        0
176
     1
 90
        0
176
     1
290
     0
176
     1
 90
        1
176
     1
 40
0.0
176
     1
 90
        0
176
     1
290
     0
176
     1
290
     1
176
     1
290
     1
176
     1
290
     0
176
     1
290
     0
176
     1
290
     0
176
     1
290
     0
176
     1
290
     0
176
     1
290
     0
176
     1
 90
       50
176
     1
 40
0.0
176
     1
 40
1.0
176
     1
 90
        0
176
     1
 62
    18
420
        0
176
     1
 90
       50
176
     1
 90
        3
176
     1
 62
     5
420
      255
176
     1
290
     0
176
     1
 90
       50
176
     1
 90
       50
176
     1
 90
       50
176
     1
290
     0
176
     1
 90
       50
176
     1
 62
   256
176
     0
 40
1.0
176
     0
 90
        2
176
     1
  1
strokes_ogs.tif
176
     1
290
     0
176
     1
 40
1.0
176
     1
 40
1.0
176
     1
  0
VISUALSTYLE
  5
2B
102
{ACAD_REACTORS
330
2A
102
}
330
2A
100
AcDbVisualStyle
  2
Flat
 70
     0
177
     3
291
     1
 70
    58
 90
        2
176
     1
 90
        1
176
     1
 90
        1
176
     1
 90
        2
176
     1
 40
0.6
176
     1
 40
30.0
176
     1
 62
     7
420
 16777215
176
     1
 90
        0
176
     1
 90
        0
176
     1
 62
     7
176
     1
 62
   257
176
     1
 90
        1
176
     1
 90
        1
176
     1
 40
1.0
176
     1
 90
        8
176
     1
 62
     7
176
     1
 40
1.0
176
     1
 90
        1
176
     1
 90
        6
176
     1
 90
        2
176
     1
 62
     7
176
     1
 90
        5
176
     1
 90
        0
176
     1
 90
        0
176
     1
290
     0
176
     1
 90
       13
176
     1
 40
0.0
176
     1
 90
        0
176
     1
290
     0
176
     1
290
     1
176
     1
290
     1
176
     1
290
     0
176
     1
290
     0
176
     1
290
     0
176
     1
290
     0
176
     1
290
     0
176
     1
290
     0
176
     1
 90
       50
176
     1
 40
0.0
176
     1
 40
1.0
176
     1
 90
        0
176
     1
 62
    18
420
        0
176
     1
 90
       50
176
     1
 90
        3
176
     1
 62
     5
420
      255
176
     1
290
     0
176
     1
 90
       50
176
     1
 90
       50
176
     1
 90
       50
176
     1
290
     0
176
     1
 90
       50
176
     1
 62
   256
176
     0
 40
1.0
176
     0
 90
        2
176
     1
  1
strokes_ogs.tif
176
     1
290
     0
176
     1
 40
1.0
176
     1
 40
1.0
176
     1
  0
VISUALSTYLE
  5
2C
102
{ACAD_REACTORS
330
2A
102
}
330
2A
100
AcDbVisualStyle
  2
FlatWithEdges
 70
     1
177
     3
291
     1
 70
    58
 90
        2
176
     1
 90
        1
176
     1
 90
        1
176
     1
 90
        2
176
     1
 40
0.6
176
     1
 40
30.0
176
     1
 62
     7
420
 16777215
176
     1
 90
        1
176
     1
 90
        0
176
     1
 62
     7
176
     1
 62
   257
176
     1
 90
        1
176
     1
 90
        1
176
     1
 40
1.0
176
     1
 90
        0
176
     1
 62
   257
176
     1
 40
1.0
176
     1
 90
        1
176
     1
 90
        6
176
     1
 90
        2
176
     1
 62
     7
176
     1
 90
        5
176
     1
 90
        0
176
     1
 90
        0
176
     1
290
     0
176
     1
 90
       13
176
     1
 40
0.0
176
     1
 90
        0
176
     1
290
     0
176
     1
290
     1
176
     1
290
     1
176
     1
290
     0
176
     1
290
     0
176
     1
290
     0
176
     1
290
     0
176
     1
290
     0
176
     1
290
     0
176
     1
 90
       50
176
     1
 40
0.0
176
     1
 40
1.0
176
     1
 90
        0
176
     1
 62
    18
420
        0
176
     1
 90
       50
176
     1
 90
        3
176
     1
 62
     5
420
      255
176
     1
290
     0
176
     1
 90
       50
176
     1
 90
       50
176
     1
 90
       50
176
     1
290
     0
176
     1
 90
       50
176
     1
 62
   256
176
     0
 40
1.0
176
     0
 90
        2
176
     1
  1
strokes_ogs.tif
176
     1
290
     0
176
     1
 40
1.0
176
     1
 40
1.0
176
     1
  0
VISUALSTYLE
  5
2D
102
{ACAD_REACTORS
330
2A
102
}
330
2A
100
AcDbVisualStyle
  2
Gouraud
 70
     2
177
     3
291
     1
 70
    58
 90
        2
176
     1
 90
        2
176
     1
 90
        1
176
     1
 90
        2
176
     1
 40
0.6
176
     1
 40
30.0
176
     1
 62
     7
420
 16777215
176
     1
 90
        0
176
     1
 90
        0
176
     1
 62
     7
176
     1
 62
   257
176
     1
 90
        1
176
     1
 90
        1
176
     1
 40
1.0
176
     1
 90
        0
176
     1
 62
     7
176
     1
 40
1.0
176
     1
 90
        1
176
     1
 90
        6
176
     1
 90
        2
176
     1
 62
     7
176
     1
 90
        5
176
     1
 90
        0
176
     1
 90
        0
176
     1
290
     0
176
     1
 90
       13
176
     1
 40
0.0
176
     1
 90
        0
176
     1
290
     0
176
     1
290
     1
176
     1
290
     1
176
     1
290
     0
176
     1
290
     0
176
     1
290
     0
176
     1
290
     0
176
     1
290
     0
176
     1
290
     0
176
     1
 90
       50
176
     1
 40
0.0
176
     1
 40
1.0
176
     1
 90
        0
176
     1
 62
    18
420
        0
176
     1
 90
       50
176
     1
 90
        3
176
     1
 62
     5
420
      255
176
     1
290
     0
176
     1
 90
       50
176
     1
 90
       50
176
     1
 90
       50
176
     1
290
     0
176
     1
 90
       50
176
     1
 62
   256
176
     0
 40
1.0
176
     0
 90
        2
176
     1
  1
strokes_ogs.tif
176
     1
290
     0
176
     1
 40
1.0
176
     1
 40
1.0
176
     1
  0
VISUALSTYLE
  5
2E
102
{ACAD_REACTORS
330
2A
102
}
330
2A
100
AcDbVisualStyle
  2
GouraudWithEdges
 70
     3
177
     3
291
     1
 70
    58
 90
        2
176
     1
 90
        2
176
     1
 90
        1
176
     1
 90
        2
176
     1
 40
0.6
176
     1
 40
30.0
176
     1
 62
     7
420
 16777215
176
     1
 90
        1
176
     1
 90
        0
176
     1
 62
     7
176
     1
 62
   257
176
     1
 90
        1
176
     1
 90
        1
176
     1
 40
1.0
176
     1
 90
        0
176
     1
 62
   257
176
     1
 40
1.0
176
     1
 90
        1
176
     1
 90
        6
176
     1
 90
        2
176
     1
 62
     7
176
     1
 90
        5
176
     1
 90
        0
176
     1
 90
        0
176
     1
290
     0
176
     1
 90
       13
176
     1
 40
0.0
176
     1
 90
        0
176
     1
290
     0
176
     1
290
     1
176
     1
290
     1
176
     1
290
     0
176
     1
290
     0
176
     1
290
     0
176
     1
290
     0
176
     1
290
     0
176
     1
290
     0
176
     1
 90
       50
176
     1
 40
0.0
176
     1
 40
1.0
176
     1
 90
        0
176
     1
 62
    18
420
        0
176
     1
 90
       50
176
     1
 90
        3
176
     1
 62
     5
420
      255
176
     1
290
     0
176
     1
 90
       50
176
     1
 90
       50
176
     1
 90
       50
176
     1
290
     0
176
     1
 90
       50
176
     1
 62
   256
176
     0
 40
1.0
176
     0
 90
        2
176
     1
  1
strokes_ogs.tif
176
     1
290
     0
176
     1
 40
1.0
176
     1
 40
1.0
176
     1
  0
VISUALSTYLE
  5
31
102
{ACAD_REACTORS
330
2A
102
}
330
2A
100
AcDbVisualStyle
  2
Hidden
 70
     6
177
     3
291
     0
 70
    58
 90
        1
176
     1
 90
        2
176
     1
 90
        2
176
     1
 90
        0
176
     1
 40
0.6
176
     1
 40
30.0
176
     1
 62
     7
420
 16777215
176
     1
 90
        2
176
     1
 90
        2
176
     1
 62
     7
176
     1
 62
   257
176
     1
 90
        2
176
     1
 90
        1
176
     1
 40
40.0
176
     1
 90
        0
176
     1
 62
   257
176
     1
 40
1.0
176
     1
 90
        1
176
     1
 90
        6
176
     1
 90
        2
176
     1
 62
     7
176
     1
 90
        3
176
     1
 90
        0
176
     1
 90
        0
176
     1
290
     0
176
     1
 90
        1
176
     1
 40
0.0
176
     1
 90
        0
176
     1
290
     0
176
     1
290
     1
176
     1
290
     1
176
     1
290
     0
176
     1
290
     0
176
     1
290
     0
176
     1
290
     0
176
     1
290
     0
176
     1
290
     0
176
     1
 90
       50
176
     1
 40
0.0
176
     1
 40
1.0
176
     1
 90
        0
176
     1
 62
    18
420
        0
176
     1
 90
       50
176
     1
 90
        3
176
     1
 62
     5
420
      255
176
     1
290
     0
176
     1
 90
       50
176
     1
 90
       50
176
     1
 90
       50
176
     1
290
     0
176
     1
 90
       50
176
     1
 62
   256
176
     0
 40
1.0
176
     0
 90
        2
176
     1
  1
strokes_ogs.tif
176
     1
290
     0
176
     1
 40
1.0
176
     1
 40
1.0
176
     1
  0
VISUALSTYLE
  5
3B
102
{ACAD_REACTORS
330
2A
102
}
330
2A
100
AcDbVisualStyle
  2
JitterOff
 70
    20
177
     3
291
     1
 70
    58
 90
        2
176
     0
 90
        2
176
     0
 90
        0
176
     0
 90
        0
176
     0
 40
0.6
176
     0
 40
30.0
176
     0
 62
     7
420
 16777215
176
     0
 90
        1
176
     0
 90
        4
176
     0
 62
     7
176
     0
 62
   257
176
     0
 90
        1
176
     0
 90
        1
176
     0
 40
1.0
176
     0
 90
       10
176
     2
 62
     7
176
     0
 40
1.0
176
     0
 90
        1
176
     0
 90
        6
176
     0
 90
        2
176
     0
 62
     7
176
     0
 90
        5
176
     0
 90
        0
176
     0
 90
        0
176
     0
290
     0
176
     0
 90
        1
176
     0
 40
0.0
176
     0
 90
        0
176
     0
290
     0
176
     0
290
     1
176
     0
290
     1
176
     0
290
     0
176
     0
290
     0
176
     0
290
     0
176
     0
290
     0
176
     0
290
     0
176
     0
290
     0
176
     0
 90
       50
176
     0
 40
0.0
176
     0
 40
1.0
176
     0
 90
        0
176
     0
 62
    18
420
        0
176
     0
 90
       50
176
     0
 90
        3
176
     0
 62
     5
420
      255
176
     0
290
     0
176
     0
 90
       50
176
     0
 90
       50
176
     0
 90
       50
176
     0
290
     0
176
     0
 90
       50
176
     0
 62
   256
176
     0
 40
1.0
176
     0
 90
        2
176
     0
  1
strokes_ogs.tif
176
     0
290
     0
176
     0
 40
1.0
176
     0
 40
1.0
176
     0
  0
VISUALSTYLE
  5
38
102
{ACAD_REACTORS
330
2A
102
}
330
2A
100
AcDbVisualStyle
  2
Linepattern
 70
    14
177
     3
291
     1
 70
    58
 90
        2
176
     1
 90
        2
176
     1
 90
        0
176
     1
 90
        0
176
     1
 40
0.6
176
     1
 40
30.0
176
     1
 62
     7
420
 16777215
176
     1
 90
        1
176
     1
 90
        4
176
     1
 62
     7
176
     1
 62
   257
176
     1
 90
        7
176
     1
 90
        7
176
     1
 40
1.0
176
     1
 90
        8
176
     1
 62
     7
176
     1
 40
1.0
176
     1
 90
        1
176
     1
 90
        6
176
     1
 90
        2
176
     1
 62
     7
176
     1
 90
        5
176
     1
 90
        0
176
     1
 90
        0
176
     1
290
     0
176
     1
 90
        1
176
     1
 40
0.0
176
     1
 90
        0
176
     1
290
     0
176
     1
290
     1
176
     1
290
     1
176
     1
290
     0
176
     1
290
     0
176
     1
290
     0
176
     1
290
     0
176
     1
290
     0
176
     1
290
     0
176
     1
 90
       50
176
     1
 40
0.0
176
     1
 40
1.0
176
     1
 90
        0
176
     1
 62
    18
420
        0
176
     1
 90
       50
176
     1
 90
        3
176
     1
 62
     5
420
      255
176
     1
290
     0
176
     1
 90
       50
176
     1
 90
       50
176
     1
 90
       50
176
     1
290
     0
176
     1
 90
       50
176
     1
 62
   256
176
     0
 40
1.0
176
     0
 90
        2
176
     1
  1
strokes_ogs.tif
176
     1
290
     0
176
     1
 40
1.0
176
     1
 40
1.0
176
     1
  0
VISUALSTYLE
  5
3C
102
{ACAD_REACTORS
330
2A
102
}
330
2A
100
AcDbVisualStyle
  2
OverhangOff
 70
    21
177
     3
291
     1
 70
    58
 90
        2
176
     0
 90
        2
176
     0
 90
        0
176
     0
 90
        0
176
     0
 40
0.6
176
     0
 40
30.0
176
     0
 62
     7
420
 16777215
176
     0
 90
        1
176
     0
 90
        4
176
     0
 62
     7
176
     0
 62
   257
176
     0
 90
        1
176
     0
 90
        1
176
     0
 40
1.0
176
     0
 90
        9
176
     2
 62
     7
176
     0
 40
1.0
176
     0
 90
        1
176
     0
 90
        6
176
     0
 90
        2
176
     0
 62
     7
176
     0
 90
        5
176
     0
 90
        0
176
     0
 90
        0
176
     0
290
     0
176
     0
 90
        1
176
     0
 40
0.0
176
     0
 90
        0
176
     0
290
     0
176
     0
290
     1
176
     0
290
     1
176
     0
290
     0
176
     0
290
     0
176
     0
290
     0
176
     0
290
     0
176
     0
290
     0
176
     0
290
     0
176
     0
 90
       50
176
     0
 40
0.0
176
     0
 40
1.0
176
     0
 90
        0
176
     0
 62
    18
420
        0
176
     0
 90
       50
176
     0
 90
        3
176
     0
 62
     5
420
      255
176
     0
290
     0
176
     0
 90
       50
176
     0
 90
       50
176
     0
 90
       50
176
     0
290
     0
176
     0
 90
       50
176
     0
 62
   256
176
     0
 40
1.0
176
     0
 90
        2
176
     0
  1
strokes_ogs.tif
176
     0
290
     0
176
     0
 40
1.0
176
     0
 40
1.0
176
     0
  0
VISUALSTYLE
  5
33
102
{ACAD_REACTORS
330
2A
102
}
330
2A
100
AcDbVisualStyle
  2
Realistic
 70
     8
177
     3
291
     0
 70
    58
 90
        2
176
     1
 90
        3
176
     1
 90
        0
176
     1
 90
        2
176
     1
 40
0.6
176
     1
 40
30.0
176
     1
 62
     7
420
 16777215
176
     1
 90
        0
176
     1
 90
        0
176
     1
 62
     7
176
     1
 62
   257
176
     1
 90
        1
176
     1
 90
        1
176
     1
 40
1.0
176
     1
 90
        8
176
     1
 62
   257
176
     1
 40
1.0
176
     1
 90
        1
176
     1
 90
        6
176
     1
 90
        2
176
     1
 62
     7
176
     1
 90
        3
176
     1
 90
        0
176
     1
 90
        0
176
     1
290
     0
176
     1
 90
       13
176
     1
 40
0.0
176
     1
 90
        0
176
     1
290
     0
176
     1
290
     1
176
     1
290
     1
176
     1
290
     0
176
     1
290
     0
176
     1
290
     0
176
     1
290
     0
176
     1
290
     0
176
     1
290
     0
176
     1
 90
       50
176
     1
 40
0.0
176
     1
 40
1.0
176
     1
 90
        0
176
     1
 62
    18
420
        0
176
     1
 90
       50
176
     1
 90
        3
176
     1
 62
     5
420
      255
176
     1
290
     0
176
     1
 90
       50
176
     1
 90
       50
176
     1
 90
       50
176
     1
290
     0
176
     1
 90
       50
176
     1
 62
   256
176
     0
 40
1.0
176
     0
 90
        2
176
     1
  1
strokes_ogs.tif
176
     1
290
     0
176
     1
 40
1.0
176
     1
 40
1.0
176
     1
  0
VISUALSTYLE
  5
42
102
{ACAD_REACTORS
330
2A
102
}
330
2A
100
AcDbVisualStyle
  2
Shaded
 70
    27
177
     3
291
     0
 70
    58
 90
        2
176
     1
 90
        2
176
     1
 90
        1
176
     1
 90
        2
176
     1
 40
0.6
176
     1
 40
30.0
176
     1
 62
     7
420
 16777215
176
     1
 90
        0
176
     1
 90
        4
176
     1
 62
     7
176
     1
 62
   257
176
     1
 90
        1
176
     1
 90
        1
176
     1
 40
1.0
176
     1
 90
        8
176
     1
 62
   257
176
     1
 40
1.0
176
     1
 90
        1
176
     1
 90
        6
176
     1
 90
        2
176
     1
 62
     8
420
  7895160
176
     1
 90
        3
176
     1
 90
        0
176
     1
 90
        0
176
     1
290
     0
176
     1
 90
        5
176
     1
 40
0.0
176
     1
 90
        0
176
     1
290
     0
176
     1
290
     1
176
     1
290
     1
176
     1
290
     0
176
     1
290
     0
176
     1
290
     0
176
     1
290
     0
176
     1
290
     0
176
     1
290
     0
176
     1
 90
       50
176
     1
 40
0.0
176
     1
 40
1.0
176
     1
 90
        0
176
     1
 62
    18
420
        0
176
     1
 90
       50
176
     1
 90
        3
176
     1
 62
     5
420
      255
176
     1
290
     0
176
     1
 90
       50
176
     1
 90
       50
176
     1
 90
       50
176
     1
290
     0
176
     1
 90
       50
176
     1
 62
   256
176
     0
 40
1.0
176
     0
 90
        2
176
     1
  1
strokes_ogs.tif
176
     1
290
     0
176
     1
 40
1.0
176
     1
 40
1.0
176
     1
  0
VISUALSTYLE
  5
41
102
{ACAD_REACTORS
330
2A
102
}
330
2A
100
AcDbVisualStyle
  2
Shaded with edges
 70
    26
177
     3
291
     0
 70
    58
 90
        2
176
     1
 90
        2
176
     1
 90
        1
176
     1
 90
        2
176
     1
 40
0.6
176
     1
 40
30.0
176
     1
 62
     7
420
 16777215
176
     1
 90
        1
176
     1
 90
       10
176
     1
 62
     7
176
     1
 62
   257
176
     1
 90
        2
176
     1
 90
        1
176
     1
 40
1.0
176
     1
 90
        8
176
     1
 62
   257
176
     1
 40
1.0
176
     1
 90
        1
176
     1
 90
        6
176
     1
 90
        2
176
     1
 62
     7
176
     1
 90
        3
176
     1
 90
        0
176
     1
 90
        0
176
     1
290
     0
176
     1
 90
        5
176
     1
 40
0.0
176
     1
 90
        0
176
     1
290
     0
176
     1
290
     1
176
     1
290
     1
176
     1
290
     0
176
     1
290
     0
176
     1
290
     0
176
     1
290
     0
176
     1
290
     0
176
     1
290
     0
176
     1
 90
       50
176
     1
 40
0.0
176
     1
 40
1.0
176
     1
 90
        0
176
     1
 62
    18
420
        0
176
     1
 90
       50
176
     1
 90
        3
176
     1
 62
     5
420
      255
176
     1
290
     0
176
     1
 90
       50
176
     1
 90
       50
176
     1
 90
       50
176
     1
290
     0
176
     1
 90
       50
176
     1
 62
   256
176
     0
 40
1.0
176
     0
 90
        2
176
     1
  1
strokes_ogs.tif
176
     1
290
     0
176
     1
 40
1.0
176
     1
 40
1.0
176
     1
  0
VISUALSTYLE
  5
3E
102
{ACAD_REACTORS
330
2A
102
}
330
2A
100
AcDbVisualStyle
  2
Shades of Gray
 70
    23
177
     3
291
     0
 70
    58
 90
        2
176
     1
 90
        2
176
     1
 90
        3
176
     1
 90
        0
176
     1
 40
0.6
176
     1
 40
30.0
176
     1
 62
     7
420
 16777215
176
     1
 90
        2
176
     1
 90
        2
176
     1
 62
     7
176
     1
 62
     7
176
     1
 90
        1
176
     1
 90
        1
176
     1
 40
40.0
176
     1
 90
        8
176
     1
 62
     7
176
     1
 40
1.0
176
     1
 90
        1
176
     1
 90
        6
176
     1
 90
        2
176
     1
 62
     7
176
     1
 90
        3
176
     1
 90
        0
176
     1
 90
        0
176
     1
290
     0
176
     1
 90
        1
176
     1
 40
0.0
176
     1
 90
        0
176
     1
290
     0
176
     1
290
     1
176
     1
290
     1
176
     1
290
     0
176
     1
290
     0
176
     1
290
     0
176
     1
290
     0
176
     1
290
     0
176
     1
290
     0
176
     1
 90
       50
176
     1
 40
0.0
176
     1
 40
1.0
176
     1
 90
        0
176
     1
 62
    18
420
        0
176
     1
 90
       50
176
     1
 90
        3
176
     1
 62
     5
420
      255
176
     1
290
     0
176
     1
 90
       50
176
     1
 90
       50
176
     1
 90
       50
176
     1
290
     0
176
     1
 90
       50
176
     1
 62
   256
176
     0
 40
1.0
176
     0
 90
        2
176
     1
  1
strokes_ogs.tif
176
     1
290
     0
176
     1
 40
1.0
176
     1
 40
1.0
176
     1
  0
VISUALSTYLE
  5
3F
102
{ACAD_REACTORS
330
2A
102
}
330
2A
100
AcDbVisualStyle
  2
Sketchy
 70
    24
177
     3
291
     0
 70
    58
 90
        1
176
     1
 90
        2
176
     1
 90
        2
176
     1
 90
        0
176
     1
 40
0.6
176
     1
 40
30.0
176
     1
 62
     7
420
 16777215
176
     1
 90
        2
176
     1
 90
        2
176
     1
 62
     7
176
     1
 62
     7
176
     1
 90
        1
176
     1
 90
        1
176
     1
 40
40.0
176
     1
 90
       11
176
     1
 62
     7
176
     1
 40
1.0
176
     1
 90
        1
176
     1
 90
        6
176
     1
 90
        2
176
     1
 62
     7
176
     1
 90
        6
176
     1
 90
        0
176
     1
 90
        0
176
     1
290
     0
176
     1
 90
        1
176
     1
 40
0.0
176
     1
 90
        0
176
     1
290
     0
176
     1
290
     1
176
     1
290
     1
176
     1
290
     0
176
     1
290
     0
176
     1
290
     0
176
     1
290
     0
176
     1
290
     0
176
     1
290
     0
176
     1
 90
       50
176
     1
 40
0.0
176
     1
 40
1.0
176
     1
 90
        0
176
     1
 62
    18
420
        0
176
     1
 90
       50
176
     1
 90
        3
176
     1
 62
     5
420
      255
176
     1
290
     0
176
     1
 90
       50
176
     1
 90
       50
176
     1
 90
       50
176
     1
290
     0
176
     1
 90
       50
176
     1
 62
   256
176
     0
 40
1.0
176
     0
 90
        2
176
     1
  1
strokes_ogs.tif
176
     1
290
     0
176
     1
 40
1.0
176
     1
 40
1.0
176
     1
  0
VISUALSTYLE
  5
37
102
{ACAD_REACTORS
330
2A
102
}
330
2A
100
AcDbVisualStyle
  2
Thicken
 70
    13
177
     3
291
     1
 70
    58
 90
        2
176
     1
 90
        2
176
     1
 90
        0
176
     1
 90
        0
176
     1
 40
0.6
176
     1
 40
30.0
176
     1
 62
     7
420
 16777215
176
     1
 90
        1
176
     1
 90
        4
176
     1
 62
     7
176
     1
 62
   257
176
     1
 90
        1
176
     1
 90
        1
176
     1
 40
1.0
176
     1
 90
       12
176
     1
 62
     7
176
     1
 40
1.0
176
     1
 90
        1
176
     1
 90
        6
176
     1
 90
        2
176
     1
 62
     7
176
     1
 90
        5
176
     1
 90
        0
176
     1
 90
        0
176
     1
290
     0
176
     1
 90
        1
176
     1
 40
0.0
176
     1
 90
        0
176
     1
290
     0
176
     1
290
     1
176
     1
290
     1
176
     1
290
     0
176
     1
290
     0
176
     1
290
     0
176
     1
290
     0
176
     1
290
     0
176
     1
290
     0
176
     1
 90
       50
176
     1
 40
0.0
176
     1
 40
1.0
176
     1
 90
        0
176
     1
 62
    18
420
        0
176
     1
 90
       50
176
     1
 90
        3
176
     1
 62
     5
420
      255
176
     1
290
     0
176
     1
 90
       50
176
     1
 90
       50
176
     1
 90
       50
176
     1
290
     0
176
     1
 90
       50
176
     1
 62
   256
176
     0
 40
1.0
176
     0
 90
        2
176
     1
  1
strokes_ogs.tif
176
     1
290
     0
176
     1
 40
1.0
176
     1
 40
1.0
176
     1
  0
VISUALSTYLE
  5
30
102
{ACAD_REACTORS
330
2A
102
}
330
2A
100
AcDbVisualStyle
  2
Wireframe
 70
     5
177
     3
291
     0
 70
    58
 90
        0
176
     1
 90
        2
176
     1
 90
        0
176
     1
 90
        0
176
     1
 40
0.6
176
     1
 40
30.0
176
     1
 62
     7
420
 16777215
176
     1
 90
        1
176
     1
 90
        4
176
     1
 62
     7
176
     1
 62
   257
176
     1
 90
        1
176
     1
 90
        1
176
     1
 40
1.0
176
     1
 90
        0
176
     1
 62
   257
176
     1
 40
1.0
176
     1
 90
        1
176
     1
 90
        6
176
     1
 90
        2
176
     1
 62
     7
176
     1
 90
        3
176
     1
 90
        0
176
     1
 90
        0
176
     1
290
     0
176
     1
 90
        1
176
     1
 40
0.0
176
     1
 90
        0
176
     1
290
     0
176
     1
290
     1
176
     1
290
     1
176
     1
290
     0
176
     1
290
     0
176
     1
290
     0
176
     1
290
     0
176
     1
290
     0
176
     1
290
     0
176
     1
 90
       50
176
     1
 40
0.0
176
     1
 40
1.0
176
     1
 90
        0
176
     1
 62
    18
420
        0
176
     1
 90
       50
176
     1
 90
        3
176
     1
 62
     5
420
      255
176
     1
290
     0
176
     1
 90
       50
176
     1
 90
       50
176
     1
 90
       50
176
     1
290
     0
176
     1
 90
       50
176
     1
 62
   256
176
     0
 40
1.0
176
     0
 90
        2
176
     1
  1
strokes_ogs.tif
176
     1
290
     0
176
     1
 40
1.0
176
     1
 40
1.0
176
     1
  0
VISUALSTYLE
  5
40
102
{ACAD_REACTORS
330
2A
102
}
330
2A
100
AcDbVisualStyle
  2
X-Ray
 70
    25
177
     3
291
     0
 70
    58
 90
        2
176
     1
 90
        2
176
     1
 90
        1
176
     1
 90
        1
176
     1
 40
0.5
176
     1
 40
30.0
176
     1
 62
     7
420
 16777215
176
     1
 90
        1
176
     1
 90
        0
176
     1
 62
     7
176
     1
 62
   257
176
     1
 90
        1
176
     1
 90
        1
176
     1
 40
1.0
176
     1
 90
        8
176
     1
 62
     7
176
     1
 40
1.0
176
     1
 90
        1
176
     1
 90
        6
176
     1
 90
        2
176
     1
 62
     7
176
     1
 90
        3
176
     1
 90
        0
176
     1
 90
        0
176
     1
290
     0
176
     1
 90
       13
176
     1
 40
0.0
176
     1
 90
        0
176
     1
290
     0
176
     1
290
     1
176
     1
290
     1
176
     1
290
     0
176
     1
290
     0
176
     1
290
     0
176
     1
290
     0
176
     1
290
     0
176
     1
290
     0
176
     1
 90
       50
176
     1
 40
0.0
176
     1
 40
1.0
176
     1
 90
        0
176
     1
 62
    18
420
        0
176
     1
 90
       50
176
     1
 90
        3
176
     1
 62
     5
420
      255
176
     1
290
     0
176
     1
 90
       50
176
     1
 90
       50
176
     1
 90
       50
176
     1
290
     0
176
     1
 90
       50
176
     1
 62
   256
176
     0
 40
1.0
176
     0
 90
        2
176
     1
  1
strokes_ogs.tif
176
     1
290
     0
176
     1
 40
1.0
176
     1
 40
1.0
176
     1
  0
DICTIONARYVAR
  5
114
102
{ACAD_REACTORS
330
113
102
}
330
113
100
DictionaryVariables
280
     0
  1
1:1
  0
DICTIONARYVAR
  5
11C
102
{ACAD_REACTORS
330
113
102
}
330
113
100
DictionaryVariables
280
     0
  1
3.500000
  0
DICTIONARYVAR
  5
11D
102
{ACAD_REACTORS
330
113
102
}
330
113
100
DictionaryVariables
280
     0
  1
acadiso.lin
  0
DICTIONARYVAR
  5
119
102
{ACAD_REACTORS
330
113
102
}
330
113
100
DictionaryVariables
280
     0
  1
Standard
  0
DICTIONARYVAR
  5
118
102
{ACAD_REACTORS
330
113
102
}
330
113
100
DictionaryVariables
280
     0
  1
Standard
  0
DICTIONARY
  5
115
330
5A
100
AcDbDictionary
280
     1
281
     1
  3
ACAD_ROUNDTRIP_2008_TABLESTYLE_CELLSTYLEMAP
360
116
  0
CELLSTYLEMAP
  5
116
102
{ACAD_REACTORS
330
115
102
}
330
115
100
AcDbCellStyleMap
 90
        3
300
CELLSTYLE
  1
TABLEFORMAT_BEGIN
 90
        5
170
     1
 91
        0
 92
    32768
 62
   257
 93
        1
300
CONTENTFORMAT
  1
CONTENTFORMAT_BEGIN
 90
        0
 91
        0
 92
        4
 93
        0
300

 40
0.0
140
1.0
 94
        5
 62
     0
340
11
144
6.0
309
CONTENTFORMAT_END
171
     1
301
MARGIN
  1
CELLMARGIN_BEGIN
 40
1.5
 40
1.5
 40
1.5
 40
1.5
 40
1.5
 40
1.5
309
CELLMARGIN_END
 94
        6
 95
        1
302
GRIDFORMAT
  1
GRIDFORMAT_BEGIN
 90
        0
 91
        1
 62
     0
 92
       -2
340
14
 93
        0
 40
0.045
309
GRIDFORMAT_END
 95
        2
302
GRIDFORMAT
  1
GRIDFORMAT_BEGIN
 90
        0
 91
        1
 62
     0
 92
       -2
340
14
 93
        0
 40
0.045
309
GRIDFORMAT_END
 95
        4
302
GRIDFORMAT
  1
GRIDFORMAT_BEGIN
 90
        0
 91
        1
 62
     0
 92
       -2
340
14
 93
        0
 40
0.045
309
GRIDFORMAT_END
 95
        8
302
GRIDFORMAT
  1
GRIDFORMAT_BEGIN
 90
        0
 91
        1
 62
     0
 92
       -2
340
14
 93
        0
 40
0.045
309
GRIDFORMAT_END
 95
       16
302
GRIDFORMAT
  1
GRIDFORMAT_BEGIN
 90
        0
 91
        1
 62
     0
 92
       -2
340
14
 93
        0
 40
0.045
309
GRIDFORMAT_END
 95
       32
302
GRIDFORMAT
  1
GRIDFORMAT_BEGIN
 90
        0
 91
        1
 62
     0
 92
       -2
340
14
 93
        0
 40
0.045
309
GRIDFORMAT_END
309
TABLEFORMAT_END
  1
CELLSTYLE_BEGIN
 90
        1
 91
        1
300
_TITLE
309
CELLSTYLE_END
300
CELLSTYLE
  1
TABLEFORMAT_BEGIN
 90
        5
170
     1
 91
        0
 92
        0
 62
   257
 93
        1
300
CONTENTFORMAT
  1
CONTENTFORMAT_BEGIN
 90
        0
 91
        0
 92
        4
 93
        0
300

 40
0.0
140
1.0
 94
        5
 62
     0
340
11
144
4.5
309
CONTENTFORMAT_END
171
     1
301
MARGIN
  1
CELLMARGIN_BEGIN
 40
1.5
 40
1.5
 40
1.5
 40
1.5
 40
1.5
 40
1.5
309
CELLMARGIN_END
 94
        6
 95
        1
302
GRIDFORMAT
  1
GRIDFORMAT_BEGIN
 90
        0
 91
        1
 62
     0
 92
       -2
340
14
 93
        0
 40
0.045
309
GRIDFORMAT_END
 95
        2
302
GRIDFORMAT
  1
GRIDFORMAT_BEGIN
 90
        0
 91
        1
 62
     0
 92
       -2
340
14
 93
        0
 40
0.045
309
GRIDFORMAT_END
 95
        4
302
GRIDFORMAT
  1
GRIDFORMAT_BEGIN
 90
        0
 91
        1
 62
     0
 92
       -2
340
14
 93
        0
 40
0.045
309
GRIDFORMAT_END
 95
        8
302
GRIDFORMAT
  1
GRIDFORMAT_BEGIN
 90
        0
 91
        1
 62
     0
 92
       -2
340
14
 93
        0
 40
0.045
309
GRIDFORMAT_END
 95
       16
302
GRIDFORMAT
  1
GRIDFORMAT_BEGIN
 90
        0
 91
        1
 62
     0
 92
       -2
340
14
 93
        0
 40
0.045
309
GRIDFORMAT_END
 95
       32
302
GRIDFORMAT
  1
GRIDFORMAT_BEGIN
 90
        0
 91
        1
 62
     0
 92
       -2
340
14
 93
        0
 40
0.045
309
GRIDFORMAT_END
309
TABLEFORMAT_END
  1
CELLSTYLE_BEGIN
 90
        2
 91
        1
300
_HEADER
309
CELLSTYLE_END
300
CELLSTYLE
  1
TABLEFORMAT_BEGIN
 90
        5
170
     1
 91
        0
 92
        0
 62
   257
 93
        1
300
CONTENTFORMAT
  1
CONTENTFORMAT_BEGIN
 90
        0
 91
        0
 92
        4
 93
        0
300

 40
0.0
140
1.0
 94
        2
 62
     0
340
11
144
4.5
309
CONTENTFORMAT_END
171
     1
301
MARGIN
  1
CELLMARGIN_BEGIN
 40
1.5
 40
1.5
 40
1.5
 40
1.5
 40
1.5
 40
1.5
309
CELLMARGIN_END
 94
        6
 95
        1
302
GRIDFORMAT
  1
GRIDFORMAT_BEGIN
 90
        0
 91
        1
 62
     0
 92
       -2
340
14
 93
        0
 40
0.045
309
GRIDFORMAT_END
 95
        2
302
GRIDFORMAT
  1
GRIDFORMAT_BEGIN
 90
        0
 91
        1
 62
     0
 92
       -2
340
14
 93
        0
 40
0.045
309
GRIDFORMAT_END
 95
        4
302
GRIDFORMAT
  1
GRIDFORMAT_BEGIN
 90
        0
 91
        1
 62
     0
 92
       -2
340
14
 93
        0
 40
0.045
309
GRIDFORMAT_END
 95
        8
302
GRIDFORMAT
  1
GRIDFORMAT_BEGIN
 90
        0
 91
        1
 62
     0
 92
       -2
340
14
 93
        0
 40
0.045
309
GRIDFORMAT_END
 95
       16
302
GRIDFORMAT
  1
GRIDFORMAT_BEGIN
 90
        0
 91
        1
 62
     0
 92
       -2
340
14
 93
        0
 40
0.045
309
GRIDFORMAT_END
 95
       32
302
GRIDFORMAT
  1
GRIDFORMAT_BEGIN
 90
        0
 91
        1
 62
     0
 92
       -2
340
14
 93
        0
 40
0.045
309
GRIDFORMAT_END
309
TABLEFORMAT_END
  1
CELLSTYLE_BEGIN
 90
        3
 91
        2
300
_DATA
309
CELLSTYLE_END
  0
ENDSEC
  0
EOF
