ISO-10303-21;
HEADER;
FILE_DESCRIPTION (( 'STEP AP203' ),
    '1' );
FILE_NAME ('1 1_4  FW G10_REV_.step',
    '2026-03-04T00:40:51',
    ( '' ),
    ( '' ),
    'SwSTEP 2.0',
    'SolidWorks 2025',
    '' );
FILE_SCHEMA (( 'CONFIG_CONTROL_DESIGN' ));
ENDSEC;

DATA;
#1 = ORIENTED_EDGE ( 'NONE', *, *, #129, .T. ) ;
#2 = EDGE_CURVE ( 'NONE', #117, #233, #232, .T. ) ;
#3 = AXIS2_PLACEMENT_3D ( 'NONE', #69, #220, #86 ) ;
#4 = CARTESIAN_POINT ( 'NONE',  ( 2.020667218593133100E-15, 0.000000000000000000, -16.50000000000000000 ) ) ;
#5 = DIRECTION ( 'NONE',  ( 0.000000000000000000, 0.000000000000000000, 1.000000000000000000 ) ) ;
#6 = CARTESIAN_POINT ( 'NONE',  ( 2.020667218593133100E-15, 0.000000000000000000, -16.50000000000000000 ) ) ;
#7 = DIRECTION ( 'NONE',  ( -0.000000000000000000, 1.000000000000000000, -0.000000000000000000 ) ) ;
#8 = CYLINDRICAL_SURFACE ( 'NONE', #3, 16.50000000000000000 ) ;
#9 = DIRECTION ( 'NONE',  ( -0.000000000000000000, 1.000000000000000000, -0.000000000000000000 ) ) ;
#10 = CLOSED_SHELL ( 'NONE', ( #200, #175, #158, #47, #190, #139 ) ) ;
#11 = APPLICATION_PROTOCOL_DEFINITION ( 'international standard', 'config_control_design', 1994, #137 ) ;
#12 = DATE_AND_TIME ( #169, #87 ) ;
#13 = CC_DESIGN_APPROVAL ( #44, ( #143 ) ) ;
#14 = APPROVAL_STATUS ( 'not_yet_approved' ) ;
#15 =( GEOMETRIC_REPRESENTATION_CONTEXT ( 3 ) GLOBAL_UNCERTAINTY_ASSIGNED_CONTEXT ( ( #130 ) ) GLOBAL_UNIT_ASSIGNED_CONTEXT ( ( #206, #245, #53 ) ) REPRESENTATION_CONTEXT ( 'NONE', 'WORKASPACE' ) );
#16 = EDGE_LOOP ( 'NONE', ( #19, #1, #213, #45 ) ) ;
#17 = CALENDAR_DATE ( 2026, 4, 3 ) ;
#18 = CC_DESIGN_PERSON_AND_ORGANIZATION_ASSIGNMENT ( #59, #57, ( #229 ) ) ;
#19 = ORIENTED_EDGE ( 'NONE', *, *, #67, .T. ) ;
#20 = PERSON_AND_ORGANIZATION_ROLE ( 'classification_officer' ) ;
#21 = VERTEX_POINT ( 'NONE', #76 ) ;
#22 = ORIENTED_EDGE ( 'NONE', *, *, #80, .T. ) ;
#23 = CIRCLE ( 'NONE', #94, 28.50000000000000000 ) ;
#24 = CARTESIAN_POINT ( 'NONE',  ( 2.020667218593133100E-15, -3.000000000000000000, -16.50000000000000000 ) ) ;
#25 = CARTESIAN_POINT ( 'NONE',  ( 3.490243377569956456E-15, 0.000000000000000000, -28.50000000000000000 ) ) ;
#26 = AXIS2_PLACEMENT_3D ( 'NONE', #82, #159, #234 ) ;
#27 = CARTESIAN_POINT ( 'NONE',  ( 0.000000000000000000, -3.000000000000000000, 0.000000000000000000 ) ) ;
#28 = CC_DESIGN_PERSON_AND_ORGANIZATION_ASSIGNMENT ( #227, #20, ( #143 ) ) ;
#29 = LINE ( 'NONE', #25, #56 ) ;
#30 = CARTESIAN_POINT ( 'NONE',  ( 0.000000000000000000, 0.000000000000000000, 0.000000000000000000 ) ) ;
#31 = COORDINATED_UNIVERSAL_TIME_OFFSET ( 10, 0, .AHEAD. ) ;
#32 = APPROVAL_DATE_TIME ( #153, #34 ) ;
#33 = APPROVAL_ROLE ( '' ) ;
#34 = APPROVAL ( #192, 'UNSPECIFIED' ) ;
#35 = ADVANCED_BREP_SHAPE_REPRESENTATION ( '1 1_4  FW G10_REV_', ( #224, #164 ), #15 ) ;
#36 = AXIS2_PLACEMENT_3D ( 'NONE', #71, #72, #124 ) ;
#37 = PERSON_AND_ORGANIZATION ( #62, #92 ) ;
#38 = AXIS2_PLACEMENT_3D ( 'NONE', #30, #9, #51 ) ;
#39 = FACE_BOUND ( 'NONE', #138, .T. ) ;
#40 = PERSON_AND_ORGANIZATION ( #62, #92 ) ;
#41 = DATE_AND_TIME ( #52, #248 ) ;
#42 = ORIENTED_EDGE ( 'NONE', *, *, #129, .F. ) ;
#43 = DIRECTION ( 'NONE',  ( 0.000000000000000000, 0.000000000000000000, 1.000000000000000000 ) ) ;
#44 = APPROVAL ( #241, 'UNSPECIFIED' ) ;
#45 = ORIENTED_EDGE ( 'NONE', *, *, #243, .F. ) ;
#46 = CARTESIAN_POINT ( 'NONE',  ( 0.000000000000000000, 0.000000000000000000, 0.000000000000000000 ) ) ;
#47 = ADVANCED_FACE ( 'NONE', ( #226, #39 ), #96, .F. ) ;
#48 = DIRECTION ( 'NONE',  ( -0.000000000000000000, 1.000000000000000000, -0.000000000000000000 ) ) ;
#49 = DIRECTION ( 'NONE',  ( 0.000000000000000000, 0.000000000000000000, 1.000000000000000000 ) ) ;
#50 = DIRECTION ( 'NONE',  ( -0.000000000000000000, 1.000000000000000000, -0.000000000000000000 ) ) ;
#51 = DIRECTION ( 'NONE',  ( 0.000000000000000000, 0.000000000000000000, 1.000000000000000000 ) ) ;
#52 = CALENDAR_DATE ( 2026, 4, 3 ) ;
#53 =( NAMED_UNIT ( * ) SI_UNIT ( $, .STERADIAN. ) SOLID_ANGLE_UNIT ( ) );
#54 = AXIS2_PLACEMENT_3D ( 'NONE', #46, #238, #5 ) ;
#55 = CC_DESIGN_DATE_AND_TIME_ASSIGNMENT ( #12, #225, ( #116 ) ) ;
#56 = VECTOR ( 'NONE', #235, 1000.000000000000000 ) ;
#57 = PERSON_AND_ORGANIZATION_ROLE ( 'creator' ) ;
#58 = ORIENTED_EDGE ( 'NONE', *, *, #2, .F. ) ;
#59 = PERSON_AND_ORGANIZATION ( #62, #92 ) ;
#60 = VECTOR ( 'NONE', #144, 1000.000000000000000 ) ;
#61 = EDGE_LOOP ( 'NONE', ( #196, #64 ) ) ;
#62 = PERSON ( 'UNSPECIFIED', 'UNSPECIFIED', 'UNSPECIFIED', ('UNSPECIFIED'), ('UNSPECIFIED'), ('UNSPECIFIED') ) ;
#63 = ORIENTED_EDGE ( 'NONE', *, *, #67, .F. ) ;
#64 = ORIENTED_EDGE ( 'NONE', *, *, #219, .T. ) ;
#65 = CIRCLE ( 'NONE', #135, 16.50000000000000000 ) ;
#66 = CARTESIAN_POINT ( 'NONE',  ( 0.000000000000000000, -3.000000000000000000, 0.000000000000000000 ) ) ;
#67 = EDGE_CURVE ( 'NONE', #157, #174, #152, .T. ) ;
#68 = CYLINDRICAL_SURFACE ( 'NONE', #54, 16.50000000000000000 ) ;
#69 = CARTESIAN_POINT ( 'NONE',  ( 0.000000000000000000, 0.000000000000000000, 0.000000000000000000 ) ) ;
#70 = DESIGN_CONTEXT ( 'detailed design', #137, 'design' ) ;
#71 = CARTESIAN_POINT ( 'NONE',  ( 0.000000000000000000, 0.000000000000000000, 0.000000000000000000 ) ) ;
#72 = DIRECTION ( 'NONE',  ( -0.000000000000000000, 1.000000000000000000, -0.000000000000000000 ) ) ;
#73 = AXIS2_PLACEMENT_3D ( 'NONE', #203, #85, #236 ) ;
#74 = DATE_AND_TIME ( #110, #209 ) ;
#75 = APPROVAL_ROLE ( '' ) ;
#76 = CARTESIAN_POINT ( 'NONE',  ( 0.000000000000000000, -3.000000000000000000, 16.50000000000000000 ) ) ;
#77 = EDGE_LOOP ( 'NONE', ( #42, #121, #244, #176 ) ) ;
#78 = COORDINATED_UNIVERSAL_TIME_OFFSET ( 10, 0, .AHEAD. ) ;
#79 = ORIENTED_EDGE ( 'NONE', *, *, #151, .F. ) ;
#80 = EDGE_CURVE ( 'NONE', #198, #233, #145, .T. ) ;
#81 = ORIENTED_EDGE ( 'NONE', *, *, #2, .T. ) ;
#82 = CARTESIAN_POINT ( 'NONE',  ( 0.000000000000000000, 0.000000000000000000, 0.000000000000000000 ) ) ;
#83 = CC_DESIGN_APPROVAL ( #237, ( #116 ) ) ;
#84 = CYLINDRICAL_SURFACE ( 'NONE', #242, 28.50000000000000000 ) ;
#85 = DIRECTION ( 'NONE',  ( -0.000000000000000000, 1.000000000000000000, -0.000000000000000000 ) ) ;
#86 = DIRECTION ( 'NONE',  ( 0.000000000000000000, 0.000000000000000000, 1.000000000000000000 ) ) ;
#87 = LOCAL_TIME ( 11, 40, 51.00000000000000000, #90 ) ;
#88 = PRODUCT_RELATED_PRODUCT_CATEGORY ( 'detail', '', ( #187 ) ) ;
#89 = CARTESIAN_POINT ( 'NONE',  ( 0.000000000000000000, 0.000000000000000000, 16.50000000000000000 ) ) ;
#90 = COORDINATED_UNIVERSAL_TIME_OFFSET ( 10, 0, .AHEAD. ) ;
#91 = CARTESIAN_POINT ( 'NONE',  ( 0.000000000000000000, 0.000000000000000000, 28.50000000000000000 ) ) ;
#92 = ORGANIZATION ( 'UNSPECIFIED', 'UNSPECIFIED', '' ) ;
#93 = DATE_AND_TIME ( #221, #197 ) ;
#94 = AXIS2_PLACEMENT_3D ( 'NONE', #160, #239, #49 ) ;
#95 = PERSON_AND_ORGANIZATION ( #62, #92 ) ;
#96 = PLANE ( 'NONE',  #170 ) ;
#97 = CARTESIAN_POINT ( 'NONE',  ( 0.000000000000000000, 0.000000000000000000, 0.000000000000000000 ) ) ;
#98 = ORIENTED_EDGE ( 'NONE', *, *, #165, .T. ) ;
#99 = EDGE_LOOP ( 'NONE', ( #58, #231, #208, #22 ) ) ;
#100 = ORIENTED_EDGE ( 'NONE', *, *, #80, .F. ) ;
#101 = AXIS2_PLACEMENT_3D ( 'NONE', #185, #48, #215 ) ;
#102 = DIRECTION ( 'NONE',  ( -0.000000000000000000, 1.000000000000000000, -0.000000000000000000 ) ) ;
#103 = DIRECTION ( 'NONE',  ( 0.000000000000000000, 0.000000000000000000, 1.000000000000000000 ) ) ;
#104 = AXIS2_PLACEMENT_3D ( 'NONE', #66, #50, #103 ) ;
#105 = FACE_OUTER_BOUND ( 'NONE', #77, .T. ) ;
#106 = FACE_OUTER_BOUND ( 'NONE', #61, .T. ) ;
#107 = CC_DESIGN_PERSON_AND_ORGANIZATION_ASSIGNMENT ( #95, #115, ( #229 ) ) ;
#108 = CARTESIAN_POINT ( 'NONE',  ( 0.000000000000000000, 0.000000000000000000, 16.50000000000000000 ) ) ;
#109 = EDGE_CURVE ( 'NONE', #174, #157, #177, .T. ) ;
#110 = CALENDAR_DATE ( 2026, 4, 3 ) ;
#111 = COORDINATED_UNIVERSAL_TIME_OFFSET ( 10, 0, .AHEAD. ) ;
#112 = APPROVAL_PERSON_ORGANIZATION ( #167, #34, #75 ) ;
#113 = APPROVAL_PERSON_ORGANIZATION ( #230, #44, #128 ) ;
#114 = APPROVAL_DATE_TIME ( #93, #237 ) ;
#115 = PERSON_AND_ORGANIZATION_ROLE ( 'design_supplier' ) ;
#116 = PRODUCT_DEFINITION ( 'UNKNOWN', '', #229, #70 ) ;
#117 = VERTEX_POINT ( 'NONE', #24 ) ;
#118 = SHAPE_DEFINITION_REPRESENTATION ( #223, #35 ) ;
#119 = ORIENTED_EDGE ( 'NONE', *, *, #184, .T. ) ;
#120 = VERTEX_POINT ( 'NONE', #166 ) ;
#121 = ORIENTED_EDGE ( 'NONE', *, *, #109, .T. ) ;
#122 = CARTESIAN_POINT ( 'NONE',  ( 0.000000000000000000, 0.000000000000000000, 0.000000000000000000 ) ) ;
#123 = APPLICATION_CONTEXT ( 'configuration controlled 3d designs of mechanical parts and assemblies' ) ;
#124 = DIRECTION ( 'NONE',  ( 0.000000000000000000, 0.000000000000000000, 1.000000000000000000 ) ) ;
#125 = LOCAL_TIME ( 11, 40, 51.00000000000000000, #78 ) ;
#126 = FACE_OUTER_BOUND ( 'NONE', #136, .T. ) ;
#127 = LINE ( 'NONE', #89, #60 ) ;
#128 = APPROVAL_ROLE ( '' ) ;
#129 = EDGE_CURVE ( 'NONE', #174, #120, #29, .T. ) ;
#130 = UNCERTAINTY_MEASURE_WITH_UNIT (LENGTH_MEASURE( 1.000000000000000082E-05 ), #206, 'distance_accuracy_value', 'NONE');
#131 = CC_DESIGN_PERSON_AND_ORGANIZATION_ASSIGNMENT ( #37, #188, ( #116 ) ) ;
#132 = CIRCLE ( 'NONE', #101, 16.50000000000000000 ) ;
#133 = MECHANICAL_CONTEXT ( 'NONE', #123, 'mechanical' ) ;
#134 = EDGE_LOOP ( 'NONE', ( #63, #195 ) ) ;
#135 = AXIS2_PLACEMENT_3D ( 'NONE', #27, #142, #217 ) ;
#136 = EDGE_LOOP ( 'NONE', ( #156, #81, #173, #211 ) ) ;
#137 = APPLICATION_CONTEXT ( 'configuration controlled 3d designs of mechanical parts and assemblies' ) ;
#138 = EDGE_LOOP ( 'NONE', ( #119, #98 ) ) ;
#139 = ADVANCED_FACE ( 'NONE', ( #216, #106 ), #178, .F. ) ;
#140 = CARTESIAN_POINT ( 'NONE',  ( 0.000000000000000000, -3.000000000000000000, 0.000000000000000000 ) ) ;
#141 = DIRECTION ( 'NONE',  ( 0.000000000000000000, 0.000000000000000000, 1.000000000000000000 ) ) ;
#142 = DIRECTION ( 'NONE',  ( -0.000000000000000000, 1.000000000000000000, -0.000000000000000000 ) ) ;
#143 = SECURITY_CLASSIFICATION ( '', '', #171 ) ;
#144 = DIRECTION ( 'NONE',  ( -0.000000000000000000, 1.000000000000000000, -0.000000000000000000 ) ) ;
#145 = CIRCLE ( 'NONE', #36, 16.50000000000000000 ) ;
#146 = DIRECTION ( 'NONE',  ( 0.000000000000000000, -0.000000000000000000, -1.000000000000000000 ) ) ;
#147 = CC_DESIGN_PERSON_AND_ORGANIZATION_ASSIGNMENT ( #40, #148, ( #187 ) ) ;
#148 = PERSON_AND_ORGANIZATION_ROLE ( 'design_owner' ) ;
#149 = CIRCLE ( 'NONE', #104, 16.50000000000000000 ) ;
#150 = DIRECTION ( 'NONE',  ( 0.000000000000000000, 0.000000000000000000, 1.000000000000000000 ) ) ;
#151 = EDGE_CURVE ( 'NONE', #233, #198, #132, .T. ) ;
#152 = CIRCLE ( 'NONE', #240, 28.50000000000000000 ) ;
#153 = DATE_AND_TIME ( #17, #125 ) ;
#154 = DIRECTION ( 'NONE',  ( -0.000000000000000000, 1.000000000000000000, 0.000000000000000000 ) ) ;
#155 = COORDINATED_UNIVERSAL_TIME_OFFSET ( 10, 0, .AHEAD. ) ;
#156 = ORIENTED_EDGE ( 'NONE', *, *, #165, .F. ) ;
#157 = VERTEX_POINT ( 'NONE', #162 ) ;
#158 = ADVANCED_FACE ( 'NONE', ( #183 ), #8, .F. ) ;
#159 = DIRECTION ( 'NONE',  ( -0.000000000000000000, 1.000000000000000000, -0.000000000000000000 ) ) ;
#160 = CARTESIAN_POINT ( 'NONE',  ( 0.000000000000000000, 0.000000000000000000, 0.000000000000000000 ) ) ;
#161 = EDGE_CURVE ( 'NONE', #228, #120, #23, .T. ) ;
#162 = CARTESIAN_POINT ( 'NONE',  ( 0.000000000000000000, -3.000000000000000000, 28.50000000000000000 ) ) ;
#163 = CARTESIAN_POINT ( 'NONE',  ( 3.490243377569956456E-15, -3.000000000000000000, -28.50000000000000000 ) ) ;
#164 = AXIS2_PLACEMENT_3D ( 'NONE', #97, #150, #247 ) ;
#165 = EDGE_CURVE ( 'NONE', #117, #21, #65, .T. ) ;
#166 = CARTESIAN_POINT ( 'NONE',  ( 3.490243377569956456E-15, 0.000000000000000000, -28.50000000000000000 ) ) ;
#167 = PERSON_AND_ORGANIZATION ( #62, #92 ) ;
#168 = VECTOR ( 'NONE', #172, 1000.000000000000000 ) ;
#169 = CALENDAR_DATE ( 2026, 4, 3 ) ;
#170 = AXIS2_PLACEMENT_3D ( 'NONE', #246, #154, #43 ) ;
#171 = SECURITY_CLASSIFICATION_LEVEL ( 'unclassified' ) ;
#172 = DIRECTION ( 'NONE',  ( -0.000000000000000000, 1.000000000000000000, -0.000000000000000000 ) ) ;
#173 = ORIENTED_EDGE ( 'NONE', *, *, #151, .T. ) ;
#174 = VERTEX_POINT ( 'NONE', #163 ) ;
#175 = ADVANCED_FACE ( 'NONE', ( #126 ), #68, .F. ) ;
#176 = ORIENTED_EDGE ( 'NONE', *, *, #219, .F. ) ;
#177 = CIRCLE ( 'NONE', #73, 28.50000000000000000 ) ;
#178 = PLANE ( 'NONE',  #207 ) ;
#179 = CC_DESIGN_SECURITY_CLASSIFICATION ( #143, ( #229 ) ) ;
#180 = DIRECTION ( 'NONE',  ( 0.000000000000000000, 0.000000000000000000, 1.000000000000000000 ) ) ;
#181 = EDGE_CURVE ( 'NONE', #21, #198, #127, .T. ) ;
#182 = LINE ( 'NONE', #91, #168 ) ;
#183 = FACE_OUTER_BOUND ( 'NONE', #99, .T. ) ;
#184 = EDGE_CURVE ( 'NONE', #21, #117, #149, .T. ) ;
#185 = CARTESIAN_POINT ( 'NONE',  ( 0.000000000000000000, 0.000000000000000000, 0.000000000000000000 ) ) ;
#186 = DATE_TIME_ROLE ( 'classification_date' ) ;
#187 = PRODUCT ( '1 1_4  FW G10_REV_', '1 1_4  FW G10_REV_', '', ( #133 ) ) ;
#188 = PERSON_AND_ORGANIZATION_ROLE ( 'creator' ) ;
#189 = CC_DESIGN_APPROVAL ( #34, ( #229 ) ) ;
#190 = ADVANCED_FACE ( 'NONE', ( #105 ), #204, .T. ) ;
#191 = APPROVAL_PERSON_ORGANIZATION ( #210, #237, #33 ) ;
#192 = APPROVAL_STATUS ( 'not_yet_approved' ) ;
#193 = EDGE_LOOP ( 'NONE', ( #100, #79 ) ) ;
#194 = APPLICATION_PROTOCOL_DEFINITION ( 'international standard', 'config_control_design', 1994, #123 ) ;
#195 = ORIENTED_EDGE ( 'NONE', *, *, #109, .F. ) ;
#196 = ORIENTED_EDGE ( 'NONE', *, *, #161, .T. ) ;
#197 = LOCAL_TIME ( 11, 40, 51.00000000000000000, #111 ) ;
#198 = VERTEX_POINT ( 'NONE', #108 ) ;
#199 = FACE_OUTER_BOUND ( 'NONE', #16, .T. ) ;
#200 = ADVANCED_FACE ( 'NONE', ( #199 ), #84, .T. ) ;
#201 = CARTESIAN_POINT ( 'NONE',  ( 0.000000000000000000, 0.000000000000000000, 28.50000000000000000 ) ) ;
#202 = DIRECTION ( 'NONE',  ( 0.000000000000000000, -1.000000000000000000, 0.000000000000000000 ) ) ;
#203 = CARTESIAN_POINT ( 'NONE',  ( 0.000000000000000000, -3.000000000000000000, 0.000000000000000000 ) ) ;
#204 = CYLINDRICAL_SURFACE ( 'NONE', #38, 28.50000000000000000 ) ;
#205 = CIRCLE ( 'NONE', #26, 28.50000000000000000 ) ;
#206 =( LENGTH_UNIT ( ) NAMED_UNIT ( * ) SI_UNIT ( .MILLI., .METRE. ) );
#207 = AXIS2_PLACEMENT_3D ( 'NONE', #218, #202, #146 ) ;
#208 = ORIENTED_EDGE ( 'NONE', *, *, #181, .T. ) ;
#209 = LOCAL_TIME ( 11, 40, 51.00000000000000000, #155 ) ;
#210 = PERSON_AND_ORGANIZATION ( #62, #92 ) ;
#211 = ORIENTED_EDGE ( 'NONE', *, *, #181, .F. ) ;
#212 = DIRECTION ( 'NONE',  ( -0.000000000000000000, 1.000000000000000000, -0.000000000000000000 ) ) ;
#213 = ORIENTED_EDGE ( 'NONE', *, *, #161, .F. ) ;
#214 = VECTOR ( 'NONE', #212, 1000.000000000000000 ) ;
#215 = DIRECTION ( 'NONE',  ( 0.000000000000000000, 0.000000000000000000, 1.000000000000000000 ) ) ;
#216 = FACE_BOUND ( 'NONE', #193, .T. ) ;
#217 = DIRECTION ( 'NONE',  ( 0.000000000000000000, 0.000000000000000000, 1.000000000000000000 ) ) ;
#218 = CARTESIAN_POINT ( 'NONE',  ( 16.50000000000000000, 0.000000000000000000, 0.000000000000000000 ) ) ;
#219 = EDGE_CURVE ( 'NONE', #120, #228, #205, .T. ) ;
#220 = DIRECTION ( 'NONE',  ( -0.000000000000000000, 1.000000000000000000, -0.000000000000000000 ) ) ;
#221 = CALENDAR_DATE ( 2026, 4, 3 ) ;
#222 = CC_DESIGN_DATE_AND_TIME_ASSIGNMENT ( #74, #186, ( #143 ) ) ;
#223 = PRODUCT_DEFINITION_SHAPE ( 'NONE', 'NONE',  #116 ) ;
#224 = MANIFOLD_SOLID_BREP ( 'Revolve', #10 ) ;
#225 = DATE_TIME_ROLE ( 'creation_date' ) ;
#226 = FACE_OUTER_BOUND ( 'NONE', #134, .T. ) ;
#227 = PERSON_AND_ORGANIZATION ( #62, #92 ) ;
#228 = VERTEX_POINT ( 'NONE', #201 ) ;
#229 = PRODUCT_DEFINITION_FORMATION_WITH_SPECIFIED_SOURCE ( 'ANY', '', #187, .NOT_KNOWN. ) ;
#230 = PERSON_AND_ORGANIZATION ( #62, #92 ) ;
#231 = ORIENTED_EDGE ( 'NONE', *, *, #184, .F. ) ;
#232 = LINE ( 'NONE', #4, #214 ) ;
#233 = VERTEX_POINT ( 'NONE', #6 ) ;
#234 = DIRECTION ( 'NONE',  ( 0.000000000000000000, 0.000000000000000000, 1.000000000000000000 ) ) ;
#235 = DIRECTION ( 'NONE',  ( -0.000000000000000000, 1.000000000000000000, -0.000000000000000000 ) ) ;
#236 = DIRECTION ( 'NONE',  ( 0.000000000000000000, 0.000000000000000000, 1.000000000000000000 ) ) ;
#237 = APPROVAL ( #14, 'UNSPECIFIED' ) ;
#238 = DIRECTION ( 'NONE',  ( -0.000000000000000000, 1.000000000000000000, -0.000000000000000000 ) ) ;
#239 = DIRECTION ( 'NONE',  ( -0.000000000000000000, 1.000000000000000000, -0.000000000000000000 ) ) ;
#240 = AXIS2_PLACEMENT_3D ( 'NONE', #140, #7, #141 ) ;
#241 = APPROVAL_STATUS ( 'not_yet_approved' ) ;
#242 = AXIS2_PLACEMENT_3D ( 'NONE', #122, #102, #180 ) ;
#243 = EDGE_CURVE ( 'NONE', #157, #228, #182, .T. ) ;
#244 = ORIENTED_EDGE ( 'NONE', *, *, #243, .T. ) ;
#245 =( NAMED_UNIT ( * ) PLANE_ANGLE_UNIT ( ) SI_UNIT ( $, .RADIAN. ) );
#246 = CARTESIAN_POINT ( 'NONE',  ( 16.50000000000000000, -3.000000000000000000, 0.000000000000000000 ) ) ;
#247 = DIRECTION ( 'NONE',  ( 1.000000000000000000, 0.000000000000000000, 0.000000000000000000 ) ) ;
#248 = LOCAL_TIME ( 11, 40, 51.00000000000000000, #31 ) ;
#249 = APPROVAL_DATE_TIME ( #41, #44 ) ;
ENDSEC;
END-ISO-10303-21;
