ISO-10303-21;
HEADER;
FILE_DESCRIPTION (( 'STEP AP203' ),
    '1' );
FILE_NAME ('1 1_4  FW HT_REV_.step',
    '2026-03-04T00:44:12',
    ( '' ),
    ( '' ),
    'SwSTEP 2.0',
    'SolidWorks 2025',
    '' );
FILE_SCHEMA (( 'CONFIG_CONTROL_DESIGN' ));
ENDSEC;

DATA;
#1 = DIRECTION ( 'NONE',  ( 0.000000000000000000, 0.000000000000000000, 1.000000000000000000 ) ) ;
#2 = CARTESIAN_POINT ( 'NONE',  ( 0.000000000000000000, -3.000000000000000000, 28.50000000000000000 ) ) ;
#3 = ORIENTED_EDGE ( 'NONE', *, *, #31, .T. ) ;
#4 = PERSON_AND_ORGANIZATION ( #187, #76 ) ;
#5 = VERTEX_POINT ( 'NONE', #74 ) ;
#6 = CC_DESIGN_PERSON_AND_ORGANIZATION_ASSIGNMENT ( #4, #199, ( #29 ) ) ;
#7 = DATE_AND_TIME ( #45, #194 ) ;
#8 = DIRECTION ( 'NONE',  ( -0.000000000000000000, 1.000000000000000000, -0.000000000000000000 ) ) ;
#9 = DIRECTION ( 'NONE',  ( -0.000000000000000000, 1.000000000000000000, -0.000000000000000000 ) ) ;
#10 = APPROVAL ( #164, 'UNSPECIFIED' ) ;
#11 = AXIS2_PLACEMENT_3D ( 'NONE', #183, #28, #200 ) ;
#12 = CIRCLE ( 'NONE', #54, 28.50000000000000000 ) ;
#13 = ORIENTED_EDGE ( 'NONE', *, *, #217, .T. ) ;
#14 = ADVANCED_FACE ( 'NONE', ( #125 ), #131, .T. ) ;
#15 = VECTOR ( 'NONE', #9, 1000.000000000000000 ) ;
#16 = DIRECTION ( 'NONE',  ( -0.000000000000000000, 1.000000000000000000, -0.000000000000000000 ) ) ;
#17 = LINE ( 'NONE', #154, #248 ) ;
#18 = AXIS2_PLACEMENT_3D ( 'NONE', #233, #178, #181 ) ;
#19 = DIRECTION ( 'NONE',  ( -0.000000000000000000, 1.000000000000000000, -0.000000000000000000 ) ) ;
#20 = PERSON_AND_ORGANIZATION_ROLE ( 'creator' ) ;
#21 = LINE ( 'NONE', #224, #124 ) ;
#22 = EDGE_CURVE ( 'NONE', #128, #43, #222, .T. ) ;
#23 = EDGE_LOOP ( 'NONE', ( #202, #89 ) ) ;
#24 = PERSON_AND_ORGANIZATION ( #187, #76 ) ;
#25 = ADVANCED_FACE ( 'NONE', ( #167 ), #242, .F. ) ;
#26 = DATE_AND_TIME ( #67, #100 ) ;
#27 = DIRECTION ( 'NONE',  ( -0.000000000000000000, 1.000000000000000000, -0.000000000000000000 ) ) ;
#28 = DIRECTION ( 'NONE',  ( -0.000000000000000000, 1.000000000000000000, -0.000000000000000000 ) ) ;
#29 = SECURITY_CLASSIFICATION ( '', '', #107 ) ;
#30 =( GEOMETRIC_REPRESENTATION_CONTEXT ( 3 ) GLOBAL_UNCERTAINTY_ASSIGNED_CONTEXT ( ( #53 ) ) GLOBAL_UNIT_ASSIGNED_CONTEXT ( ( #102, #140, #104 ) ) REPRESENTATION_CONTEXT ( 'NONE', 'WORKASPACE' ) );
#31 = EDGE_CURVE ( 'NONE', #243, #146, #182, .T. ) ;
#32 = APPROVAL ( #109, 'UNSPECIFIED' ) ;
#33 = ORIENTED_EDGE ( 'NONE', *, *, #246, .T. ) ;
#34 = DIRECTION ( 'NONE',  ( -0.000000000000000000, 1.000000000000000000, -0.000000000000000000 ) ) ;
#35 = DIRECTION ( 'NONE',  ( 0.000000000000000000, 0.000000000000000000, 1.000000000000000000 ) ) ;
#36 = EDGE_CURVE ( 'NONE', #98, #225, #96, .T. ) ;
#37 = FACE_OUTER_BOUND ( 'NONE', #177, .T. ) ;
#38 = AXIS2_PLACEMENT_3D ( 'NONE', #237, #48, #110 ) ;
#39 = CARTESIAN_POINT ( 'NONE',  ( 0.000000000000000000, 0.000000000000000000, 0.000000000000000000 ) ) ;
#40 = CARTESIAN_POINT ( 'NONE',  ( 3.490243377569956456E-15, -3.000000000000000000, -28.50000000000000000 ) ) ;
#41 = DATE_TIME_ROLE ( 'creation_date' ) ;
#42 = EDGE_CURVE ( 'NONE', #146, #128, #185, .T. ) ;
#43 = VERTEX_POINT ( 'NONE', #78 ) ;
#44 = AXIS2_PLACEMENT_3D ( 'NONE', #207, #209, #121 ) ;
#45 = CALENDAR_DATE ( 2026, 4, 3 ) ;
#46 = ORIENTED_EDGE ( 'NONE', *, *, #55, .T. ) ;
#47 = DATE_AND_TIME ( #176, #62 ) ;
#48 = DIRECTION ( 'NONE',  ( -0.000000000000000000, 1.000000000000000000, -0.000000000000000000 ) ) ;
#49 = ORIENTED_EDGE ( 'NONE', *, *, #81, .T. ) ;
#50 = PERSON_AND_ORGANIZATION_ROLE ( 'design_owner' ) ;
#51 = CARTESIAN_POINT ( 'NONE',  ( 3.490243377569956456E-15, 0.000000000000000000, -28.50000000000000000 ) ) ;
#52 = CC_DESIGN_PERSON_AND_ORGANIZATION_ASSIGNMENT ( #234, #20, ( #56 ) ) ;
#53 = UNCERTAINTY_MEASURE_WITH_UNIT (LENGTH_MEASURE( 1.000000000000000082E-05 ), #102, 'distance_accuracy_value', 'NONE');
#54 = AXIS2_PLACEMENT_3D ( 'NONE', #189, #16, #229 ) ;
#55 = EDGE_CURVE ( 'NONE', #5, #114, #21, .T. ) ;
#56 = PRODUCT_DEFINITION_FORMATION_WITH_SPECIFIED_SOURCE ( 'ANY', '', #136, .NOT_KNOWN. ) ;
#57 = ORIENTED_EDGE ( 'NONE', *, *, #120, .F. ) ;
#58 = FACE_OUTER_BOUND ( 'NONE', #186, .T. ) ;
#59 = ORIENTED_EDGE ( 'NONE', *, *, #22, .T. ) ;
#60 = DIRECTION ( 'NONE',  ( -0.000000000000000000, 1.000000000000000000, -0.000000000000000000 ) ) ;
#61 = DIRECTION ( 'NONE',  ( -0.000000000000000000, 1.000000000000000000, -0.000000000000000000 ) ) ;
#62 = LOCAL_TIME ( 11, 44, 12.00000000000000000, #88 ) ;
#63 = CARTESIAN_POINT ( 'NONE',  ( 16.50000000000000000, 0.000000000000000000, 0.000000000000000000 ) ) ;
#64 = DIRECTION ( 'NONE',  ( -0.000000000000000000, 1.000000000000000000, -0.000000000000000000 ) ) ;
#65 = CALENDAR_DATE ( 2026, 4, 3 ) ;
#66 = APPROVAL_PERSON_ORGANIZATION ( #201, #10, #218 ) ;
#67 = CALENDAR_DATE ( 2026, 4, 3 ) ;
#68 = EDGE_LOOP ( 'NONE', ( #148, #59 ) ) ;
#69 = CLOSED_SHELL ( 'NONE', ( #14, #151, #25, #169, #101, #90 ) ) ;
#70 = AXIS2_PLACEMENT_3D ( 'NONE', #63, #117, #226 ) ;
#71 = APPLICATION_PROTOCOL_DEFINITION ( 'international standard', 'config_control_design', 1994, #244 ) ;
#72 = EDGE_LOOP ( 'NONE', ( #77, #108, #82, #49 ) ) ;
#73 = COORDINATED_UNIVERSAL_TIME_OFFSET ( 10, 0, .AHEAD. ) ;
#74 = CARTESIAN_POINT ( 'NONE',  ( 2.020667218593133100E-15, -3.000000000000000000, -16.50000000000000000 ) ) ;
#75 = CC_DESIGN_APPROVAL ( #10, ( #210 ) ) ;
#76 = ORGANIZATION ( 'UNSPECIFIED', 'UNSPECIFIED', '' ) ;
#77 = ORIENTED_EDGE ( 'NONE', *, *, #55, .F. ) ;
#78 = CARTESIAN_POINT ( 'NONE',  ( 0.000000000000000000, 0.000000000000000000, 28.50000000000000000 ) ) ;
#79 = ORIENTED_EDGE ( 'NONE', *, *, #42, .F. ) ;
#80 = AXIS2_PLACEMENT_3D ( 'NONE', #221, #8, #165 ) ;
#81 = EDGE_CURVE ( 'NONE', #225, #114, #156, .T. ) ;
#82 = ORIENTED_EDGE ( 'NONE', *, *, #36, .T. ) ;
#83 = DIRECTION ( 'NONE',  ( -0.000000000000000000, 1.000000000000000000, -0.000000000000000000 ) ) ;
#84 = CARTESIAN_POINT ( 'NONE',  ( 0.000000000000000000, -3.000000000000000000, 0.000000000000000000 ) ) ;
#85 = FACE_BOUND ( 'NONE', #208, .T. ) ;
#86 = CARTESIAN_POINT ( 'NONE',  ( 0.000000000000000000, -3.000000000000000000, 16.50000000000000000 ) ) ;
#87 = CC_DESIGN_DATE_AND_TIME_ASSIGNMENT ( #26, #152, ( #29 ) ) ;
#88 = COORDINATED_UNIVERSAL_TIME_OFFSET ( 10, 0, .AHEAD. ) ;
#89 = ORIENTED_EDGE ( 'NONE', *, *, #175, .F. ) ;
#90 = ADVANCED_FACE ( 'NONE', ( #155, #247 ), #143, .F. ) ;
#91 = PERSON_AND_ORGANIZATION ( #187, #76 ) ;
#92 = ORIENTED_EDGE ( 'NONE', *, *, #42, .T. ) ;
#93 = AXIS2_PLACEMENT_3D ( 'NONE', #157, #232, #1 ) ;
#94 = PERSON_AND_ORGANIZATION ( #187, #76 ) ;
#95 = DIRECTION ( 'NONE',  ( 0.000000000000000000, 0.000000000000000000, 1.000000000000000000 ) ) ;
#96 = LINE ( 'NONE', #239, #142 ) ;
#97 = APPROVAL_PERSON_ORGANIZATION ( #24, #32, #113 ) ;
#98 = VERTEX_POINT ( 'NONE', #86 ) ;
#99 = CARTESIAN_POINT ( 'NONE',  ( 0.000000000000000000, 0.000000000000000000, 16.50000000000000000 ) ) ;
#100 = LOCAL_TIME ( 11, 44, 12.00000000000000000, #238 ) ;
#101 = ADVANCED_FACE ( 'NONE', ( #58 ), #230, .T. ) ;
#102 =( LENGTH_UNIT ( ) NAMED_UNIT ( * ) SI_UNIT ( .MILLI., .METRE. ) );
#103 = CIRCLE ( 'NONE', #153, 16.50000000000000000 ) ;
#104 =( NAMED_UNIT ( * ) SI_UNIT ( $, .STERADIAN. ) SOLID_ANGLE_UNIT ( ) );
#105 = CARTESIAN_POINT ( 'NONE',  ( 0.000000000000000000, -3.000000000000000000, 0.000000000000000000 ) ) ;
#106 = CC_DESIGN_PERSON_AND_ORGANIZATION_ASSIGNMENT ( #94, #50, ( #136 ) ) ;
#107 = SECURITY_CLASSIFICATION_LEVEL ( 'unclassified' ) ;
#108 = ORIENTED_EDGE ( 'NONE', *, *, #217, .F. ) ;
#109 = APPROVAL_STATUS ( 'not_yet_approved' ) ;
#110 = DIRECTION ( 'NONE',  ( 0.000000000000000000, 0.000000000000000000, 1.000000000000000000 ) ) ;
#111 = SHAPE_DEFINITION_REPRESENTATION ( #212, #245 ) ;
#112 = EDGE_LOOP ( 'NONE', ( #3, #92, #57, #205 ) ) ;
#113 = APPROVAL_ROLE ( '' ) ;
#114 = VERTEX_POINT ( 'NONE', #211 ) ;
#115 = AXIS2_PLACEMENT_3D ( 'NONE', #190, #61, #192 ) ;
#116 = DIRECTION ( 'NONE',  ( 0.000000000000000000, 0.000000000000000000, 1.000000000000000000 ) ) ;
#117 = DIRECTION ( 'NONE',  ( 0.000000000000000000, -1.000000000000000000, 0.000000000000000000 ) ) ;
#118 = CARTESIAN_POINT ( 'NONE',  ( 0.000000000000000000, -3.000000000000000000, 0.000000000000000000 ) ) ;
#119 = AXIS2_PLACEMENT_3D ( 'NONE', #84, #139, #35 ) ;
#120 = EDGE_CURVE ( 'NONE', #43, #128, #12, .T. ) ;
#121 = DIRECTION ( 'NONE',  ( 0.000000000000000000, 0.000000000000000000, 1.000000000000000000 ) ) ;
#122 = DIRECTION ( 'NONE',  ( 0.000000000000000000, 0.000000000000000000, 1.000000000000000000 ) ) ;
#123 = PERSON_AND_ORGANIZATION ( #187, #76 ) ;
#124 = VECTOR ( 'NONE', #64, 1000.000000000000000 ) ;
#125 = FACE_OUTER_BOUND ( 'NONE', #112, .T. ) ;
#126 = CC_DESIGN_DATE_AND_TIME_ASSIGNMENT ( #159, #41, ( #210 ) ) ;
#127 = PERSON_AND_ORGANIZATION ( #187, #76 ) ;
#128 = VERTEX_POINT ( 'NONE', #138 ) ;
#129 = CC_DESIGN_SECURITY_CLASSIFICATION ( #29, ( #56 ) ) ;
#130 = PERSON_AND_ORGANIZATION_ROLE ( 'creator' ) ;
#131 = CYLINDRICAL_SURFACE ( 'NONE', #134, 28.50000000000000000 ) ;
#132 = CC_DESIGN_PERSON_AND_ORGANIZATION_ASSIGNMENT ( #91, #149, ( #56 ) ) ;
#133 = DATE_AND_TIME ( #65, #206 ) ;
#134 = AXIS2_PLACEMENT_3D ( 'NONE', #220, #163, #95 ) ;
#135 = CIRCLE ( 'NONE', #216, 16.50000000000000000 ) ;
#136 = PRODUCT ( '1 1_4  FW HT_REV_', '1 1_4  FW HT_REV_', '', ( #147 ) ) ;
#137 = EDGE_CURVE ( 'NONE', #5, #98, #135, .T. ) ;
#138 = CARTESIAN_POINT ( 'NONE',  ( 3.490243377569956456E-15, 0.000000000000000000, -28.50000000000000000 ) ) ;
#139 = DIRECTION ( 'NONE',  ( -0.000000000000000000, 1.000000000000000000, -0.000000000000000000 ) ) ;
#140 =( NAMED_UNIT ( * ) PLANE_ANGLE_UNIT ( ) SI_UNIT ( $, .RADIAN. ) );
#141 = LOCAL_TIME ( 11, 44, 12.00000000000000000, #73 ) ;
#142 = VECTOR ( 'NONE', #27, 1000.000000000000000 ) ;
#143 = PLANE ( 'NONE',  #70 ) ;
#144 = CYLINDRICAL_SURFACE ( 'NONE', #191, 16.50000000000000000 ) ;
#145 = APPROVAL_DATE_TIME ( #133, #32 ) ;
#146 = VERTEX_POINT ( 'NONE', #40 ) ;
#147 = MECHANICAL_CONTEXT ( 'NONE', #244, 'mechanical' ) ;
#148 = ORIENTED_EDGE ( 'NONE', *, *, #120, .T. ) ;
#149 = PERSON_AND_ORGANIZATION_ROLE ( 'design_supplier' ) ;
#150 = ORIENTED_EDGE ( 'NONE', *, *, #231, .T. ) ;
#151 = ADVANCED_FACE ( 'NONE', ( #37 ), #144, .F. ) ;
#152 = DATE_TIME_ROLE ( 'classification_date' ) ;
#153 = AXIS2_PLACEMENT_3D ( 'NONE', #118, #19, #173 ) ;
#154 = CARTESIAN_POINT ( 'NONE',  ( 0.000000000000000000, 0.000000000000000000, 28.50000000000000000 ) ) ;
#155 = FACE_BOUND ( 'NONE', #23, .T. ) ;
#156 = CIRCLE ( 'NONE', #162, 16.50000000000000000 ) ;
#157 = CARTESIAN_POINT ( 'NONE',  ( 0.000000000000000000, 0.000000000000000000, 0.000000000000000000 ) ) ;
#158 = MANIFOLD_SOLID_BREP ( 'Revolve', #69 ) ;
#159 = DATE_AND_TIME ( #196, #141 ) ;
#160 = ORIENTED_EDGE ( 'NONE', *, *, #137, .F. ) ;
#161 = APPROVAL_STATUS ( 'not_yet_approved' ) ;
#162 = AXIS2_PLACEMENT_3D ( 'NONE', #171, #34, #116 ) ;
#163 = DIRECTION ( 'NONE',  ( -0.000000000000000000, 1.000000000000000000, -0.000000000000000000 ) ) ;
#164 = APPROVAL_STATUS ( 'not_yet_approved' ) ;
#165 = DIRECTION ( 'NONE',  ( 0.000000000000000000, 0.000000000000000000, 1.000000000000000000 ) ) ;
#166 = APPLICATION_PROTOCOL_DEFINITION ( 'international standard', 'config_control_design', 1994, #174 ) ;
#167 = FACE_OUTER_BOUND ( 'NONE', #72, .T. ) ;
#168 = ORIENTED_EDGE ( 'NONE', *, *, #246, .F. ) ;
#169 = ADVANCED_FACE ( 'NONE', ( #249, #85 ), #172, .F. ) ;
#170 = APPROVAL ( #161, 'UNSPECIFIED' ) ;
#171 = CARTESIAN_POINT ( 'NONE',  ( 0.000000000000000000, 0.000000000000000000, 0.000000000000000000 ) ) ;
#172 = PLANE ( 'NONE',  #44 ) ;
#173 = DIRECTION ( 'NONE',  ( 0.000000000000000000, 0.000000000000000000, 1.000000000000000000 ) ) ;
#174 = APPLICATION_CONTEXT ( 'configuration controlled 3d designs of mechanical parts and assemblies' ) ;
#175 = EDGE_CURVE ( 'NONE', #114, #225, #223, .T. ) ;
#176 = CALENDAR_DATE ( 2026, 4, 3 ) ;
#177 = EDGE_LOOP ( 'NONE', ( #160, #46, #219, #235 ) ) ;
#178 = DIRECTION ( 'NONE',  ( 0.000000000000000000, 0.000000000000000000, 1.000000000000000000 ) ) ;
#179 = ORIENTED_EDGE ( 'NONE', *, *, #22, .F. ) ;
#180 = CC_DESIGN_APPROVAL ( #32, ( #29 ) ) ;
#181 = DIRECTION ( 'NONE',  ( 1.000000000000000000, 0.000000000000000000, 0.000000000000000000 ) ) ;
#182 = CIRCLE ( 'NONE', #80, 28.50000000000000000 ) ;
#183 = CARTESIAN_POINT ( 'NONE',  ( 0.000000000000000000, 0.000000000000000000, 0.000000000000000000 ) ) ;
#184 = COORDINATED_UNIVERSAL_TIME_OFFSET ( 10, 0, .AHEAD. ) ;
#185 = LINE ( 'NONE', #51, #15 ) ;
#186 = EDGE_LOOP ( 'NONE', ( #79, #33, #150, #179 ) ) ;
#187 = PERSON ( 'UNSPECIFIED', 'UNSPECIFIED', 'UNSPECIFIED', ('UNSPECIFIED'), ('UNSPECIFIED'), ('UNSPECIFIED') ) ;
#188 = APPROVAL_PERSON_ORGANIZATION ( #123, #170, #195 ) ;
#189 = CARTESIAN_POINT ( 'NONE',  ( 0.000000000000000000, 0.000000000000000000, 0.000000000000000000 ) ) ;
#190 = CARTESIAN_POINT ( 'NONE',  ( 0.000000000000000000, 0.000000000000000000, 0.000000000000000000 ) ) ;
#191 = AXIS2_PLACEMENT_3D ( 'NONE', #39, #228, #122 ) ;
#192 = DIRECTION ( 'NONE',  ( 0.000000000000000000, 0.000000000000000000, 1.000000000000000000 ) ) ;
#193 = DIRECTION ( 'NONE',  ( 0.000000000000000000, 0.000000000000000000, 1.000000000000000000 ) ) ;
#194 = LOCAL_TIME ( 11, 44, 12.00000000000000000, #214 ) ;
#195 = APPROVAL_ROLE ( '' ) ;
#196 = CALENDAR_DATE ( 2026, 4, 3 ) ;
#197 = ORIENTED_EDGE ( 'NONE', *, *, #137, .T. ) ;
#198 = CC_DESIGN_APPROVAL ( #170, ( #56 ) ) ;
#199 = PERSON_AND_ORGANIZATION_ROLE ( 'classification_officer' ) ;
#200 = DIRECTION ( 'NONE',  ( 0.000000000000000000, 0.000000000000000000, 1.000000000000000000 ) ) ;
#201 = PERSON_AND_ORGANIZATION ( #187, #76 ) ;
#202 = ORIENTED_EDGE ( 'NONE', *, *, #81, .F. ) ;
#203 = CIRCLE ( 'NONE', #119, 28.50000000000000000 ) ;
#204 = DESIGN_CONTEXT ( 'detailed design', #174, 'design' ) ;
#205 = ORIENTED_EDGE ( 'NONE', *, *, #231, .F. ) ;
#206 = LOCAL_TIME ( 11, 44, 12.00000000000000000, #184 ) ;
#207 = CARTESIAN_POINT ( 'NONE',  ( 16.50000000000000000, -3.000000000000000000, 0.000000000000000000 ) ) ;
#208 = EDGE_LOOP ( 'NONE', ( #13, #197 ) ) ;
#209 = DIRECTION ( 'NONE',  ( -0.000000000000000000, 1.000000000000000000, 0.000000000000000000 ) ) ;
#210 = PRODUCT_DEFINITION ( 'UNKNOWN', '', #56, #204 ) ;
#211 = CARTESIAN_POINT ( 'NONE',  ( 2.020667218593133100E-15, 0.000000000000000000, -16.50000000000000000 ) ) ;
#212 = PRODUCT_DEFINITION_SHAPE ( 'NONE', 'NONE',  #210 ) ;
#213 = CC_DESIGN_PERSON_AND_ORGANIZATION_ASSIGNMENT ( #127, #130, ( #210 ) ) ;
#214 = COORDINATED_UNIVERSAL_TIME_OFFSET ( 10, 0, .AHEAD. ) ;
#215 = EDGE_LOOP ( 'NONE', ( #227, #168 ) ) ;
#216 = AXIS2_PLACEMENT_3D ( 'NONE', #105, #83, #193 ) ;
#217 = EDGE_CURVE ( 'NONE', #98, #5, #103, .T. ) ;
#218 = APPROVAL_ROLE ( '' ) ;
#219 = ORIENTED_EDGE ( 'NONE', *, *, #175, .T. ) ;
#220 = CARTESIAN_POINT ( 'NONE',  ( 0.000000000000000000, 0.000000000000000000, 0.000000000000000000 ) ) ;
#221 = CARTESIAN_POINT ( 'NONE',  ( 0.000000000000000000, -3.000000000000000000, 0.000000000000000000 ) ) ;
#222 = CIRCLE ( 'NONE', #38, 28.50000000000000000 ) ;
#223 = CIRCLE ( 'NONE', #115, 16.50000000000000000 ) ;
#224 = CARTESIAN_POINT ( 'NONE',  ( 2.020667218593133100E-15, 0.000000000000000000, -16.50000000000000000 ) ) ;
#225 = VERTEX_POINT ( 'NONE', #99 ) ;
#226 = DIRECTION ( 'NONE',  ( 0.000000000000000000, -0.000000000000000000, -1.000000000000000000 ) ) ;
#227 = ORIENTED_EDGE ( 'NONE', *, *, #31, .F. ) ;
#228 = DIRECTION ( 'NONE',  ( -0.000000000000000000, 1.000000000000000000, -0.000000000000000000 ) ) ;
#229 = DIRECTION ( 'NONE',  ( 0.000000000000000000, 0.000000000000000000, 1.000000000000000000 ) ) ;
#230 = CYLINDRICAL_SURFACE ( 'NONE', #93, 28.50000000000000000 ) ;
#231 = EDGE_CURVE ( 'NONE', #243, #43, #17, .T. ) ;
#232 = DIRECTION ( 'NONE',  ( -0.000000000000000000, 1.000000000000000000, -0.000000000000000000 ) ) ;
#233 = CARTESIAN_POINT ( 'NONE',  ( 0.000000000000000000, 0.000000000000000000, 0.000000000000000000 ) ) ;
#234 = PERSON_AND_ORGANIZATION ( #187, #76 ) ;
#235 = ORIENTED_EDGE ( 'NONE', *, *, #36, .F. ) ;
#236 = APPROVAL_DATE_TIME ( #7, #170 ) ;
#237 = CARTESIAN_POINT ( 'NONE',  ( 0.000000000000000000, 0.000000000000000000, 0.000000000000000000 ) ) ;
#238 = COORDINATED_UNIVERSAL_TIME_OFFSET ( 10, 0, .AHEAD. ) ;
#239 = CARTESIAN_POINT ( 'NONE',  ( 0.000000000000000000, 0.000000000000000000, 16.50000000000000000 ) ) ;
#240 = APPROVAL_DATE_TIME ( #47, #10 ) ;
#241 = PRODUCT_RELATED_PRODUCT_CATEGORY ( 'detail', '', ( #136 ) ) ;
#242 = CYLINDRICAL_SURFACE ( 'NONE', #11, 16.50000000000000000 ) ;
#243 = VERTEX_POINT ( 'NONE', #2 ) ;
#244 = APPLICATION_CONTEXT ( 'configuration controlled 3d designs of mechanical parts and assemblies' ) ;
#245 = ADVANCED_BREP_SHAPE_REPRESENTATION ( '1 1_4  FW HT_REV_', ( #158, #18 ), #30 ) ;
#246 = EDGE_CURVE ( 'NONE', #146, #243, #203, .T. ) ;
#247 = FACE_OUTER_BOUND ( 'NONE', #68, .T. ) ;
#248 = VECTOR ( 'NONE', #60, 1000.000000000000000 ) ;
#249 = FACE_OUTER_BOUND ( 'NONE', #215, .T. ) ;
ENDSEC;
END-ISO-10303-21;
