ISO-10303-21;
HEADER;
FILE_DESCRIPTION (( 'STEP AP203' ),
    '1' );
FILE_NAME ('1-2_UNC-AT-125_REV_.step',
    '2026-01-09T02:53:40',
    ( '' ),
    ( '' ),
    'SwSTEP 2.0',
    'SolidWorks 2025',
    '' );
FILE_SCHEMA (( 'CONFIG_CONTROL_DESIGN' ));
ENDSEC;

DATA;
#1 = EDGE_LOOP ( 'NONE', ( #194, #51 ) ) ;
#2 = EDGE_LOOP ( 'NONE', ( #221, #158, #256, #92 ) ) ;
#3 = ORIENTED_EDGE ( 'NONE', *, *, #190, .F. ) ;
#4 = AXIS2_PLACEMENT_3D ( 'NONE', #54, #144, #171 ) ;
#5 = PLANE ( 'NONE',  #261 ) ;
#6 = EDGE_CURVE ( 'NONE', #218, #46, #57, .T. ) ;
#7 = EDGE_LOOP ( 'NONE', ( #30, #235 ) ) ;
#8 = CARTESIAN_POINT ( 'NONE',  ( -5.449999999999996625, 0.000000000000000000, 125.0000000000000000 ) ) ;
#9 = CARTESIAN_POINT ( 'NONE',  ( 5.449999999999996625, 7.286648454926749993E-16, 125.0000000000000000 ) ) ;
#10 = AXIS2_PLACEMENT_3D ( 'NONE', #123, #223, #160 ) ;
#11 = PERSON ( 'UNSPECIFIED', 'UNSPECIFIED', 'UNSPECIFIED', ('UNSPECIFIED'), ('UNSPECIFIED'), ('UNSPECIFIED') ) ;
#12 = FACE_OUTER_BOUND ( 'NONE', #2, .T. ) ;
#13 = PERSON_AND_ORGANIZATION ( #11, #116 ) ;
#14 = CC_DESIGN_APPROVAL ( #64, ( #222 ) ) ;
#15 = CARTESIAN_POINT ( 'NONE',  ( 0.000000000000000000, 0.000000000000000000, 1.000000000000000888 ) ) ;
#16 = DESIGN_CONTEXT ( 'detailed design', #33, 'design' ) ;
#17 = DATE_AND_TIME ( #211, #275 ) ;
#18 = CARTESIAN_POINT ( 'NONE',  ( 0.000000000000000000, 0.000000000000000000, 125.0000000000000000 ) ) ;
#19 = COORDINATED_UNIVERSAL_TIME_OFFSET ( 10, 0, .AHEAD. ) ;
#20 = CIRCLE ( 'NONE', #52, 6.450000000000001066 ) ;
#21 = DIRECTION ( 'NONE',  ( -0.000000000000000000, -0.000000000000000000, -1.000000000000000000 ) ) ;
#22 = LOCAL_TIME ( 13, 53, 40.00000000000000000, #107 ) ;
#23 = EDGE_CURVE ( 'NONE', #46, #218, #188, .T. ) ;
#24 = CIRCLE ( 'NONE', #253, 6.450000000000001066 ) ;
#25 = CARTESIAN_POINT ( 'NONE',  ( 6.450000000000001066, 7.898971854500429678E-16, 125.0000000000000000 ) ) ;
#26 = ORIENTED_EDGE ( 'NONE', *, *, #200, .F. ) ;
#27 = VERTEX_POINT ( 'NONE', #29 ) ;
#28 = CONICAL_SURFACE ( 'NONE', #208, 6.450000000000001066, 0.7853981633974500554 ) ;
#29 = CARTESIAN_POINT ( 'NONE',  ( 6.450000000000001066, 7.898971854500429678E-16, 123.9999999999999858 ) ) ;
#30 = ORIENTED_EDGE ( 'NONE', *, *, #200, .T. ) ;
#31 = LINE ( 'NONE', #266, #193 ) ;
#32 = APPROVAL ( #244, 'UNSPECIFIED' ) ;
#33 = APPLICATION_CONTEXT ( 'configuration controlled 3d designs of mechanical parts and assemblies' ) ;
#34 = CARTESIAN_POINT ( 'NONE',  ( -6.450000000000001066, 0.000000000000000000, 123.9999999999999858 ) ) ;
#35 =( NAMED_UNIT ( * ) PLANE_ANGLE_UNIT ( ) SI_UNIT ( $, .RADIAN. ) );
#36 = FACE_OUTER_BOUND ( 'NONE', #157, .T. ) ;
#37 =( NAMED_UNIT ( * ) SI_UNIT ( $, .STERADIAN. ) SOLID_ANGLE_UNIT ( ) );
#38 = DIRECTION ( 'NONE',  ( -0.000000000000000000, -0.000000000000000000, 1.000000000000000000 ) ) ;
#39 = FACE_OUTER_BOUND ( 'NONE', #49, .T. ) ;
#40 = PERSON_AND_ORGANIZATION ( #11, #116 ) ;
#41 = CIRCLE ( 'NONE', #88, 6.450000000000001066 ) ;
#42 = PERSON_AND_ORGANIZATION ( #11, #116 ) ;
#43 =( GEOMETRIC_REPRESENTATION_CONTEXT ( 3 ) GLOBAL_UNCERTAINTY_ASSIGNED_CONTEXT ( ( #65 ) ) GLOBAL_UNIT_ASSIGNED_CONTEXT ( ( #50, #35, #37 ) ) REPRESENTATION_CONTEXT ( 'NONE', 'WORKASPACE' ) );
#44 = ADVANCED_FACE ( 'NONE', ( #199 ), #5, .T. ) ;
#45 = ORIENTED_EDGE ( 'NONE', *, *, #215, .T. ) ;
#46 = VERTEX_POINT ( 'NONE', #48 ) ;
#47 = AXIS2_PLACEMENT_3D ( 'NONE', #205, #210, #225 ) ;
#48 = CARTESIAN_POINT ( 'NONE',  ( 5.449999999999996625, 0.000000000000000000, 0.000000000000000000 ) ) ;
#49 = EDGE_LOOP ( 'NONE', ( #259, #26, #111, #239 ) ) ;
#50 =( LENGTH_UNIT ( ) NAMED_UNIT ( * ) SI_UNIT ( .MILLI., .METRE. ) );
#51 = ORIENTED_EDGE ( 'NONE', *, *, #6, .T. ) ;
#52 = AXIS2_PLACEMENT_3D ( 'NONE', #247, #75, #181 ) ;
#53 = CARTESIAN_POINT ( 'NONE',  ( -6.450000000000001066, 0.000000000000000000, 125.0000000000000000 ) ) ;
#54 = CARTESIAN_POINT ( 'NONE',  ( 0.000000000000000000, 0.000000000000000000, 125.0000000000000000 ) ) ;
#55 = DIRECTION ( 'NONE',  ( 1.000000000000000000, 0.000000000000000000, 0.000000000000000000 ) ) ;
#56 = APPROVAL_DATE_TIME ( #250, #32 ) ;
#57 = CIRCLE ( 'NONE', #114, 5.449999999999996625 ) ;
#58 = CARTESIAN_POINT ( 'NONE',  ( 6.450000000000001066, 7.898971854500429678E-16, 1.000000000000000888 ) ) ;
#59 = CALENDAR_DATE ( 2026, 9, 1 ) ;
#60 = FACE_OUTER_BOUND ( 'NONE', #216, .T. ) ;
#61 = MECHANICAL_CONTEXT ( 'NONE', #115, 'mechanical' ) ;
#62 = PERSON_AND_ORGANIZATION ( #11, #116 ) ;
#63 = CONICAL_SURFACE ( 'NONE', #47, 6.450000000000001066, 0.7853981633974500554 ) ;
#64 = APPROVAL ( #100, 'UNSPECIFIED' ) ;
#65 = UNCERTAINTY_MEASURE_WITH_UNIT (LENGTH_MEASURE( 1.000000000000000082E-05 ), #50, 'distance_accuracy_value', 'NONE');
#66 = CC_DESIGN_PERSON_AND_ORGANIZATION_ASSIGNMENT ( #126, #129, ( #132 ) ) ;
#67 = CONICAL_SURFACE ( 'NONE', #10, 5.449999999999996625, 0.7853981633974431720 ) ;
#68 = AXIS2_PLACEMENT_3D ( 'NONE', #153, #204, #152 ) ;
#69 = CARTESIAN_POINT ( 'NONE',  ( 0.000000000000000000, 0.000000000000000000, 0.000000000000000000 ) ) ;
#70 = CARTESIAN_POINT ( 'NONE',  ( 0.000000000000000000, 0.000000000000000000, 0.000000000000000000 ) ) ;
#71 = DIRECTION ( 'NONE',  ( -0.000000000000000000, -0.000000000000000000, -1.000000000000000000 ) ) ;
#72 = EDGE_LOOP ( 'NONE', ( #110, #195, #219, #3 ) ) ;
#73 = ORIENTED_EDGE ( 'NONE', *, *, #128, .T. ) ;
#74 = CC_DESIGN_PERSON_AND_ORGANIZATION_ASSIGNMENT ( #40, #226, ( #273 ) ) ;
#75 = DIRECTION ( 'NONE',  ( 0.000000000000000000, 0.000000000000000000, -1.000000000000000000 ) ) ;
#76 = AXIS2_PLACEMENT_3D ( 'NONE', #18, #163, #77 ) ;
#77 = DIRECTION ( 'NONE',  ( 1.000000000000000000, 0.000000000000000000, 0.000000000000000000 ) ) ;
#78 = CARTESIAN_POINT ( 'NONE',  ( 0.000000000000000000, 0.000000000000000000, 123.9999999999999858 ) ) ;
#79 = PERSON_AND_ORGANIZATION ( #11, #116 ) ;
#80 = DIRECTION ( 'NONE',  ( -0.000000000000000000, -0.000000000000000000, 1.000000000000000000 ) ) ;
#81 = APPROVAL_ROLE ( '' ) ;
#82 = AXIS2_PLACEMENT_3D ( 'NONE', #229, #243, #125 ) ;
#83 = DIRECTION ( 'NONE',  ( 1.000000000000000000, 0.000000000000000000, 0.000000000000000000 ) ) ;
#84 = APPROVAL_DATE_TIME ( #232, #64 ) ;
#85 = PERSON_AND_ORGANIZATION_ROLE ( 'creator' ) ;
#86 = CC_DESIGN_DATE_AND_TIME_ASSIGNMENT ( #189, #164, ( #222 ) ) ;
#87 = APPLICATION_PROTOCOL_DEFINITION ( 'international standard', 'config_control_design', 1994, #115 ) ;
#88 = AXIS2_PLACEMENT_3D ( 'NONE', #15, #38, #55 ) ;
#89 = SHAPE_DEFINITION_REPRESENTATION ( #251, #121 ) ;
#90 = EDGE_LOOP ( 'NONE', ( #234, #73, #134, #154 ) ) ;
#91 = DIRECTION ( 'NONE',  ( -0.000000000000000000, -0.000000000000000000, -1.000000000000000000 ) ) ;
#92 = ORIENTED_EDGE ( 'NONE', *, *, #122, .T. ) ;
#93 = CYLINDRICAL_SURFACE ( 'NONE', #233, 6.450000000000001066 ) ;
#94 = ADVANCED_FACE ( 'NONE', ( #138 ), #93, .T. ) ;
#95 = DIRECTION ( 'NONE',  ( 1.000000000000000000, 0.000000000000000000, 0.000000000000000000 ) ) ;
#96 = LOCAL_TIME ( 13, 53, 40.00000000000000000, #19 ) ;
#97 = DIRECTION ( 'NONE',  ( -0.000000000000000000, -0.000000000000000000, -1.000000000000000000 ) ) ;
#98 = AXIS2_PLACEMENT_3D ( 'NONE', #78, #183, #203 ) ;
#99 = CARTESIAN_POINT ( 'NONE',  ( 0.000000000000000000, 0.000000000000000000, 125.0000000000000000 ) ) ;
#100 = APPROVAL_STATUS ( 'not_yet_approved' ) ;
#101 = CARTESIAN_POINT ( 'NONE',  ( 0.000000000000000000, 0.000000000000000000, 1.000000000000000888 ) ) ;
#102 = APPROVAL_STATUS ( 'not_yet_approved' ) ;
#103 = CARTESIAN_POINT ( 'NONE',  ( 5.449999999999996625, 6.674325055353071294E-16, 125.0000000000000000 ) ) ;
#104 = APPROVAL_DATE_TIME ( #207, #168 ) ;
#105 = AXIS2_PLACEMENT_3D ( 'NONE', #99, #127, #201 ) ;
#106 = SECURITY_CLASSIFICATION_LEVEL ( 'unclassified' ) ;
#107 = COORDINATED_UNIVERSAL_TIME_OFFSET ( 10, 0, .AHEAD. ) ;
#108 = EDGE_CURVE ( 'NONE', #257, #174, #182, .T. ) ;
#109 = AXIS2_PLACEMENT_3D ( 'NONE', #70, #175, #155 ) ;
#110 = ORIENTED_EDGE ( 'NONE', *, *, #118, .T. ) ;
#111 = ORIENTED_EDGE ( 'NONE', *, *, #196, .T. ) ;
#112 = MANIFOLD_SOLID_BREP ( 'Chamfer1', #177 ) ;
#113 = ORIENTED_EDGE ( 'NONE', *, *, #215, .F. ) ;
#114 = AXIS2_PLACEMENT_3D ( 'NONE', #69, #91, #139 ) ;
#115 = APPLICATION_CONTEXT ( 'configuration controlled 3d designs of mechanical parts and assemblies' ) ;
#116 = ORGANIZATION ( 'UNSPECIFIED', 'UNSPECIFIED', '' ) ;
#117 = VERTEX_POINT ( 'NONE', #34 ) ;
#118 = EDGE_CURVE ( 'NONE', #117, #27, #130, .T. ) ;
#119 = DIRECTION ( 'NONE',  ( 0.7071067811865487940, 0.000000000000000000, 0.7071067811865463515 ) ) ;
#120 = DIRECTION ( 'NONE',  ( -0.000000000000000000, -0.000000000000000000, -1.000000000000000000 ) ) ;
#121 = ADVANCED_BREP_SHAPE_REPRESENTATION ( '1-2_UNC-AT-125_REV_', ( #112, #68 ), #43 ) ;
#122 = EDGE_CURVE ( 'NONE', #178, #197, #41, .T. ) ;
#123 = CARTESIAN_POINT ( 'NONE',  ( 0.000000000000000000, 0.000000000000000000, 125.0000000000000000 ) ) ;
#124 = PERSON_AND_ORGANIZATION ( #11, #116 ) ;
#125 = DIRECTION ( 'NONE',  ( 1.000000000000000000, 0.000000000000000000, 0.000000000000000000 ) ) ;
#126 = PERSON_AND_ORGANIZATION ( #11, #116 ) ;
#127 = DIRECTION ( 'NONE',  ( -0.000000000000000000, -0.000000000000000000, -1.000000000000000000 ) ) ;
#128 = EDGE_CURVE ( 'NONE', #257, #27, #224, .T. ) ;
#129 = PERSON_AND_ORGANIZATION_ROLE ( 'classification_officer' ) ;
#130 = CIRCLE ( 'NONE', #98, 6.450000000000001066 ) ;
#131 = CALENDAR_DATE ( 2026, 9, 1 ) ;
#132 = SECURITY_CLASSIFICATION ( '', '', #106 ) ;
#133 = ADVANCED_FACE ( 'NONE', ( #39 ), #67, .T. ) ;
#134 = ORIENTED_EDGE ( 'NONE', *, *, #118, .F. ) ;
#135 = EDGE_CURVE ( 'NONE', #46, #197, #31, .T. ) ;
#136 = CC_DESIGN_APPROVAL ( #32, ( #273 ) ) ;
#137 = ORIENTED_EDGE ( 'NONE', *, *, #23, .F. ) ;
#138 = FACE_OUTER_BOUND ( 'NONE', #72, .T. ) ;
#139 = DIRECTION ( 'NONE',  ( 1.000000000000000000, 0.000000000000000000, 0.000000000000000000 ) ) ;
#140 = CC_DESIGN_PERSON_AND_ORGANIZATION_ASSIGNMENT ( #13, #265, ( #151 ) ) ;
#141 = ORIENTED_EDGE ( 'NONE', *, *, #135, .T. ) ;
#142 = VECTOR ( 'NONE', #97, 1000.000000000000000 ) ;
#143 = DIRECTION ( 'NONE',  ( -1.000000000000000000, 0.000000000000000000, 0.000000000000000000 ) ) ;
#144 = DIRECTION ( 'NONE',  ( 0.000000000000000000, 0.000000000000000000, -1.000000000000000000 ) ) ;
#145 = CARTESIAN_POINT ( 'NONE',  ( 0.000000000000000000, 0.000000000000000000, 125.0000000000000000 ) ) ;
#146 = PERSON_AND_ORGANIZATION_ROLE ( 'creator' ) ;
#147 = CYLINDRICAL_SURFACE ( 'NONE', #105, 6.450000000000001066 ) ;
#148 = LINE ( 'NONE', #167, #159 ) ;
#149 = CC_DESIGN_PERSON_AND_ORGANIZATION_ASSIGNMENT ( #124, #85, ( #222 ) ) ;
#150 = PERSON_AND_ORGANIZATION ( #11, #116 ) ;
#151 = PRODUCT ( '1-2_UNC-AT-125_REV_', '1-2_UNC-AT-125_REV_', '', ( #61 ) ) ;
#152 = DIRECTION ( 'NONE',  ( 1.000000000000000000, 0.000000000000000000, 0.000000000000000000 ) ) ;
#153 = CARTESIAN_POINT ( 'NONE',  ( 0.000000000000000000, 0.000000000000000000, 0.000000000000000000 ) ) ;
#154 = ORIENTED_EDGE ( 'NONE', *, *, #196, .F. ) ;
#155 = DIRECTION ( 'NONE',  ( 1.000000000000000000, 0.000000000000000000, -0.000000000000000000 ) ) ;
#156 = CARTESIAN_POINT ( 'NONE',  ( 0.000000000000000000, 0.000000000000000000, 125.0000000000000000 ) ) ;
#157 = EDGE_LOOP ( 'NONE', ( #113, #137, #141, #258 ) ) ;
#158 = ORIENTED_EDGE ( 'NONE', *, *, #192, .T. ) ;
#159 = VECTOR ( 'NONE', #249, 1000.000000000000000 ) ;
#160 = DIRECTION ( 'NONE',  ( -1.000000000000000000, 0.000000000000000000, 0.000000000000000000 ) ) ;
#161 = CARTESIAN_POINT ( 'NONE',  ( -5.449999999999996625, 7.286648454926749993E-16, 0.000000000000000000 ) ) ;
#162 = ADVANCED_FACE ( 'NONE', ( #12 ), #147, .T. ) ;
#163 = DIRECTION ( 'NONE',  ( 0.000000000000000000, 0.000000000000000000, 1.000000000000000000 ) ) ;
#164 = DATE_TIME_ROLE ( 'creation_date' ) ;
#165 = LINE ( 'NONE', #53, #142 ) ;
#166 = AXIS2_PLACEMENT_3D ( 'NONE', #220, #71, #95 ) ;
#167 = CARTESIAN_POINT ( 'NONE',  ( -6.450000000000001066, 7.898971854500429678E-16, 1.000000000000000888 ) ) ;
#168 = APPROVAL ( #102, 'UNSPECIFIED' ) ;
#169 = APPLICATION_PROTOCOL_DEFINITION ( 'international standard', 'config_control_design', 1994, #33 ) ;
#170 = ADVANCED_FACE ( 'NONE', ( #36 ), #63, .T. ) ;
#171 = DIRECTION ( 'NONE',  ( -1.000000000000000000, 0.000000000000000000, 0.000000000000000000 ) ) ;
#172 = COORDINATED_UNIVERSAL_TIME_OFFSET ( 10, 0, .AHEAD. ) ;
#173 = EDGE_CURVE ( 'NONE', #197, #178, #24, .T. ) ;
#174 = VERTEX_POINT ( 'NONE', #8 ) ;
#175 = DIRECTION ( 'NONE',  ( 0.000000000000000000, 0.000000000000000000, 1.000000000000000000 ) ) ;
#176 = ORIENTED_EDGE ( 'NONE', *, *, #6, .F. ) ;
#177 = CLOSED_SHELL ( 'NONE', ( #231, #206, #94, #162, #44, #245, #170, #133 ) ) ;
#178 = VERTEX_POINT ( 'NONE', #241 ) ;
#179 = ORIENTED_EDGE ( 'NONE', *, *, #173, .F. ) ;
#180 = DIRECTION ( 'NONE',  ( 0.000000000000000000, 0.000000000000000000, 1.000000000000000000 ) ) ;
#181 = DIRECTION ( 'NONE',  ( 1.000000000000000000, 0.000000000000000000, 0.000000000000000000 ) ) ;
#182 = CIRCLE ( 'NONE', #82, 5.449999999999996625 ) ;
#183 = DIRECTION ( 'NONE',  ( 0.000000000000000000, 0.000000000000000000, -1.000000000000000000 ) ) ;
#184 = COORDINATED_UNIVERSAL_TIME_OFFSET ( 10, 0, .AHEAD. ) ;
#185 = DIRECTION ( 'NONE',  ( 1.000000000000000000, 0.000000000000000000, 0.000000000000000000 ) ) ;
#186 = APPROVAL_ROLE ( '' ) ;
#187 = CARTESIAN_POINT ( 'NONE',  ( 0.000000000000000000, 0.000000000000000000, 1.000000000000000888 ) ) ;
#188 = CIRCLE ( 'NONE', #166, 5.449999999999996625 ) ;
#189 = DATE_AND_TIME ( #59, #237 ) ;
#190 = EDGE_CURVE ( 'NONE', #117, #178, #165, .T. ) ;
#191 = FACE_OUTER_BOUND ( 'NONE', #1, .T. ) ;
#192 = EDGE_CURVE ( 'NONE', #27, #117, #20, .T. ) ;
#193 = VECTOR ( 'NONE', #119, 1000.000000000000000 ) ;
#194 = ORIENTED_EDGE ( 'NONE', *, *, #23, .T. ) ;
#195 = ORIENTED_EDGE ( 'NONE', *, *, #255, .T. ) ;
#196 = EDGE_CURVE ( 'NONE', #174, #117, #227, .T. ) ;
#197 = VERTEX_POINT ( 'NONE', #58 ) ;
#198 = VECTOR ( 'NONE', #120, 1000.000000000000000 ) ;
#199 = FACE_OUTER_BOUND ( 'NONE', #7, .T. ) ;
#200 = EDGE_CURVE ( 'NONE', #174, #257, #240, .T. ) ;
#201 = DIRECTION ( 'NONE',  ( -1.000000000000000000, 0.000000000000000000, 0.000000000000000000 ) ) ;
#202 = DIRECTION ( 'NONE',  ( 0.7071067811865439090, 8.659560562354889717E-17, -0.7071067811865512365 ) ) ;
#203 = DIRECTION ( 'NONE',  ( 1.000000000000000000, 0.000000000000000000, 0.000000000000000000 ) ) ;
#204 = DIRECTION ( 'NONE',  ( 0.000000000000000000, 0.000000000000000000, 1.000000000000000000 ) ) ;
#205 = CARTESIAN_POINT ( 'NONE',  ( 0.000000000000000000, 0.000000000000000000, 1.000000000000000888 ) ) ;
#206 = ADVANCED_FACE ( 'NONE', ( #60 ), #28, .T. ) ;
#207 = DATE_AND_TIME ( #228, #96 ) ;
#208 = AXIS2_PLACEMENT_3D ( 'NONE', #187, #270, #83 ) ;
#209 = APPROVAL_PERSON_ORGANIZATION ( #62, #168, #186 ) ;
#210 = DIRECTION ( 'NONE',  ( -0.000000000000000000, -0.000000000000000000, 1.000000000000000000 ) ) ;
#211 = CALENDAR_DATE ( 2026, 9, 1 ) ;
#212 = CC_DESIGN_APPROVAL ( #168, ( #132 ) ) ;
#213 = VECTOR ( 'NONE', #264, 1000.000000000000000 ) ;
#214 = CC_DESIGN_DATE_AND_TIME_ASSIGNMENT ( #17, #252, ( #132 ) ) ;
#215 = EDGE_CURVE ( 'NONE', #218, #178, #148, .T. ) ;
#216 = EDGE_LOOP ( 'NONE', ( #176, #45, #179, #238 ) ) ;
#217 = CC_DESIGN_SECURITY_CLASSIFICATION ( #132, ( #273 ) ) ;
#218 = VERTEX_POINT ( 'NONE', #161 ) ;
#219 = ORIENTED_EDGE ( 'NONE', *, *, #173, .T. ) ;
#220 = CARTESIAN_POINT ( 'NONE',  ( 0.000000000000000000, 0.000000000000000000, 0.000000000000000000 ) ) ;
#221 = ORIENTED_EDGE ( 'NONE', *, *, #255, .F. ) ;
#222 = PRODUCT_DEFINITION ( 'UNKNOWN', '', #273, #16 ) ;
#223 = DIRECTION ( 'NONE',  ( 0.000000000000000000, 0.000000000000000000, -1.000000000000000000 ) ) ;
#224 = LINE ( 'NONE', #103, #269 ) ;
#225 = DIRECTION ( 'NONE',  ( 1.000000000000000000, 0.000000000000000000, 0.000000000000000000 ) ) ;
#226 = PERSON_AND_ORGANIZATION_ROLE ( 'design_supplier' ) ;
#227 = LINE ( 'NONE', #262, #213 ) ;
#228 = CALENDAR_DATE ( 2026, 9, 1 ) ;
#229 = CARTESIAN_POINT ( 'NONE',  ( 0.000000000000000000, 0.000000000000000000, 125.0000000000000000 ) ) ;
#230 = LINE ( 'NONE', #25, #198 ) ;
#231 = ADVANCED_FACE ( 'NONE', ( #242 ), #260, .T. ) ;
#232 = DATE_AND_TIME ( #271, #22 ) ;
#233 = AXIS2_PLACEMENT_3D ( 'NONE', #145, #21, #143 ) ;
#234 = ORIENTED_EDGE ( 'NONE', *, *, #108, .F. ) ;
#235 = ORIENTED_EDGE ( 'NONE', *, *, #108, .T. ) ;
#236 = DIRECTION ( 'NONE',  ( 1.000000000000000000, 0.000000000000000000, -0.000000000000000000 ) ) ;
#237 = LOCAL_TIME ( 13, 53, 40.00000000000000000, #184 ) ;
#238 = ORIENTED_EDGE ( 'NONE', *, *, #135, .F. ) ;
#239 = ORIENTED_EDGE ( 'NONE', *, *, #192, .F. ) ;
#240 = CIRCLE ( 'NONE', #76, 5.449999999999996625 ) ;
#241 = CARTESIAN_POINT ( 'NONE',  ( -6.450000000000001066, 0.000000000000000000, 1.000000000000000888 ) ) ;
#242 = FACE_OUTER_BOUND ( 'NONE', #90, .T. ) ;
#243 = DIRECTION ( 'NONE',  ( 0.000000000000000000, 0.000000000000000000, 1.000000000000000000 ) ) ;
#244 = APPROVAL_STATUS ( 'not_yet_approved' ) ;
#245 = ADVANCED_FACE ( 'NONE', ( #191 ), #254, .F. ) ;
#246 = LOCAL_TIME ( 13, 53, 40.00000000000000000, #248 ) ;
#247 = CARTESIAN_POINT ( 'NONE',  ( 0.000000000000000000, 0.000000000000000000, 123.9999999999999858 ) ) ;
#248 = COORDINATED_UNIVERSAL_TIME_OFFSET ( 10, 0, .AHEAD. ) ;
#249 = DIRECTION ( 'NONE',  ( -0.7071067811865487940, 8.659560562354948882E-17, 0.7071067811865463515 ) ) ;
#250 = DATE_AND_TIME ( #131, #246 ) ;
#251 = PRODUCT_DEFINITION_SHAPE ( 'NONE', 'NONE',  #222 ) ;
#252 = DATE_TIME_ROLE ( 'classification_date' ) ;
#253 = AXIS2_PLACEMENT_3D ( 'NONE', #101, #80, #185 ) ;
#254 = PLANE ( 'NONE',  #109 ) ;
#255 = EDGE_CURVE ( 'NONE', #27, #197, #230, .T. ) ;
#256 = ORIENTED_EDGE ( 'NONE', *, *, #190, .T. ) ;
#257 = VERTEX_POINT ( 'NONE', #9 ) ;
#258 = ORIENTED_EDGE ( 'NONE', *, *, #122, .F. ) ;
#259 = ORIENTED_EDGE ( 'NONE', *, *, #128, .F. ) ;
#260 = CONICAL_SURFACE ( 'NONE', #4, 5.449999999999996625, 0.7853981633974431720 ) ;
#261 = AXIS2_PLACEMENT_3D ( 'NONE', #156, #180, #236 ) ;
#262 = CARTESIAN_POINT ( 'NONE',  ( -5.449999999999996625, 0.000000000000000000, 125.0000000000000000 ) ) ;
#263 = APPROVAL_PERSON_ORGANIZATION ( #79, #64, #267 ) ;
#264 = DIRECTION ( 'NONE',  ( -0.7071067811865439090, 0.000000000000000000, -0.7071067811865512365 ) ) ;
#265 = PERSON_AND_ORGANIZATION_ROLE ( 'design_owner' ) ;
#266 = CARTESIAN_POINT ( 'NONE',  ( 6.450000000000001066, 0.000000000000000000, 1.000000000000000888 ) ) ;
#267 = APPROVAL_ROLE ( '' ) ;
#268 = APPROVAL_PERSON_ORGANIZATION ( #42, #32, #81 ) ;
#269 = VECTOR ( 'NONE', #202, 1000.000000000000000 ) ;
#270 = DIRECTION ( 'NONE',  ( -0.000000000000000000, -0.000000000000000000, 1.000000000000000000 ) ) ;
#271 = CALENDAR_DATE ( 2026, 9, 1 ) ;
#272 = CC_DESIGN_PERSON_AND_ORGANIZATION_ASSIGNMENT ( #150, #146, ( #273 ) ) ;
#273 = PRODUCT_DEFINITION_FORMATION_WITH_SPECIFIED_SOURCE ( 'ANY', '', #151, .NOT_KNOWN. ) ;
#274 = PRODUCT_RELATED_PRODUCT_CATEGORY ( 'detail', '', ( #151 ) ) ;
#275 = LOCAL_TIME ( 13, 53, 40.00000000000000000, #172 ) ;
ENDSEC;
END-ISO-10303-21;
