ISO-10303-21;
HEADER;
FILE_DESCRIPTION (( 'STEP AP203' ),
    '1' );
FILE_NAME ('13-2919-1-1_REV_.step',
    '2026-01-19T23:26:34',
    ( '' ),
    ( '' ),
    'SwSTEP 2.0',
    'SolidWorks 2025',
    '' );
FILE_SCHEMA (( 'CONFIG_CONTROL_DESIGN' ));
ENDSEC;

DATA;
#1 = ADVANCED_BREP_SHAPE_REPRESENTATION ( '13-2919-1-1_REV_', ( #64, #89 ), #219 ) ;
#2 = CARTESIAN_POINT ( 'NONE',  ( 305.8500000000000227, -1144.537241998979653, 285.0000000000000000 ) ) ;
#3 = DIRECTION ( 'NONE',  ( -1.000000000000000000, 0.000000000000000000, 0.000000000000000000 ) ) ;
#4 = ORIENTED_EDGE ( 'NONE', *, *, #247, .F. ) ;
#5 = CARTESIAN_POINT ( 'NONE',  ( 363.0000000000000000, -1144.537241998979653, 285.0000000000000000 ) ) ;
#6 = ADVANCED_FACE ( 'NONE', ( #231 ), #59, .F. ) ;
#7 = DIRECTION ( 'NONE',  ( 1.000000000000000000, 0.000000000000000000, 0.000000000000000000 ) ) ;
#8 = CC_DESIGN_PERSON_AND_ORGANIZATION_ASSIGNMENT ( #13, #150, ( #173 ) ) ;
#9 = DIRECTION ( 'NONE',  ( 1.000000000000000000, 0.000000000000000000, 0.000000000000000000 ) ) ;
#10 = DATE_AND_TIME ( #176, #23 ) ;
#11 = CIRCLE ( 'NONE', #121, 51.15000000000002700 ) ;
#12 = CARTESIAN_POINT ( 'NONE',  ( 363.0000000000000000, -1144.537241998979653, 285.0000000000000000 ) ) ;
#13 = PERSON_AND_ORGANIZATION ( #93, #46 ) ;
#14 = COORDINATED_UNIVERSAL_TIME_OFFSET ( 10, 0, .AHEAD. ) ;
#15 = ORIENTED_EDGE ( 'NONE', *, *, #208, .T. ) ;
#16 = AXIS2_PLACEMENT_3D ( 'NONE', #164, #218, #240 ) ;
#17 = ADVANCED_FACE ( 'NONE', ( #154, #21 ), #37, .F. ) ;
#18 = AXIS2_PLACEMENT_3D ( 'NONE', #61, #98, #43 ) ;
#19 = CARTESIAN_POINT ( 'NONE',  ( 414.1500000000000341, -1144.537241998979653, 285.0000000000000000 ) ) ;
#20 = PLANE ( 'NONE',  #201 ) ;
#21 = FACE_OUTER_BOUND ( 'NONE', #223, .T. ) ;
#22 = DIRECTION ( 'NONE',  ( 1.000000000000000000, 0.000000000000000000, 0.000000000000000000 ) ) ;
#23 = LOCAL_TIME ( 10, 26, 34.00000000000000000, #27 ) ;
#24 = ORIENTED_EDGE ( 'NONE', *, *, #30, .F. ) ;
#25 = APPROVAL ( #90, 'UNSPECIFIED' ) ;
#26 = AXIS2_PLACEMENT_3D ( 'NONE', #123, #163, #7 ) ;
#27 = COORDINATED_UNIVERSAL_TIME_OFFSET ( 10, 0, .AHEAD. ) ;
#28 = AXIS2_PLACEMENT_3D ( 'NONE', #160, #44, #220 ) ;
#29 = PERSON_AND_ORGANIZATION_ROLE ( 'creator' ) ;
#30 = EDGE_CURVE ( 'NONE', #101, #206, #60, .T. ) ;
#31 = EDGE_LOOP ( 'NONE', ( #24, #157, #15, #195 ) ) ;
#32 = EDGE_LOOP ( 'NONE', ( #215, #114 ) ) ;
#33 = CC_DESIGN_APPROVAL ( #214, ( #142 ) ) ;
#34 = ORIENTED_EDGE ( 'NONE', *, *, #165, .F. ) ;
#35 = DIRECTION ( 'NONE',  ( 1.000000000000000000, 0.000000000000000000, 0.000000000000000000 ) ) ;
#36 = UNCERTAINTY_MEASURE_WITH_UNIT (LENGTH_MEASURE( 1.000000000000000082E-05 ), #129, 'distance_accuracy_value', 'NONE');
#37 = PLANE ( 'NONE',  #166 ) ;
#38 = DIRECTION ( 'NONE',  ( 0.000000000000000000, 0.000000000000000000, 1.000000000000000000 ) ) ;
#39 = DIRECTION ( 'NONE',  ( 1.000000000000000000, 0.000000000000000000, -0.000000000000000000 ) ) ;
#40 = VECTOR ( 'NONE', #155, 1000.000000000000000 ) ;
#41 = APPROVAL_PERSON_ORGANIZATION ( #184, #190, #112 ) ;
#42 = ADVANCED_FACE ( 'NONE', ( #137 ), #139, .F. ) ;
#43 = DIRECTION ( 'NONE',  ( -1.000000000000000000, 0.000000000000000000, 0.000000000000000000 ) ) ;
#44 = DIRECTION ( 'NONE',  ( 0.000000000000000000, 0.000000000000000000, 1.000000000000000000 ) ) ;
#45 = MECHANICAL_CONTEXT ( 'NONE', #246, 'mechanical' ) ;
#46 = ORGANIZATION ( 'UNSPECIFIED', 'UNSPECIFIED', '' ) ;
#47 = PRODUCT_DEFINITION_SHAPE ( 'NONE', 'NONE',  #142 ) ;
#48 = PERSON_AND_ORGANIZATION_ROLE ( 'creator' ) ;
#49 = DIRECTION ( 'NONE',  ( 1.000000000000000000, 0.000000000000000000, 0.000000000000000000 ) ) ;
#50 = ADVANCED_FACE ( 'NONE', ( #216, #227 ), #20, .T. ) ;
#51 = CC_DESIGN_PERSON_AND_ORGANIZATION_ASSIGNMENT ( #132, #29, ( #173 ) ) ;
#52 = PERSON_AND_ORGANIZATION ( #93, #46 ) ;
#53 = VECTOR ( 'NONE', #79, 1000.000000000000000 ) ;
#54 = ORIENTED_EDGE ( 'NONE', *, *, #75, .T. ) ;
#55 = EDGE_CURVE ( 'NONE', #230, #101, #85, .T. ) ;
#56 = DIRECTION ( 'NONE',  ( 0.000000000000000000, 0.000000000000000000, 1.000000000000000000 ) ) ;
#57 = CIRCLE ( 'NONE', #152, 57.14999999999997726 ) ;
#58 = CARTESIAN_POINT ( 'NONE',  ( 363.0000000000000000, -1144.537241998979653, 285.0000000000000000 ) ) ;
#59 = CYLINDRICAL_SURFACE ( 'NONE', #241, 51.15000000000002700 ) ;
#60 = LINE ( 'NONE', #122, #53 ) ;
#61 = CARTESIAN_POINT ( 'NONE',  ( 363.0000000000000000, -1144.537241998979653, 285.0000000000000000 ) ) ;
#62 = CIRCLE ( 'NONE', #96, 57.14999999999997726 ) ;
#63 = LOCAL_TIME ( 10, 26, 34.00000000000000000, #224 ) ;
#64 = MANIFOLD_SOLID_BREP ( 'Stainless chs 114.3 X 6.019 CHS(1)', #211 ) ;
#65 =( NAMED_UNIT ( * ) SI_UNIT ( $, .STERADIAN. ) SOLID_ANGLE_UNIT ( ) );
#66 = PERSON_AND_ORGANIZATION ( #93, #46 ) ;
#67 = PERSON_AND_ORGANIZATION ( #93, #46 ) ;
#68 = CARTESIAN_POINT ( 'NONE',  ( 0.000000000000000000, 0.000000000000000000, 0.000000000000000000 ) ) ;
#69 = ADVANCED_FACE ( 'NONE', ( #158 ), #232, .T. ) ;
#70 = DIRECTION ( 'NONE',  ( 0.000000000000000000, 0.000000000000000000, 1.000000000000000000 ) ) ;
#71 = DATE_AND_TIME ( #88, #63 ) ;
#72 = ORIENTED_EDGE ( 'NONE', *, *, #165, .T. ) ;
#73 = DATE_AND_TIME ( #168, #194 ) ;
#74 = ORIENTED_EDGE ( 'NONE', *, *, #197, .T. ) ;
#75 = EDGE_CURVE ( 'NONE', #95, #169, #242, .T. ) ;
#76 = ORIENTED_EDGE ( 'NONE', *, *, #55, .T. ) ;
#77 = LINE ( 'NONE', #212, #40 ) ;
#78 = CARTESIAN_POINT ( 'NONE',  ( 420.1500000000000341, -1144.537241998979653, 285.0000000000000000 ) ) ;
#79 = DIRECTION ( 'NONE',  ( -0.000000000000000000, -0.000000000000000000, -1.000000000000000000 ) ) ;
#80 = DIRECTION ( 'NONE',  ( 1.000000000000000000, 0.000000000000000000, -0.000000000000000000 ) ) ;
#81 = EDGE_CURVE ( 'NONE', #169, #175, #120, .T. ) ;
#82 = CARTESIAN_POINT ( 'NONE',  ( 363.0000000000000000, -1144.537241998979653, 151.9999999999993463 ) ) ;
#83 = CALENDAR_DATE ( 2026, 20, 1 ) ;
#84 = EDGE_CURVE ( 'NONE', #95, #172, #77, .T. ) ;
#85 = CIRCLE ( 'NONE', #226, 51.15000000000002700 ) ;
#86 = CC_DESIGN_APPROVAL ( #25, ( #173 ) ) ;
#87 = CYLINDRICAL_SURFACE ( 'NONE', #16, 57.14999999999997726 ) ;
#88 = CALENDAR_DATE ( 2026, 20, 1 ) ;
#89 = AXIS2_PLACEMENT_3D ( 'NONE', #68, #128, #103 ) ;
#90 = APPROVAL_STATUS ( 'not_yet_approved' ) ;
#91 = ORIENTED_EDGE ( 'NONE', *, *, #81, .T. ) ;
#92 = CALENDAR_DATE ( 2026, 20, 1 ) ;
#93 = PERSON ( 'UNSPECIFIED', 'UNSPECIFIED', 'UNSPECIFIED', ('UNSPECIFIED'), ('UNSPECIFIED'), ('UNSPECIFIED') ) ;
#94 = APPROVAL_STATUS ( 'not_yet_approved' ) ;
#95 = VERTEX_POINT ( 'NONE', #78 ) ;
#96 = AXIS2_PLACEMENT_3D ( 'NONE', #12, #70, #49 ) ;
#97 = CARTESIAN_POINT ( 'NONE',  ( 311.8499999999999659, -1144.537241998979653, 151.9999999999993463 ) ) ;
#98 = DIRECTION ( 'NONE',  ( -0.000000000000000000, -0.000000000000000000, -1.000000000000000000 ) ) ;
#99 = EDGE_CURVE ( 'NONE', #131, #206, #11, .T. ) ;
#100 = DIRECTION ( 'NONE',  ( 0.000000000000000000, 0.000000000000000000, 1.000000000000000000 ) ) ;
#101 = VERTEX_POINT ( 'NONE', #19 ) ;
#102 = EDGE_LOOP ( 'NONE', ( #141, #249, #183, #113 ) ) ;
#103 = DIRECTION ( 'NONE',  ( 1.000000000000000000, 0.000000000000000000, 0.000000000000000000 ) ) ;
#104 = VECTOR ( 'NONE', #193, 1000.000000000000000 ) ;
#105 = AXIS2_PLACEMENT_3D ( 'NONE', #119, #213, #3 ) ;
#106 = PRODUCT_RELATED_PRODUCT_CATEGORY ( 'detail', '', ( #110 ) ) ;
#107 = CARTESIAN_POINT ( 'NONE',  ( 420.1500000000000341, -1144.537241998979653, 151.9999999999993463 ) ) ;
#108 = PERSON_AND_ORGANIZATION ( #93, #46 ) ;
#109 = DIRECTION ( 'NONE',  ( 0.000000000000000000, 0.000000000000000000, 1.000000000000000000 ) ) ;
#110 = PRODUCT ( '13-2919-1-1_REV_', '13-2919-1-1_REV_', '', ( #45 ) ) ;
#111 = AXIS2_PLACEMENT_3D ( 'NONE', #82, #221, #9 ) ;
#112 = APPROVAL_ROLE ( '' ) ;
#113 = ORIENTED_EDGE ( 'NONE', *, *, #81, .F. ) ;
#114 = ORIENTED_EDGE ( 'NONE', *, *, #192, .T. ) ;
#115 = APPLICATION_CONTEXT ( 'configuration controlled 3d designs of mechanical parts and assemblies' ) ;
#116 = ORIENTED_EDGE ( 'NONE', *, *, #84, .F. ) ;
#117 = CC_DESIGN_DATE_AND_TIME_ASSIGNMENT ( #203, #181, ( #142 ) ) ;
#118 = CARTESIAN_POINT ( 'NONE',  ( 363.0000000000000000, -1144.537241998979653, 285.0000000000000000 ) ) ;
#119 = CARTESIAN_POINT ( 'NONE',  ( 363.0000000000000000, -1144.537241998979653, 285.0000000000000000 ) ) ;
#120 = LINE ( 'NONE', #2, #104 ) ;
#121 = AXIS2_PLACEMENT_3D ( 'NONE', #228, #156, #22 ) ;
#122 = CARTESIAN_POINT ( 'NONE',  ( 414.1500000000000341, -1144.537241998979653, 285.0000000000000000 ) ) ;
#123 = CARTESIAN_POINT ( 'NONE',  ( 363.0000000000000000, -1144.537241998979653, 285.0000000000000000 ) ) ;
#124 = FACE_OUTER_BOUND ( 'NONE', #134, .T. ) ;
#125 = APPROVAL_STATUS ( 'not_yet_approved' ) ;
#126 = AXIS2_PLACEMENT_3D ( 'NONE', #58, #38, #186 ) ;
#127 = CC_DESIGN_SECURITY_CLASSIFICATION ( #202, ( #173 ) ) ;
#128 = DIRECTION ( 'NONE',  ( 0.000000000000000000, 0.000000000000000000, 1.000000000000000000 ) ) ;
#129 =( LENGTH_UNIT ( ) NAMED_UNIT ( * ) SI_UNIT ( .MILLI., .METRE. ) );
#130 = PERSON_AND_ORGANIZATION ( #93, #46 ) ;
#131 = VERTEX_POINT ( 'NONE', #97 ) ;
#132 = PERSON_AND_ORGANIZATION ( #93, #46 ) ;
#133 = DATE_TIME_ROLE ( 'classification_date' ) ;
#134 = EDGE_LOOP ( 'NONE', ( #116, #153, #91, #72 ) ) ;
#135 = ORIENTED_EDGE ( 'NONE', *, *, #30, .T. ) ;
#136 = CIRCLE ( 'NONE', #26, 51.15000000000002700 ) ;
#137 = FACE_OUTER_BOUND ( 'NONE', #31, .T. ) ;
#138 = CARTESIAN_POINT ( 'NONE',  ( 363.0000000000000000, -1144.537241998979653, 151.9999999999993463 ) ) ;
#139 = CYLINDRICAL_SURFACE ( 'NONE', #105, 51.15000000000002700 ) ;
#140 = CIRCLE ( 'NONE', #28, 51.15000000000002700 ) ;
#141 = ORIENTED_EDGE ( 'NONE', *, *, #75, .F. ) ;
#142 = PRODUCT_DEFINITION ( 'UNKNOWN', '', #173, #189 ) ;
#143 = APPLICATION_PROTOCOL_DEFINITION ( 'international standard', 'config_control_design', 1994, #115 ) ;
#144 = CARTESIAN_POINT ( 'NONE',  ( 311.8499999999999659, -1144.537241998979653, 285.0000000000000000 ) ) ;
#145 = CARTESIAN_POINT ( 'NONE',  ( 305.8499999999999659, -1144.537241998979653, 285.0000000000000000 ) ) ;
#146 = CARTESIAN_POINT ( 'NONE',  ( 414.1500000000000341, -1144.537241998979653, 151.9999999999993463 ) ) ;
#147 = APPROVAL_DATE_TIME ( #71, #25 ) ;
#148 = EDGE_LOOP ( 'NONE', ( #74, #54 ) ) ;
#149 = COORDINATED_UNIVERSAL_TIME_OFFSET ( 10, 0, .AHEAD. ) ;
#150 = PERSON_AND_ORGANIZATION_ROLE ( 'design_supplier' ) ;
#151 = PERSON_AND_ORGANIZATION_ROLE ( 'classification_officer' ) ;
#152 = AXIS2_PLACEMENT_3D ( 'NONE', #170, #109, #217 ) ;
#153 = ORIENTED_EDGE ( 'NONE', *, *, #197, .F. ) ;
#154 = FACE_BOUND ( 'NONE', #32, .T. ) ;
#155 = DIRECTION ( 'NONE',  ( -0.000000000000000000, -0.000000000000000000, -1.000000000000000000 ) ) ;
#156 = DIRECTION ( 'NONE',  ( 0.000000000000000000, 0.000000000000000000, 1.000000000000000000 ) ) ;
#157 = ORIENTED_EDGE ( 'NONE', *, *, #247, .T. ) ;
#158 = FACE_OUTER_BOUND ( 'NONE', #102, .T. ) ;
#159 = CC_DESIGN_PERSON_AND_ORGANIZATION_ASSIGNMENT ( #67, #48, ( #142 ) ) ;
#160 = CARTESIAN_POINT ( 'NONE',  ( 363.0000000000000000, -1144.537241998979653, 151.9999999999993463 ) ) ;
#161 = CARTESIAN_POINT ( 'NONE',  ( 311.8499999999999659, -1144.537241998979653, 285.0000000000000000 ) ) ;
#162 = PERSON_AND_ORGANIZATION_ROLE ( 'design_owner' ) ;
#163 = DIRECTION ( 'NONE',  ( 0.000000000000000000, 0.000000000000000000, 1.000000000000000000 ) ) ;
#164 = CARTESIAN_POINT ( 'NONE',  ( 363.0000000000000000, -1144.537241998979653, 285.0000000000000000 ) ) ;
#165 = EDGE_CURVE ( 'NONE', #175, #172, #57, .T. ) ;
#166 = AXIS2_PLACEMENT_3D ( 'NONE', #138, #100, #39 ) ;
#167 = ORIENTED_EDGE ( 'NONE', *, *, #55, .F. ) ;
#168 = CALENDAR_DATE ( 2026, 20, 1 ) ;
#169 = VERTEX_POINT ( 'NONE', #145 ) ;
#170 = CARTESIAN_POINT ( 'NONE',  ( 363.0000000000000000, -1144.537241998979653, 151.9999999999993463 ) ) ;
#171 = DIRECTION ( 'NONE',  ( 0.000000000000000000, 0.000000000000000000, 1.000000000000000000 ) ) ;
#172 = VERTEX_POINT ( 'NONE', #107 ) ;
#173 = PRODUCT_DEFINITION_FORMATION_WITH_SPECIFIED_SOURCE ( 'ANY', '', #110, .NOT_KNOWN. ) ;
#174 = DIRECTION ( 'NONE',  ( -0.000000000000000000, -0.000000000000000000, -1.000000000000000000 ) ) ;
#175 = VERTEX_POINT ( 'NONE', #178 ) ;
#176 = CALENDAR_DATE ( 2026, 20, 1 ) ;
#177 = COORDINATED_UNIVERSAL_TIME_OFFSET ( 10, 0, .AHEAD. ) ;
#178 = CARTESIAN_POINT ( 'NONE',  ( 305.8499999999999659, -1144.537241998979653, 151.9999999999993463 ) ) ;
#179 = CIRCLE ( 'NONE', #111, 57.14999999999997726 ) ;
#180 = CC_DESIGN_APPROVAL ( #190, ( #202 ) ) ;
#181 = DATE_TIME_ROLE ( 'creation_date' ) ;
#182 = APPROVAL_ROLE ( '' ) ;
#183 = ORIENTED_EDGE ( 'NONE', *, *, #187, .T. ) ;
#184 = PERSON_AND_ORGANIZATION ( #93, #46 ) ;
#185 = EDGE_LOOP ( 'NONE', ( #167, #4 ) ) ;
#186 = DIRECTION ( 'NONE',  ( 1.000000000000000000, 0.000000000000000000, 0.000000000000000000 ) ) ;
#187 = EDGE_CURVE ( 'NONE', #172, #175, #179, .T. ) ;
#188 = DIRECTION ( 'NONE',  ( -1.000000000000000000, 0.000000000000000000, 0.000000000000000000 ) ) ;
#189 = DESIGN_CONTEXT ( 'detailed design', #115, 'design' ) ;
#190 = APPROVAL ( #94, 'UNSPECIFIED' ) ;
#191 = CARTESIAN_POINT ( 'NONE',  ( 363.0000000000000000, -1144.537241998979653, 285.0000000000000000 ) ) ;
#192 = EDGE_CURVE ( 'NONE', #206, #131, #140, .T. ) ;
#193 = DIRECTION ( 'NONE',  ( -0.000000000000000000, -0.000000000000000000, -1.000000000000000000 ) ) ;
#194 = LOCAL_TIME ( 10, 26, 34.00000000000000000, #14 ) ;
#195 = ORIENTED_EDGE ( 'NONE', *, *, #192, .F. ) ;
#196 = DIRECTION ( 'NONE',  ( -0.000000000000000000, -0.000000000000000000, -1.000000000000000000 ) ) ;
#197 = EDGE_CURVE ( 'NONE', #169, #95, #62, .T. ) ;
#198 = LOCAL_TIME ( 10, 26, 34.00000000000000000, #177 ) ;
#199 = APPROVAL_ROLE ( '' ) ;
#200 = ADVANCED_FACE ( 'NONE', ( #124 ), #87, .T. ) ;
#201 = AXIS2_PLACEMENT_3D ( 'NONE', #5, #56, #80 ) ;
#202 = SECURITY_CLASSIFICATION ( '', '', #244 ) ;
#203 = DATE_AND_TIME ( #83, #198 ) ;
#204 = EDGE_LOOP ( 'NONE', ( #76, #135, #209, #245 ) ) ;
#205 = DATE_AND_TIME ( #92, #238 ) ;
#206 = VERTEX_POINT ( 'NONE', #146 ) ;
#207 = APPROVAL_DATE_TIME ( #73, #190 ) ;
#208 = EDGE_CURVE ( 'NONE', #230, #131, #236, .T. ) ;
#209 = ORIENTED_EDGE ( 'NONE', *, *, #99, .F. ) ;
#210 = CC_DESIGN_PERSON_AND_ORGANIZATION_ASSIGNMENT ( #130, #151, ( #202 ) ) ;
#211 = CLOSED_SHELL ( 'NONE', ( #69, #6, #42, #200, #50, #17 ) ) ;
#212 = CARTESIAN_POINT ( 'NONE',  ( 420.1499999999999773, -1144.537241998979653, 285.0000000000000000 ) ) ;
#213 = DIRECTION ( 'NONE',  ( -0.000000000000000000, -0.000000000000000000, -1.000000000000000000 ) ) ;
#214 = APPROVAL ( #125, 'UNSPECIFIED' ) ;
#215 = ORIENTED_EDGE ( 'NONE', *, *, #99, .T. ) ;
#216 = FACE_BOUND ( 'NONE', #185, .T. ) ;
#217 = DIRECTION ( 'NONE',  ( 1.000000000000000000, 0.000000000000000000, 0.000000000000000000 ) ) ;
#218 = DIRECTION ( 'NONE',  ( -0.000000000000000000, -0.000000000000000000, -1.000000000000000000 ) ) ;
#219 =( GEOMETRIC_REPRESENTATION_CONTEXT ( 3 ) GLOBAL_UNCERTAINTY_ASSIGNED_CONTEXT ( ( #36 ) ) GLOBAL_UNIT_ASSIGNED_CONTEXT ( ( #129, #234, #65 ) ) REPRESENTATION_CONTEXT ( 'NONE', 'WORKASPACE' ) );
#220 = DIRECTION ( 'NONE',  ( 1.000000000000000000, 0.000000000000000000, 0.000000000000000000 ) ) ;
#221 = DIRECTION ( 'NONE',  ( 0.000000000000000000, 0.000000000000000000, 1.000000000000000000 ) ) ;
#222 = CC_DESIGN_PERSON_AND_ORGANIZATION_ASSIGNMENT ( #66, #162, ( #110 ) ) ;
#223 = EDGE_LOOP ( 'NONE', ( #34, #248 ) ) ;
#224 = COORDINATED_UNIVERSAL_TIME_OFFSET ( 10, 0, .AHEAD. ) ;
#225 = SHAPE_DEFINITION_REPRESENTATION ( #47, #1 ) ;
#226 = AXIS2_PLACEMENT_3D ( 'NONE', #191, #171, #35 ) ;
#227 = FACE_OUTER_BOUND ( 'NONE', #148, .T. ) ;
#228 = CARTESIAN_POINT ( 'NONE',  ( 363.0000000000000000, -1144.537241998979653, 151.9999999999993463 ) ) ;
#229 = APPROVAL_PERSON_ORGANIZATION ( #52, #25, #182 ) ;
#230 = VERTEX_POINT ( 'NONE', #144 ) ;
#231 = FACE_OUTER_BOUND ( 'NONE', #204, .T. ) ;
#232 = CYLINDRICAL_SURFACE ( 'NONE', #18, 57.14999999999997726 ) ;
#233 = VECTOR ( 'NONE', #196, 1000.000000000000000 ) ;
#234 =( NAMED_UNIT ( * ) PLANE_ANGLE_UNIT ( ) SI_UNIT ( $, .RADIAN. ) );
#235 = CC_DESIGN_DATE_AND_TIME_ASSIGNMENT ( #205, #133, ( #202 ) ) ;
#236 = LINE ( 'NONE', #161, #233 ) ;
#237 = APPROVAL_DATE_TIME ( #10, #214 ) ;
#238 = LOCAL_TIME ( 10, 26, 34.00000000000000000, #149 ) ;
#239 = APPLICATION_PROTOCOL_DEFINITION ( 'international standard', 'config_control_design', 1994, #246 ) ;
#240 = DIRECTION ( 'NONE',  ( -1.000000000000000000, 0.000000000000000000, 0.000000000000000000 ) ) ;
#241 = AXIS2_PLACEMENT_3D ( 'NONE', #118, #174, #188 ) ;
#242 = CIRCLE ( 'NONE', #126, 57.14999999999997726 ) ;
#243 = APPROVAL_PERSON_ORGANIZATION ( #108, #214, #199 ) ;
#244 = SECURITY_CLASSIFICATION_LEVEL ( 'unclassified' ) ;
#245 = ORIENTED_EDGE ( 'NONE', *, *, #208, .F. ) ;
#246 = APPLICATION_CONTEXT ( 'configuration controlled 3d designs of mechanical parts and assemblies' ) ;
#247 = EDGE_CURVE ( 'NONE', #101, #230, #136, .T. ) ;
#248 = ORIENTED_EDGE ( 'NONE', *, *, #187, .F. ) ;
#249 = ORIENTED_EDGE ( 'NONE', *, *, #84, .T. ) ;
ENDSEC;
END-ISO-10303-21;
