ISO-10303-21;
HEADER;
FILE_DESCRIPTION (( 'STEP AP203' ),
    '1' );
FILE_NAME ('13-2919-2-1_REV_.step',
    '2026-01-19T23:21:23',
    ( '' ),
    ( '' ),
    'SwSTEP 2.0',
    'SolidWorks 2025',
    '' );
FILE_SCHEMA (( 'CONFIG_CONTROL_DESIGN' ));
ENDSEC;

DATA;
#1 = DATE_TIME_ROLE ( 'classification_date' ) ;
#2 = ORIENTED_EDGE ( 'NONE', *, *, #160, .T. ) ;
#3 = CIRCLE ( 'NONE', #109, 51.15000000000000568 ) ;
#4 = APPROVAL ( #17, 'UNSPECIFIED' ) ;
#5 = FACE_OUTER_BOUND ( 'NONE', #56, .T. ) ;
#6 = AXIS2_PLACEMENT_3D ( 'NONE', #37, #93, #38 ) ;
#7 = CARTESIAN_POINT ( 'NONE',  ( -2390.000000000000000, 0.000000000000000000, 0.000000000000000000 ) ) ;
#8 = CARTESIAN_POINT ( 'NONE',  ( 2390.000000000000000, 8.780717549886521735E-13, 0.000000000000000000 ) ) ;
#9 = EDGE_CURVE ( 'NONE', #234, #45, #63, .T. ) ;
#10 = CARTESIAN_POINT ( 'NONE',  ( 2390.000000000000000, 8.780717549886521735E-13, 0.000000000000000000 ) ) ;
#11 = CC_DESIGN_APPROVAL ( #203, ( #147 ) ) ;
#12 = DIRECTION ( 'NONE',  ( 0.000000000000000000, -1.000000000000000000, 0.000000000000000000 ) ) ;
#13 = APPROVAL_ROLE ( '' ) ;
#14 = EDGE_CURVE ( 'NONE', #234, #26, #65, .T. ) ;
#15 = APPROVAL_DATE_TIME ( #130, #4 ) ;
#16 = DIRECTION ( 'NONE',  ( 0.000000000000000000, 0.000000000000000000, 1.000000000000000000 ) ) ;
#17 = APPROVAL_STATUS ( 'not_yet_approved' ) ;
#18 = PERSON_AND_ORGANIZATION ( #178, #235 ) ;
#19 = CIRCLE ( 'NONE', #52, 57.15000000000000568 ) ;
#20 = ORIENTED_EDGE ( 'NONE', *, *, #226, .T. ) ;
#21 = EDGE_CURVE ( 'NONE', #177, #107, #114, .T. ) ;
#22 = PERSON_AND_ORGANIZATION ( #178, #235 ) ;
#23 = AXIS2_PLACEMENT_3D ( 'NONE', #40, #210, #145 ) ;
#24 = PERSON_AND_ORGANIZATION_ROLE ( 'design_supplier' ) ;
#25 = APPROVAL_PERSON_ORGANIZATION ( #18, #4, #92 ) ;
#26 = VERTEX_POINT ( 'NONE', #29 ) ;
#27 = EDGE_CURVE ( 'NONE', #42, #202, #3, .T. ) ;
#28 = EDGE_LOOP ( 'NONE', ( #136, #217, #20, #95 ) ) ;
#29 = CARTESIAN_POINT ( 'NONE',  ( 2390.000000000000000, -57.14999999999912461, 0.000000000000000000 ) ) ;
#30 = ORIENTED_EDGE ( 'NONE', *, *, #216, .F. ) ;
#31 = DIRECTION ( 'NONE',  ( 1.000000000000000000, 1.836970198721029688E-16, 0.000000000000000000 ) ) ;
#32 = CARTESIAN_POINT ( 'NONE',  ( 2390.000000000000000, 51.15000000000088676, 6.264068377638766095E-15 ) ) ;
#33 = DIRECTION ( 'NONE',  ( 0.000000000000000000, 1.000000000000000000, 0.000000000000000000 ) ) ;
#34 = CC_DESIGN_SECURITY_CLASSIFICATION ( #218, ( #147 ) ) ;
#35 = EDGE_CURVE ( 'NONE', #26, #234, #173, .T. ) ;
#36 = PERSON_AND_ORGANIZATION ( #178, #235 ) ;
#37 = CARTESIAN_POINT ( 'NONE',  ( 2390.000000000000000, 8.780717549886521735E-13, 0.000000000000000000 ) ) ;
#38 = DIRECTION ( 'NONE',  ( 0.000000000000000000, -1.000000000000000000, 0.000000000000000000 ) ) ;
#39 = VECTOR ( 'NONE', #225, 1000.000000000000000 ) ;
#40 = CARTESIAN_POINT ( 'NONE',  ( 2390.000000000000000, 8.780717549886521735E-13, 0.000000000000000000 ) ) ;
#41 =( NAMED_UNIT ( * ) PLANE_ANGLE_UNIT ( ) SI_UNIT ( $, .RADIAN. ) );
#42 = VERTEX_POINT ( 'NONE', #32 ) ;
#43 = APPROVAL_PERSON_ORGANIZATION ( #36, #203, #13 ) ;
#44 = PRODUCT_DEFINITION ( 'UNKNOWN', '', #147, #97 ) ;
#45 = VERTEX_POINT ( 'NONE', #67 ) ;
#46 = EDGE_LOOP ( 'NONE', ( #119, #101 ) ) ;
#47 = CIRCLE ( 'NONE', #192, 57.15000000000000568 ) ;
#48 = VERTEX_POINT ( 'NONE', #186 ) ;
#49 = CARTESIAN_POINT ( 'NONE',  ( -2390.000000000000000, -51.14999999999999858, 0.000000000000000000 ) ) ;
#50 = CARTESIAN_POINT ( 'NONE',  ( 2390.000000000000000, -51.14999999999912461, 0.000000000000000000 ) ) ;
#51 = DIRECTION ( 'NONE',  ( -1.000000000000000000, -1.836970198721029688E-16, -0.000000000000000000 ) ) ;
#52 = AXIS2_PLACEMENT_3D ( 'NONE', #7, #82, #116 ) ;
#53 = CARTESIAN_POINT ( 'NONE',  ( 2390.000000000000000, 8.780717549886521735E-13, 0.000000000000000000 ) ) ;
#54 = DIRECTION ( 'NONE',  ( 0.000000000000000000, 1.000000000000000000, 0.000000000000000000 ) ) ;
#55 = PERSON_AND_ORGANIZATION ( #178, #235 ) ;
#56 = EDGE_LOOP ( 'NONE', ( #171, #125, #211, #194 ) ) ;
#57 = CC_DESIGN_APPROVAL ( #4, ( #44 ) ) ;
#58 = PERSON_AND_ORGANIZATION_ROLE ( 'creator' ) ;
#59 = PERSON_AND_ORGANIZATION ( #178, #235 ) ;
#60 = ORIENTED_EDGE ( 'NONE', *, *, #21, .F. ) ;
#61 = ORIENTED_EDGE ( 'NONE', *, *, #91, .T. ) ;
#62 = ADVANCED_FACE ( 'NONE', ( #223 ), #141, .F. ) ;
#63 = LINE ( 'NONE', #66, #181 ) ;
#64 = CARTESIAN_POINT ( 'NONE',  ( 2390.000000000000000, 8.780717549886521735E-13, 0.000000000000000000 ) ) ;
#65 = CIRCLE ( 'NONE', #188, 57.15000000000000568 ) ;
#66 = CARTESIAN_POINT ( 'NONE',  ( 2390.000000000000000, 57.15000000000088676, 6.998856457127124130E-15 ) ) ;
#67 = CARTESIAN_POINT ( 'NONE',  ( -2390.000000000000000, 57.15000000000000568, 6.998856457127124130E-15 ) ) ;
#68 = DIRECTION ( 'NONE',  ( -1.000000000000000000, -1.836970198721029688E-16, -0.000000000000000000 ) ) ;
#69 = EDGE_CURVE ( 'NONE', #45, #48, #47, .T. ) ;
#70 = PERSON_AND_ORGANIZATION_ROLE ( 'creator' ) ;
#71 = CARTESIAN_POINT ( 'NONE',  ( 2390.000000000000000, -57.14999999999912461, 0.000000000000000000 ) ) ;
#72 = FACE_BOUND ( 'NONE', #46, .T. ) ;
#73 = CALENDAR_DATE ( 2026, 20, 1 ) ;
#74 = LOCAL_TIME ( 10, 21, 23.00000000000000000, #127 ) ;
#75 = APPROVAL_ROLE ( '' ) ;
#76 = LOCAL_TIME ( 10, 21, 23.00000000000000000, #98 ) ;
#77 = CC_DESIGN_PERSON_AND_ORGANIZATION_ASSIGNMENT ( #22, #58, ( #147 ) ) ;
#78 = DATE_AND_TIME ( #176, #245 ) ;
#79 = COORDINATED_UNIVERSAL_TIME_OFFSET ( 10, 0, .AHEAD. ) ;
#80 = LOCAL_TIME ( 10, 21, 23.00000000000000000, #89 ) ;
#81 = CARTESIAN_POINT ( 'NONE',  ( 2390.000000000000000, 51.15000000000088676, 6.264068377638712452E-15 ) ) ;
#82 = DIRECTION ( 'NONE',  ( 1.000000000000000000, 1.836970198721029688E-16, 0.000000000000000000 ) ) ;
#83 = DIRECTION ( 'NONE',  ( 1.000000000000000000, 1.836970198721029688E-16, 0.000000000000000000 ) ) ;
#84 = AXIS2_PLACEMENT_3D ( 'NONE', #229, #148, #231 ) ;
#85 = CC_DESIGN_PERSON_AND_ORGANIZATION_ASSIGNMENT ( #55, #190, ( #238 ) ) ;
#86 = DIRECTION ( 'NONE',  ( 1.000000000000000000, 1.836970198721029688E-16, 0.000000000000000000 ) ) ;
#87 = CARTESIAN_POINT ( 'NONE',  ( -2390.000000000000000, 0.000000000000000000, 0.000000000000000000 ) ) ;
#88 = CARTESIAN_POINT ( 'NONE',  ( 0.000000000000000000, 0.000000000000000000, 0.000000000000000000 ) ) ;
#89 = COORDINATED_UNIVERSAL_TIME_OFFSET ( 10, 0, .AHEAD. ) ;
#90 = PRODUCT_RELATED_PRODUCT_CATEGORY ( 'detail', '', ( #238 ) ) ;
#91 = EDGE_CURVE ( 'NONE', #202, #177, #183, .T. ) ;
#92 = APPROVAL_ROLE ( '' ) ;
#93 = DIRECTION ( 'NONE',  ( -1.000000000000000000, -1.836970198721029688E-16, -0.000000000000000000 ) ) ;
#94 = CC_DESIGN_PERSON_AND_ORGANIZATION_ASSIGNMENT ( #156, #248, ( #218 ) ) ;
#95 = ORIENTED_EDGE ( 'NONE', *, *, #216, .T. ) ;
#96 = DATE_AND_TIME ( #196, #102 ) ;
#97 = DESIGN_CONTEXT ( 'detailed design', #249, 'design' ) ;
#98 = COORDINATED_UNIVERSAL_TIME_OFFSET ( 10, 0, .AHEAD. ) ;
#99 = ORIENTED_EDGE ( 'NONE', *, *, #91, .F. ) ;
#100 = ORIENTED_EDGE ( 'NONE', *, *, #155, .T. ) ;
#101 = ORIENTED_EDGE ( 'NONE', *, *, #27, .F. ) ;
#102 = LOCAL_TIME ( 10, 21, 23.00000000000000000, #79 ) ;
#103 = CARTESIAN_POINT ( 'NONE',  ( 2390.000000000000000, -51.14999999999912461, 0.000000000000000000 ) ) ;
#104 = DIRECTION ( 'NONE',  ( -1.000000000000000000, -1.836970198721029688E-16, -0.000000000000000000 ) ) ;
#105 = ORIENTED_EDGE ( 'NONE', *, *, #123, .F. ) ;
#106 = APPROVAL_PERSON_ORGANIZATION ( #59, #115, #75 ) ;
#107 = VERTEX_POINT ( 'NONE', #236 ) ;
#108 = APPROVAL_STATUS ( 'not_yet_approved' ) ;
#109 = AXIS2_PLACEMENT_3D ( 'NONE', #8, #86, #219 ) ;
#110 = FACE_OUTER_BOUND ( 'NONE', #28, .T. ) ;
#111 = ADVANCED_FACE ( 'NONE', ( #5 ), #179, .T. ) ;
#112 =( NAMED_UNIT ( * ) SI_UNIT ( $, .STERADIAN. ) SOLID_ANGLE_UNIT ( ) );
#113 = APPLICATION_PROTOCOL_DEFINITION ( 'international standard', 'config_control_design', 1994, #200 ) ;
#114 = CIRCLE ( 'NONE', #134, 51.15000000000000568 ) ;
#115 = APPROVAL ( #135, 'UNSPECIFIED' ) ;
#116 = DIRECTION ( 'NONE',  ( 0.000000000000000000, 1.000000000000000000, 0.000000000000000000 ) ) ;
#117 = EDGE_LOOP ( 'NONE', ( #174, #154, #61, #105 ) ) ;
#118 = UNCERTAINTY_MEASURE_WITH_UNIT (LENGTH_MEASURE( 1.000000000000000082E-05 ), #191, 'distance_accuracy_value', 'NONE');
#119 = ORIENTED_EDGE ( 'NONE', *, *, #160, .F. ) ;
#120 = FACE_OUTER_BOUND ( 'NONE', #117, .T. ) ;
#121 = DIRECTION ( 'NONE',  ( -1.000000000000000000, -1.836970198721029688E-16, -0.000000000000000000 ) ) ;
#122 = DIRECTION ( 'NONE',  ( 1.000000000000000000, 1.836970198721029688E-16, 0.000000000000000000 ) ) ;
#123 = EDGE_CURVE ( 'NONE', #107, #177, #242, .T. ) ;
#124 = DIRECTION ( 'NONE',  ( 1.000000000000000000, 1.836970198721029688E-16, 0.000000000000000000 ) ) ;
#125 = ORIENTED_EDGE ( 'NONE', *, *, #9, .T. ) ;
#126 = DATE_AND_TIME ( #187, #80 ) ;
#127 = COORDINATED_UNIVERSAL_TIME_OFFSET ( 10, 0, .AHEAD. ) ;
#128 = APPLICATION_PROTOCOL_DEFINITION ( 'international standard', 'config_control_design', 1994, #249 ) ;
#129 = AXIS2_PLACEMENT_3D ( 'NONE', #221, #121, #199 ) ;
#130 = DATE_AND_TIME ( #73, #74 ) ;
#131 = CALENDAR_DATE ( 2026, 20, 1 ) ;
#132 = DATE_AND_TIME ( #131, #76 ) ;
#133 = EDGE_LOOP ( 'NONE', ( #2, #100, #60, #99 ) ) ;
#134 = AXIS2_PLACEMENT_3D ( 'NONE', #237, #222, #143 ) ;
#135 = APPROVAL_STATUS ( 'not_yet_approved' ) ;
#136 = ORIENTED_EDGE ( 'NONE', *, *, #9, .F. ) ;
#137 = CC_DESIGN_APPROVAL ( #115, ( #218 ) ) ;
#138 = DIRECTION ( 'NONE',  ( 1.000000000000000000, 1.836970198721029688E-16, 0.000000000000000000 ) ) ;
#139 = MANIFOLD_SOLID_BREP ( 'Stainless chs 114.3 X 6.019 CHS(1)', #153 ) ;
#140 = EDGE_LOOP ( 'NONE', ( #214, #144 ) ) ;
#141 = CYLINDRICAL_SURFACE ( 'NONE', #142, 51.15000000000000568 ) ;
#142 = AXIS2_PLACEMENT_3D ( 'NONE', #53, #51, #12 ) ;
#143 = DIRECTION ( 'NONE',  ( 0.000000000000000000, 1.000000000000000000, 0.000000000000000000 ) ) ;
#144 = ORIENTED_EDGE ( 'NONE', *, *, #123, .T. ) ;
#145 = DIRECTION ( 'NONE',  ( -1.836970198721029688E-16, 1.000000000000000000, 0.000000000000000000 ) ) ;
#146 = CC_DESIGN_DATE_AND_TIME_ASSIGNMENT ( #126, #206, ( #44 ) ) ;
#147 = PRODUCT_DEFINITION_FORMATION_WITH_SPECIFIED_SOURCE ( 'ANY', '', #238, .NOT_KNOWN. ) ;
#148 = DIRECTION ( 'NONE',  ( 1.000000000000000000, 1.836970198721029688E-16, 0.000000000000000000 ) ) ;
#149 = MECHANICAL_CONTEXT ( 'NONE', #200, 'mechanical' ) ;
#150 = CYLINDRICAL_SURFACE ( 'NONE', #6, 57.15000000000000568 ) ;
#151 = AXIS2_PLACEMENT_3D ( 'NONE', #88, #16, #170 ) ;
#152 = ADVANCED_BREP_SHAPE_REPRESENTATION ( '13-2919-2-1_REV_', ( #139, #151 ), #184 ) ;
#153 = CLOSED_SHELL ( 'NONE', ( #111, #62, #193, #232, #220, #233 ) ) ;
#154 = ORIENTED_EDGE ( 'NONE', *, *, #27, .T. ) ;
#155 = EDGE_CURVE ( 'NONE', #42, #107, #201, .T. ) ;
#156 = PERSON_AND_ORGANIZATION ( #178, #235 ) ;
#157 = CIRCLE ( 'NONE', #228, 51.15000000000000568 ) ;
#158 = APPROVAL_DATE_TIME ( #96, #203 ) ;
#159 = ORIENTED_EDGE ( 'NONE', *, *, #14, .T. ) ;
#160 = EDGE_CURVE ( 'NONE', #202, #42, #157, .T. ) ;
#161 = VECTOR ( 'NONE', #68, 1000.000000000000000 ) ;
#162 = DIRECTION ( 'NONE',  ( 0.000000000000000000, 1.000000000000000000, 0.000000000000000000 ) ) ;
#163 = CARTESIAN_POINT ( 'NONE',  ( -2390.000000000000000, 0.000000000000000000, 0.000000000000000000 ) ) ;
#164 = CARTESIAN_POINT ( 'NONE',  ( 2390.000000000000000, 8.780717549886521735E-13, 0.000000000000000000 ) ) ;
#165 = VECTOR ( 'NONE', #208, 1000.000000000000000 ) ;
#166 = DIRECTION ( 'NONE',  ( -1.000000000000000000, -1.836970198721029688E-16, -0.000000000000000000 ) ) ;
#167 = ORIENTED_EDGE ( 'NONE', *, *, #35, .T. ) ;
#168 = FACE_BOUND ( 'NONE', #140, .T. ) ;
#169 = LINE ( 'NONE', #71, #165 ) ;
#170 = DIRECTION ( 'NONE',  ( 1.000000000000000000, 0.000000000000000000, 0.000000000000000000 ) ) ;
#171 = ORIENTED_EDGE ( 'NONE', *, *, #14, .F. ) ;
#172 = CC_DESIGN_PERSON_AND_ORGANIZATION_ASSIGNMENT ( #195, #24, ( #147 ) ) ;
#173 = CIRCLE ( 'NONE', #207, 57.15000000000000568 ) ;
#174 = ORIENTED_EDGE ( 'NONE', *, *, #155, .F. ) ;
#175 = SECURITY_CLASSIFICATION_LEVEL ( 'unclassified' ) ;
#176 = CALENDAR_DATE ( 2026, 20, 1 ) ;
#177 = VERTEX_POINT ( 'NONE', #49 ) ;
#178 = PERSON ( 'UNSPECIFIED', 'UNSPECIFIED', 'UNSPECIFIED', ('UNSPECIFIED'), ('UNSPECIFIED'), ('UNSPECIFIED') ) ;
#179 = CYLINDRICAL_SURFACE ( 'NONE', #205, 57.15000000000000568 ) ;
#180 = CARTESIAN_POINT ( 'NONE',  ( 2390.000000000000000, 8.780717549886521735E-13, 0.000000000000000000 ) ) ;
#181 = VECTOR ( 'NONE', #104, 1000.000000000000000 ) ;
#182 = DIRECTION ( 'NONE',  ( 0.000000000000000000, 1.000000000000000000, 0.000000000000000000 ) ) ;
#183 = LINE ( 'NONE', #50, #39 ) ;
#184 =( GEOMETRIC_REPRESENTATION_CONTEXT ( 3 ) GLOBAL_UNCERTAINTY_ASSIGNED_CONTEXT ( ( #118 ) ) GLOBAL_UNIT_ASSIGNED_CONTEXT ( ( #191, #41, #112 ) ) REPRESENTATION_CONTEXT ( 'NONE', 'WORKASPACE' ) );
#185 = CC_DESIGN_PERSON_AND_ORGANIZATION_ASSIGNMENT ( #241, #70, ( #44 ) ) ;
#186 = CARTESIAN_POINT ( 'NONE',  ( -2390.000000000000000, -57.15000000000000568, 0.000000000000000000 ) ) ;
#187 = CALENDAR_DATE ( 2026, 20, 1 ) ;
#188 = AXIS2_PLACEMENT_3D ( 'NONE', #180, #31, #182 ) ;
#189 = FACE_OUTER_BOUND ( 'NONE', #247, .T. ) ;
#190 = PERSON_AND_ORGANIZATION_ROLE ( 'design_owner' ) ;
#191 =( LENGTH_UNIT ( ) NAMED_UNIT ( * ) SI_UNIT ( .MILLI., .METRE. ) );
#192 = AXIS2_PLACEMENT_3D ( 'NONE', #163, #124, #162 ) ;
#193 = ADVANCED_FACE ( 'NONE', ( #120 ), #198, .F. ) ;
#194 = ORIENTED_EDGE ( 'NONE', *, *, #226, .F. ) ;
#195 = PERSON_AND_ORGANIZATION ( #178, #235 ) ;
#196 = CALENDAR_DATE ( 2026, 20, 1 ) ;
#197 = ORIENTED_EDGE ( 'NONE', *, *, #69, .F. ) ;
#198 = CYLINDRICAL_SURFACE ( 'NONE', #129, 51.15000000000000568 ) ;
#199 = DIRECTION ( 'NONE',  ( 0.000000000000000000, -1.000000000000000000, 0.000000000000000000 ) ) ;
#200 = APPLICATION_CONTEXT ( 'configuration controlled 3d designs of mechanical parts and assemblies' ) ;
#201 = LINE ( 'NONE', #81, #161 ) ;
#202 = VERTEX_POINT ( 'NONE', #103 ) ;
#203 = APPROVAL ( #108, 'UNSPECIFIED' ) ;
#204 = EDGE_LOOP ( 'NONE', ( #30, #197 ) ) ;
#205 = AXIS2_PLACEMENT_3D ( 'NONE', #10, #166, #240 ) ;
#206 = DATE_TIME_ROLE ( 'creation_date' ) ;
#207 = AXIS2_PLACEMENT_3D ( 'NONE', #164, #83, #239 ) ;
#208 = DIRECTION ( 'NONE',  ( -1.000000000000000000, -1.836970198721029688E-16, -0.000000000000000000 ) ) ;
#209 = FACE_OUTER_BOUND ( 'NONE', #204, .T. ) ;
#210 = DIRECTION ( 'NONE',  ( 1.000000000000000000, 1.836970198721029688E-16, 0.000000000000000000 ) ) ;
#211 = ORIENTED_EDGE ( 'NONE', *, *, #69, .T. ) ;
#212 = SHAPE_DEFINITION_REPRESENTATION ( #224, #152 ) ;
#213 = AXIS2_PLACEMENT_3D ( 'NONE', #87, #122, #33 ) ;
#214 = ORIENTED_EDGE ( 'NONE', *, *, #21, .T. ) ;
#215 = COORDINATED_UNIVERSAL_TIME_OFFSET ( 10, 0, .AHEAD. ) ;
#216 = EDGE_CURVE ( 'NONE', #48, #45, #19, .T. ) ;
#217 = ORIENTED_EDGE ( 'NONE', *, *, #35, .F. ) ;
#218 = SECURITY_CLASSIFICATION ( '', '', #175 ) ;
#219 = DIRECTION ( 'NONE',  ( 0.000000000000000000, 1.000000000000000000, 0.000000000000000000 ) ) ;
#220 = ADVANCED_FACE ( 'NONE', ( #72, #189 ), #230, .T. ) ;
#221 = CARTESIAN_POINT ( 'NONE',  ( 2390.000000000000000, 8.780717549886521735E-13, 0.000000000000000000 ) ) ;
#222 = DIRECTION ( 'NONE',  ( 1.000000000000000000, 1.836970198721029688E-16, 0.000000000000000000 ) ) ;
#223 = FACE_OUTER_BOUND ( 'NONE', #133, .T. ) ;
#224 = PRODUCT_DEFINITION_SHAPE ( 'NONE', 'NONE',  #44 ) ;
#225 = DIRECTION ( 'NONE',  ( -1.000000000000000000, -1.836970198721029688E-16, -0.000000000000000000 ) ) ;
#226 = EDGE_CURVE ( 'NONE', #26, #48, #169, .T. ) ;
#227 = CARTESIAN_POINT ( 'NONE',  ( 2390.000000000000000, 57.15000000000087965, 6.998856457127176195E-15 ) ) ;
#228 = AXIS2_PLACEMENT_3D ( 'NONE', #64, #138, #54 ) ;
#229 = CARTESIAN_POINT ( 'NONE',  ( -2390.000000000000000, 0.000000000000000000, 0.000000000000000000 ) ) ;
#230 = PLANE ( 'NONE',  #23 ) ;
#231 = DIRECTION ( 'NONE',  ( -1.836970198721029688E-16, 1.000000000000000000, 0.000000000000000000 ) ) ;
#232 = ADVANCED_FACE ( 'NONE', ( #110 ), #150, .T. ) ;
#233 = ADVANCED_FACE ( 'NONE', ( #168, #209 ), #243, .F. ) ;
#234 = VERTEX_POINT ( 'NONE', #227 ) ;
#235 = ORGANIZATION ( 'UNSPECIFIED', 'UNSPECIFIED', '' ) ;
#236 = CARTESIAN_POINT ( 'NONE',  ( -2390.000000000000000, 51.15000000000000568, 6.264068377638712452E-15 ) ) ;
#237 = CARTESIAN_POINT ( 'NONE',  ( -2390.000000000000000, 0.000000000000000000, 0.000000000000000000 ) ) ;
#238 = PRODUCT ( '13-2919-2-1_REV_', '13-2919-2-1_REV_', '', ( #149 ) ) ;
#239 = DIRECTION ( 'NONE',  ( 0.000000000000000000, 1.000000000000000000, 0.000000000000000000 ) ) ;
#240 = DIRECTION ( 'NONE',  ( 0.000000000000000000, -1.000000000000000000, 0.000000000000000000 ) ) ;
#241 = PERSON_AND_ORGANIZATION ( #178, #235 ) ;
#242 = CIRCLE ( 'NONE', #213, 51.15000000000000568 ) ;
#243 = PLANE ( 'NONE',  #84 ) ;
#244 = CC_DESIGN_DATE_AND_TIME_ASSIGNMENT ( #132, #1, ( #218 ) ) ;
#245 = LOCAL_TIME ( 10, 21, 23.00000000000000000, #215 ) ;
#246 = APPROVAL_DATE_TIME ( #78, #115 ) ;
#247 = EDGE_LOOP ( 'NONE', ( #167, #159 ) ) ;
#248 = PERSON_AND_ORGANIZATION_ROLE ( 'classification_officer' ) ;
#249 = APPLICATION_CONTEXT ( 'configuration controlled 3d designs of mechanical parts and assemblies' ) ;
ENDSEC;
END-ISO-10303-21;
