ISO-10303-21;
HEADER;
FILE_DESCRIPTION (( 'STEP AP203' ),
    '1' );
FILE_NAME ('13-2919-3-2_REV_.step',
    '2026-01-19T23:24:09',
    ( '' ),
    ( '' ),
    'SwSTEP 2.0',
    'SolidWorks 2025',
    '' );
FILE_SCHEMA (( 'CONFIG_CONTROL_DESIGN' ));
ENDSEC;

DATA;
#1 = AXIS2_PLACEMENT_3D ( 'NONE', #177, #180, #8 ) ;
#2 = ORIENTED_EDGE ( 'NONE', *, *, #101, .F. ) ;
#3 = ORIENTED_EDGE ( 'NONE', *, *, #214, .F. ) ;
#4 = ORIENTED_EDGE ( 'NONE', *, *, #193, .F. ) ;
#5 = AXIS2_PLACEMENT_3D ( 'NONE', #243, #70, #206 ) ;
#6 = DIRECTION ( 'NONE',  ( 1.000000000000000000, 1.836970198721029934E-16, 0.000000000000000000 ) ) ;
#7 = VERTEX_POINT ( 'NONE', #202 ) ;
#8 = DIRECTION ( 'NONE',  ( -1.836970198721029934E-16, 1.000000000000000000, 0.000000000000000000 ) ) ;
#9 = CLOSED_SHELL ( 'NONE', ( #161, #48, #97, #182, #122, #233 ) ) ;
#10 = DIRECTION ( 'NONE',  ( 1.000000000000000000, 1.836970198721029934E-16, 0.000000000000000000 ) ) ;
#11 = CYLINDRICAL_SURFACE ( 'NONE', #12, 57.15000000000000568 ) ;
#12 = AXIS2_PLACEMENT_3D ( 'NONE', #39, #84, #44 ) ;
#13 = PERSON_AND_ORGANIZATION ( #91, #73 ) ;
#14 = APPROVAL ( #204, 'UNSPECIFIED' ) ;
#15 = DATE_AND_TIME ( #189, #130 ) ;
#16 = DIRECTION ( 'NONE',  ( 1.000000000000000000, 1.836970198721029934E-16, 0.000000000000000000 ) ) ;
#17 = LOCAL_TIME ( 10, 24, 9.000000000000000000, #35 ) ;
#18 = ORIENTED_EDGE ( 'NONE', *, *, #149, .F. ) ;
#19 = PERSON_AND_ORGANIZATION ( #91, #73 ) ;
#20 = COORDINATED_UNIVERSAL_TIME_OFFSET ( 10, 0, .AHEAD. ) ;
#21 = ORIENTED_EDGE ( 'NONE', *, *, #193, .T. ) ;
#22 = PERSON_AND_ORGANIZATION ( #91, #73 ) ;
#23 = CARTESIAN_POINT ( 'NONE',  ( 725.0000000000000000, -57.14999999999974278, 0.000000000000000000 ) ) ;
#24 = CIRCLE ( 'NONE', #170, 57.15000000000000568 ) ;
#25 = ORIENTED_EDGE ( 'NONE', *, *, #101, .T. ) ;
#26 = ORIENTED_EDGE ( 'NONE', *, *, #55, .T. ) ;
#27 = VERTEX_POINT ( 'NONE', #61 ) ;
#28 = AXIS2_PLACEMENT_3D ( 'NONE', #159, #105, #82 ) ;
#29 = FACE_OUTER_BOUND ( 'NONE', #174, .T. ) ;
#30 = PERSON_AND_ORGANIZATION_ROLE ( 'creator' ) ;
#31 = CARTESIAN_POINT ( 'NONE',  ( -725.0000000000000000, 0.000000000000000000, 0.000000000000000000 ) ) ;
#32 = APPROVAL_PERSON_ORGANIZATION ( #13, #14, #244 ) ;
#33 = DIRECTION ( 'NONE',  ( -1.000000000000000000, -1.836970198721029934E-16, -0.000000000000000000 ) ) ;
#34 = MANIFOLD_SOLID_BREP ( 'Stainless chs 114.3 X 6.019 CHS(1)', #9 ) ;
#35 = COORDINATED_UNIVERSAL_TIME_OFFSET ( 10, 0, .AHEAD. ) ;
#36 = APPLICATION_CONTEXT ( 'configuration controlled 3d designs of mechanical parts and assemblies' ) ;
#37 = LOCAL_TIME ( 10, 24, 9.000000000000000000, #53 ) ;
#38 = CC_DESIGN_PERSON_AND_ORGANIZATION_ASSIGNMENT ( #188, #141, ( #120 ) ) ;
#39 = CARTESIAN_POINT ( 'NONE',  ( 725.0000000000000000, 2.663606788145493259E-13, 0.000000000000000000 ) ) ;
#40 = DIRECTION ( 'NONE',  ( -1.000000000000000000, -1.836970198721029934E-16, -0.000000000000000000 ) ) ;
#41 = DIRECTION ( 'NONE',  ( -1.000000000000000000, -1.836970198721029934E-16, -0.000000000000000000 ) ) ;
#42 = CARTESIAN_POINT ( 'NONE',  ( 725.0000000000000000, 57.15000000000026148, 6.998856457127139907E-15 ) ) ;
#43 = CYLINDRICAL_SURFACE ( 'NONE', #136, 57.15000000000000568 ) ;
#44 = DIRECTION ( 'NONE',  ( 0.000000000000000000, -1.000000000000000000, 0.000000000000000000 ) ) ;
#45 = AXIS2_PLACEMENT_3D ( 'NONE', #90, #65, #46 ) ;
#46 = DIRECTION ( 'NONE',  ( 0.000000000000000000, 1.000000000000000000, 0.000000000000000000 ) ) ;
#47 =( NAMED_UNIT ( * ) PLANE_ANGLE_UNIT ( ) SI_UNIT ( $, .RADIAN. ) );
#48 = ADVANCED_FACE ( 'NONE', ( #29 ), #200, .F. ) ;
#49 = SECURITY_CLASSIFICATION_LEVEL ( 'unclassified' ) ;
#50 = PERSON_AND_ORGANIZATION ( #91, #73 ) ;
#51 = EDGE_LOOP ( 'NONE', ( #59, #249 ) ) ;
#52 = UNCERTAINTY_MEASURE_WITH_UNIT (LENGTH_MEASURE( 1.000000000000000082E-05 ), #93, 'distance_accuracy_value', 'NONE');
#53 = COORDINATED_UNIVERSAL_TIME_OFFSET ( 10, 0, .AHEAD. ) ;
#54 = APPROVAL_PERSON_ORGANIZATION ( #72, #94, #171 ) ;
#55 = EDGE_CURVE ( 'NONE', #137, #27, #134, .T. ) ;
#56 = DIRECTION ( 'NONE',  ( 0.000000000000000000, -1.000000000000000000, 0.000000000000000000 ) ) ;
#57 = DIRECTION ( 'NONE',  ( 0.000000000000000000, -1.000000000000000000, 0.000000000000000000 ) ) ;
#58 = CC_DESIGN_APPROVAL ( #245, ( #218 ) ) ;
#59 = ORIENTED_EDGE ( 'NONE', *, *, #158, .T. ) ;
#60 = DIRECTION ( 'NONE',  ( -1.000000000000000000, -1.836970198721029934E-16, -0.000000000000000000 ) ) ;
#61 = CARTESIAN_POINT ( 'NONE',  ( 725.0000000000000000, -51.14999999999974278, 0.000000000000000000 ) ) ;
#62 = CIRCLE ( 'NONE', #28, 57.15000000000000568 ) ;
#63 = CIRCLE ( 'NONE', #232, 57.15000000000000568 ) ;
#64 = FACE_OUTER_BOUND ( 'NONE', #196, .T. ) ;
#65 = DIRECTION ( 'NONE',  ( 1.000000000000000000, 1.836970198721029934E-16, 0.000000000000000000 ) ) ;
#66 = COORDINATED_UNIVERSAL_TIME_OFFSET ( 10, 0, .AHEAD. ) ;
#67 = AXIS2_PLACEMENT_3D ( 'NONE', #160, #40, #57 ) ;
#68 = DIRECTION ( 'NONE',  ( 0.000000000000000000, 1.000000000000000000, 0.000000000000000000 ) ) ;
#69 = PRODUCT_DEFINITION ( 'UNKNOWN', '', #218, #126 ) ;
#70 = DIRECTION ( 'NONE',  ( 1.000000000000000000, 1.836970198721029934E-16, 0.000000000000000000 ) ) ;
#71 = APPROVAL_DATE_TIME ( #175, #245 ) ;
#72 = PERSON_AND_ORGANIZATION ( #91, #73 ) ;
#73 = ORGANIZATION ( 'UNSPECIFIED', 'UNSPECIFIED', '' ) ;
#74 = ORIENTED_EDGE ( 'NONE', *, *, #214, .T. ) ;
#75 = CALENDAR_DATE ( 2026, 20, 1 ) ;
#76 = VERTEX_POINT ( 'NONE', #108 ) ;
#77 = CALENDAR_DATE ( 2026, 20, 1 ) ;
#78 = VERTEX_POINT ( 'NONE', #118 ) ;
#79 = DATE_TIME_ROLE ( 'creation_date' ) ;
#80 = VERTEX_POINT ( 'NONE', #42 ) ;
#81 = EDGE_CURVE ( 'NONE', #137, #7, #199, .T. ) ;
#82 = DIRECTION ( 'NONE',  ( 0.000000000000000000, 1.000000000000000000, 0.000000000000000000 ) ) ;
#83 = APPLICATION_CONTEXT ( 'configuration controlled 3d designs of mechanical parts and assemblies' ) ;
#84 = DIRECTION ( 'NONE',  ( -1.000000000000000000, -1.836970198721029934E-16, -0.000000000000000000 ) ) ;
#85 = CARTESIAN_POINT ( 'NONE',  ( 725.0000000000000000, 51.15000000000027569, 6.264068377638729018E-15 ) ) ;
#86 = CC_DESIGN_SECURITY_CLASSIFICATION ( #104, ( #218 ) ) ;
#87 = CC_DESIGN_DATE_AND_TIME_ASSIGNMENT ( #150, #79, ( #69 ) ) ;
#88 = CARTESIAN_POINT ( 'NONE',  ( -725.0000000000000000, 0.000000000000000000, 0.000000000000000000 ) ) ;
#89 = ORIENTED_EDGE ( 'NONE', *, *, #187, .F. ) ;
#90 = CARTESIAN_POINT ( 'NONE',  ( 725.0000000000000000, 2.663606788145493259E-13, 0.000000000000000000 ) ) ;
#91 = PERSON ( 'UNSPECIFIED', 'UNSPECIFIED', 'UNSPECIFIED', ('UNSPECIFIED'), ('UNSPECIFIED'), ('UNSPECIFIED') ) ;
#92 = DIRECTION ( 'NONE',  ( 0.000000000000000000, -1.000000000000000000, 0.000000000000000000 ) ) ;
#93 =( LENGTH_UNIT ( ) NAMED_UNIT ( * ) SI_UNIT ( .MILLI., .METRE. ) );
#94 = APPROVAL ( #212, 'UNSPECIFIED' ) ;
#95 = EDGE_LOOP ( 'NONE', ( #219, #21 ) ) ;
#96 = DATE_AND_TIME ( #194, #17 ) ;
#97 = ADVANCED_FACE ( 'NONE', ( #198 ), #237, .F. ) ;
#98 = AXIS2_PLACEMENT_3D ( 'NONE', #109, #60, #56 ) ;
#99 = EDGE_LOOP ( 'NONE', ( #123, #26, #25, #18 ) ) ;
#100 = VERTEX_POINT ( 'NONE', #23 ) ;
#101 = EDGE_CURVE ( 'NONE', #27, #76, #106, .T. ) ;
#102 = ORIENTED_EDGE ( 'NONE', *, *, #143, .F. ) ;
#103 = PLANE ( 'NONE',  #1 ) ;
#104 = SECURITY_CLASSIFICATION ( '', '', #49 ) ;
#105 = DIRECTION ( 'NONE',  ( 1.000000000000000000, 1.836970198721029934E-16, 0.000000000000000000 ) ) ;
#106 = LINE ( 'NONE', #135, #227 ) ;
#107 = EDGE_CURVE ( 'NONE', #100, #80, #62, .T. ) ;
#108 = CARTESIAN_POINT ( 'NONE',  ( -725.0000000000000000, -51.15000000000001279, 0.000000000000000000 ) ) ;
#109 = CARTESIAN_POINT ( 'NONE',  ( 725.0000000000000000, 2.663606788145493259E-13, 0.000000000000000000 ) ) ;
#110 = COORDINATED_UNIVERSAL_TIME_OFFSET ( 10, 0, .AHEAD. ) ;
#111 =( NAMED_UNIT ( * ) SI_UNIT ( $, .STERADIAN. ) SOLID_ANGLE_UNIT ( ) );
#112 = CC_DESIGN_PERSON_AND_ORGANIZATION_ASSIGNMENT ( #50, #230, ( #218 ) ) ;
#113 = DATE_AND_TIME ( #77, #207 ) ;
#114 = EDGE_LOOP ( 'NONE', ( #129, #131 ) ) ;
#115 = PRODUCT_RELATED_PRODUCT_CATEGORY ( 'detail', '', ( #120 ) ) ;
#116 = ORIENTED_EDGE ( 'NONE', *, *, #178, .T. ) ;
#117 = ORIENTED_EDGE ( 'NONE', *, *, #197, .T. ) ;
#118 = CARTESIAN_POINT ( 'NONE',  ( -725.0000000000000000, 57.15000000000000568, 6.998856457127124130E-15 ) ) ;
#119 = AXIS2_PLACEMENT_3D ( 'NONE', #124, #236, #179 ) ;
#120 = PRODUCT ( '13-2919-3-2_REV_', '13-2919-3-2_REV_', '', ( #209 ) ) ;
#121 = DIRECTION ( 'NONE',  ( -1.000000000000000000, -1.836970198721029934E-16, -0.000000000000000000 ) ) ;
#122 = ADVANCED_FACE ( 'NONE', ( #201, #181 ), #103, .T. ) ;
#123 = ORIENTED_EDGE ( 'NONE', *, *, #81, .F. ) ;
#124 = CARTESIAN_POINT ( 'NONE',  ( -725.0000000000000000, 0.000000000000000000, 0.000000000000000000 ) ) ;
#125 = CIRCLE ( 'NONE', #211, 51.15000000000000568 ) ;
#126 = DESIGN_CONTEXT ( 'detailed design', #83, 'design' ) ;
#127 = PLANE ( 'NONE',  #5 ) ;
#128 = CC_DESIGN_PERSON_AND_ORGANIZATION_ASSIGNMENT ( #190, #30, ( #69 ) ) ;
#129 = ORIENTED_EDGE ( 'NONE', *, *, #197, .F. ) ;
#130 = LOCAL_TIME ( 10, 24, 9.000000000000000000, #66 ) ;
#131 = ORIENTED_EDGE ( 'NONE', *, *, #55, .F. ) ;
#132 = CC_DESIGN_DATE_AND_TIME_ASSIGNMENT ( #113, #153, ( #104 ) ) ;
#133 = FACE_OUTER_BOUND ( 'NONE', #223, .T. ) ;
#134 = CIRCLE ( 'NONE', #215, 51.15000000000000568 ) ;
#135 = CARTESIAN_POINT ( 'NONE',  ( 725.0000000000000000, -51.14999999999974278, 0.000000000000000000 ) ) ;
#136 = AXIS2_PLACEMENT_3D ( 'NONE', #242, #148, #92 ) ;
#137 = VERTEX_POINT ( 'NONE', #85 ) ;
#138 = DIRECTION ( 'NONE',  ( 0.000000000000000000, 1.000000000000000000, 0.000000000000000000 ) ) ;
#139 = ORIENTED_EDGE ( 'NONE', *, *, #107, .F. ) ;
#140 = AXIS2_PLACEMENT_3D ( 'NONE', #164, #168, #185 ) ;
#141 = PERSON_AND_ORGANIZATION_ROLE ( 'design_owner' ) ;
#142 = LINE ( 'NONE', #226, #216 ) ;
#143 = EDGE_CURVE ( 'NONE', #78, #154, #63, .T. ) ;
#144 = APPLICATION_PROTOCOL_DEFINITION ( 'international standard', 'config_control_design', 1994, #36 ) ;
#145 = ADVANCED_BREP_SHAPE_REPRESENTATION ( '13-2919-3-2_REV_', ( #34, #140 ), #191 ) ;
#146 = AXIS2_PLACEMENT_3D ( 'NONE', #31, #16, #68 ) ;
#147 = DIRECTION ( 'NONE',  ( 0.000000000000000000, 1.000000000000000000, 0.000000000000000000 ) ) ;
#148 = DIRECTION ( 'NONE',  ( -1.000000000000000000, -1.836970198721029934E-16, -0.000000000000000000 ) ) ;
#149 = EDGE_CURVE ( 'NONE', #7, #76, #125, .T. ) ;
#150 = DATE_AND_TIME ( #184, #176 ) ;
#151 = CC_DESIGN_APPROVAL ( #14, ( #69 ) ) ;
#152 = PERSON_AND_ORGANIZATION ( #91, #73 ) ;
#153 = DATE_TIME_ROLE ( 'classification_date' ) ;
#154 = VERTEX_POINT ( 'NONE', #222 ) ;
#155 = CC_DESIGN_PERSON_AND_ORGANIZATION_ASSIGNMENT ( #22, #213, ( #218 ) ) ;
#156 = APPROVAL_PERSON_ORGANIZATION ( #152, #245, #173 ) ;
#157 = ORIENTED_EDGE ( 'NONE', *, *, #187, .T. ) ;
#158 = EDGE_CURVE ( 'NONE', #76, #7, #247, .T. ) ;
#159 = CARTESIAN_POINT ( 'NONE',  ( 725.0000000000000000, 2.663606788145493259E-13, 0.000000000000000000 ) ) ;
#160 = CARTESIAN_POINT ( 'NONE',  ( 725.0000000000000000, 2.663606788145493259E-13, 0.000000000000000000 ) ) ;
#161 = ADVANCED_FACE ( 'NONE', ( #133 ), #11, .T. ) ;
#162 = EDGE_LOOP ( 'NONE', ( #89, #102 ) ) ;
#163 = ORIENTED_EDGE ( 'NONE', *, *, #178, .F. ) ;
#164 = CARTESIAN_POINT ( 'NONE',  ( 0.000000000000000000, 0.000000000000000000, 0.000000000000000000 ) ) ;
#165 = APPLICATION_PROTOCOL_DEFINITION ( 'international standard', 'config_control_design', 1994, #83 ) ;
#166 = APPROVAL_DATE_TIME ( #15, #14 ) ;
#167 = CIRCLE ( 'NONE', #146, 57.15000000000000568 ) ;
#168 = DIRECTION ( 'NONE',  ( 0.000000000000000000, 0.000000000000000000, 1.000000000000000000 ) ) ;
#169 = PERSON_AND_ORGANIZATION_ROLE ( 'classification_officer' ) ;
#170 = AXIS2_PLACEMENT_3D ( 'NONE', #248, #224, #147 ) ;
#171 = APPROVAL_ROLE ( '' ) ;
#172 = ORIENTED_EDGE ( 'NONE', *, *, #143, .T. ) ;
#173 = APPROVAL_ROLE ( '' ) ;
#174 = EDGE_LOOP ( 'NONE', ( #117, #234, #192, #2 ) ) ;
#175 = DATE_AND_TIME ( #75, #37 ) ;
#176 = LOCAL_TIME ( 10, 24, 9.000000000000000000, #110 ) ;
#177 = CARTESIAN_POINT ( 'NONE',  ( 725.0000000000000000, 2.663606788145493259E-13, 0.000000000000000000 ) ) ;
#178 = EDGE_CURVE ( 'NONE', #80, #78, #246, .T. ) ;
#179 = DIRECTION ( 'NONE',  ( 0.000000000000000000, 1.000000000000000000, 0.000000000000000000 ) ) ;
#180 = DIRECTION ( 'NONE',  ( 1.000000000000000000, 1.836970198721029934E-16, 0.000000000000000000 ) ) ;
#181 = FACE_OUTER_BOUND ( 'NONE', #95, .T. ) ;
#182 = ADVANCED_FACE ( 'NONE', ( #64 ), #43, .T. ) ;
#183 = DIRECTION ( 'NONE',  ( 1.000000000000000000, 1.836970198721029934E-16, 0.000000000000000000 ) ) ;
#184 = CALENDAR_DATE ( 2026, 20, 1 ) ;
#185 = DIRECTION ( 'NONE',  ( 1.000000000000000000, 0.000000000000000000, 0.000000000000000000 ) ) ;
#186 = CIRCLE ( 'NONE', #45, 51.15000000000000568 ) ;
#187 = EDGE_CURVE ( 'NONE', #154, #78, #167, .T. ) ;
#188 = PERSON_AND_ORGANIZATION ( #91, #73 ) ;
#189 = CALENDAR_DATE ( 2026, 20, 1 ) ;
#190 = PERSON_AND_ORGANIZATION ( #91, #73 ) ;
#191 =( GEOMETRIC_REPRESENTATION_CONTEXT ( 3 ) GLOBAL_UNCERTAINTY_ASSIGNED_CONTEXT ( ( #52 ) ) GLOBAL_UNIT_ASSIGNED_CONTEXT ( ( #93, #47, #111 ) ) REPRESENTATION_CONTEXT ( 'NONE', 'WORKASPACE' ) );
#192 = ORIENTED_EDGE ( 'NONE', *, *, #158, .F. ) ;
#193 = EDGE_CURVE ( 'NONE', #80, #100, #24, .T. ) ;
#194 = CALENDAR_DATE ( 2026, 20, 1 ) ;
#195 = SHAPE_DEFINITION_REPRESENTATION ( #220, #145 ) ;
#196 = EDGE_LOOP ( 'NONE', ( #163, #139, #74, #157 ) ) ;
#197 = EDGE_CURVE ( 'NONE', #27, #137, #186, .T. ) ;
#198 = FACE_OUTER_BOUND ( 'NONE', #99, .T. ) ;
#199 = LINE ( 'NONE', #241, #235 ) ;
#200 = CYLINDRICAL_SURFACE ( 'NONE', #67, 51.15000000000000568 ) ;
#201 = FACE_BOUND ( 'NONE', #114, .T. ) ;
#202 = CARTESIAN_POINT ( 'NONE',  ( -725.0000000000000000, 51.15000000000000568, 6.264068377638712452E-15 ) ) ;
#203 = VECTOR ( 'NONE', #205, 1000.000000000000000 ) ;
#204 = APPROVAL_STATUS ( 'not_yet_approved' ) ;
#205 = DIRECTION ( 'NONE',  ( -1.000000000000000000, -1.836970198721029934E-16, -0.000000000000000000 ) ) ;
#206 = DIRECTION ( 'NONE',  ( -1.836970198721029934E-16, 1.000000000000000000, 0.000000000000000000 ) ) ;
#207 = LOCAL_TIME ( 10, 24, 9.000000000000000000, #20 ) ;
#208 = CARTESIAN_POINT ( 'NONE',  ( 725.0000000000000000, 57.15000000000026859, 6.998856457127124130E-15 ) ) ;
#209 = MECHANICAL_CONTEXT ( 'NONE', #36, 'mechanical' ) ;
#210 = APPROVAL_STATUS ( 'not_yet_approved' ) ;
#211 = AXIS2_PLACEMENT_3D ( 'NONE', #88, #183, #138 ) ;
#212 = APPROVAL_STATUS ( 'not_yet_approved' ) ;
#213 = PERSON_AND_ORGANIZATION_ROLE ( 'creator' ) ;
#214 = EDGE_CURVE ( 'NONE', #100, #154, #142, .T. ) ;
#215 = AXIS2_PLACEMENT_3D ( 'NONE', #221, #6, #240 ) ;
#216 = VECTOR ( 'NONE', #33, 1000.000000000000000 ) ;
#217 = DIRECTION ( 'NONE',  ( 0.000000000000000000, 1.000000000000000000, 0.000000000000000000 ) ) ;
#218 = PRODUCT_DEFINITION_FORMATION_WITH_SPECIFIED_SOURCE ( 'ANY', '', #120, .NOT_KNOWN. ) ;
#219 = ORIENTED_EDGE ( 'NONE', *, *, #107, .T. ) ;
#220 = PRODUCT_DEFINITION_SHAPE ( 'NONE', 'NONE',  #69 ) ;
#221 = CARTESIAN_POINT ( 'NONE',  ( 725.0000000000000000, 2.663606788145493259E-13, 0.000000000000000000 ) ) ;
#222 = CARTESIAN_POINT ( 'NONE',  ( -725.0000000000000000, -57.14999999999999858, 0.000000000000000000 ) ) ;
#223 = EDGE_LOOP ( 'NONE', ( #4, #116, #172, #3 ) ) ;
#224 = DIRECTION ( 'NONE',  ( 1.000000000000000000, 1.836970198721029934E-16, 0.000000000000000000 ) ) ;
#225 = FACE_BOUND ( 'NONE', #51, .T. ) ;
#226 = CARTESIAN_POINT ( 'NONE',  ( 725.0000000000000000, -57.14999999999974278, 0.000000000000000000 ) ) ;
#227 = VECTOR ( 'NONE', #121, 1000.000000000000000 ) ;
#228 = FACE_OUTER_BOUND ( 'NONE', #162, .T. ) ;
#229 = CC_DESIGN_PERSON_AND_ORGANIZATION_ASSIGNMENT ( #19, #169, ( #104 ) ) ;
#230 = PERSON_AND_ORGANIZATION_ROLE ( 'design_supplier' ) ;
#231 = APPROVAL_DATE_TIME ( #96, #94 ) ;
#232 = AXIS2_PLACEMENT_3D ( 'NONE', #239, #10, #217 ) ;
#233 = ADVANCED_FACE ( 'NONE', ( #225, #228 ), #127, .F. ) ;
#234 = ORIENTED_EDGE ( 'NONE', *, *, #81, .T. ) ;
#235 = VECTOR ( 'NONE', #41, 1000.000000000000000 ) ;
#236 = DIRECTION ( 'NONE',  ( 1.000000000000000000, 1.836970198721029934E-16, 0.000000000000000000 ) ) ;
#237 = CYLINDRICAL_SURFACE ( 'NONE', #98, 51.15000000000000568 ) ;
#238 = CC_DESIGN_APPROVAL ( #94, ( #104 ) ) ;
#239 = CARTESIAN_POINT ( 'NONE',  ( -725.0000000000000000, 0.000000000000000000, 0.000000000000000000 ) ) ;
#240 = DIRECTION ( 'NONE',  ( 0.000000000000000000, 1.000000000000000000, 0.000000000000000000 ) ) ;
#241 = CARTESIAN_POINT ( 'NONE',  ( 725.0000000000000000, 51.15000000000026859, 6.264068377638712452E-15 ) ) ;
#242 = CARTESIAN_POINT ( 'NONE',  ( 725.0000000000000000, 2.663606788145493259E-13, 0.000000000000000000 ) ) ;
#243 = CARTESIAN_POINT ( 'NONE',  ( -725.0000000000000000, 0.000000000000000000, 0.000000000000000000 ) ) ;
#244 = APPROVAL_ROLE ( '' ) ;
#245 = APPROVAL ( #210, 'UNSPECIFIED' ) ;
#246 = LINE ( 'NONE', #208, #203 ) ;
#247 = CIRCLE ( 'NONE', #119, 51.15000000000000568 ) ;
#248 = CARTESIAN_POINT ( 'NONE',  ( 725.0000000000000000, 2.663606788145493259E-13, 0.000000000000000000 ) ) ;
#249 = ORIENTED_EDGE ( 'NONE', *, *, #149, .T. ) ;
ENDSEC;
END-ISO-10303-21;
