ISO-10303-21;
HEADER;
FILE_DESCRIPTION (( 'STEP AP203' ),
    '1' );
FILE_NAME ('13-2919-4-1_REV_.step',
    '2026-01-19T23:23:32',
    ( '' ),
    ( '' ),
    'SwSTEP 2.0',
    'SolidWorks 2025',
    '' );
FILE_SCHEMA (( 'CONFIG_CONTROL_DESIGN' ));
ENDSEC;

DATA;
#1 = EDGE_CURVE ( 'NONE', #242, #105, #56, .T. ) ;
#2 = CARTESIAN_POINT ( 'NONE',  ( -1623.000000000000000, -51.15000000000000568, 0.000000000000000000 ) ) ;
#3 = CARTESIAN_POINT ( 'NONE',  ( 1623.000000000000000, 5.962805265048462694E-13, 0.000000000000000000 ) ) ;
#4 = DIRECTION ( 'NONE',  ( 0.000000000000000000, 1.000000000000000000, 0.000000000000000000 ) ) ;
#5 = CC_DESIGN_DATE_AND_TIME_ASSIGNMENT ( #174, #69, ( #189 ) ) ;
#6 = CYLINDRICAL_SURFACE ( 'NONE', #139, 51.15000000000000568 ) ;
#7 =( NAMED_UNIT ( * ) SI_UNIT ( $, .STERADIAN. ) SOLID_ANGLE_UNIT ( ) );
#8 = PERSON_AND_ORGANIZATION ( #223, #32 ) ;
#9 = ADVANCED_FACE ( 'NONE', ( #157, #141 ), #123, .F. ) ;
#10 = CIRCLE ( 'NONE', #207, 51.15000000000000568 ) ;
#11 = APPROVAL_DATE_TIME ( #190, #21 ) ;
#12 = APPROVAL_DATE_TIME ( #191, #13 ) ;
#13 = APPROVAL ( #74, 'UNSPECIFIED' ) ;
#14 = APPLICATION_PROTOCOL_DEFINITION ( 'international standard', 'config_control_design', 1994, #216 ) ;
#15 = PRODUCT_DEFINITION_SHAPE ( 'NONE', 'NONE',  #237 ) ;
#16 = CARTESIAN_POINT ( 'NONE',  ( 1623.000000000000000, -51.14999999999940883, 0.000000000000000000 ) ) ;
#17 = ORIENTED_EDGE ( 'NONE', *, *, #225, .F. ) ;
#18 = CIRCLE ( 'NONE', #47, 51.15000000000000568 ) ;
#19 = VERTEX_POINT ( 'NONE', #16 ) ;
#20 = CARTESIAN_POINT ( 'NONE',  ( 1623.000000000000000, 51.15000000000060254, 6.264068377638711663E-15 ) ) ;
#21 = APPROVAL ( #222, 'UNSPECIFIED' ) ;
#22 = CARTESIAN_POINT ( 'NONE',  ( 1623.000000000000000, -57.14999999999940883, 0.000000000000000000 ) ) ;
#23 = CYLINDRICAL_SURFACE ( 'NONE', #132, 51.15000000000000568 ) ;
#24 = DIRECTION ( 'NONE',  ( -1.836970198721030181E-16, 1.000000000000000000, 0.000000000000000000 ) ) ;
#25 = CARTESIAN_POINT ( 'NONE',  ( 1623.000000000000000, 5.962805265048462694E-13, 0.000000000000000000 ) ) ;
#26 = LOCAL_TIME ( 10, 23, 32.00000000000000000, #92 ) ;
#27 = CARTESIAN_POINT ( 'NONE',  ( 0.000000000000000000, 0.000000000000000000, 0.000000000000000000 ) ) ;
#28 = COORDINATED_UNIVERSAL_TIME_OFFSET ( 10, 0, .AHEAD. ) ;
#29 = EDGE_CURVE ( 'NONE', #105, #177, #158, .T. ) ;
#30 = MECHANICAL_CONTEXT ( 'NONE', #216, 'mechanical' ) ;
#31 = ORIENTED_EDGE ( 'NONE', *, *, #62, .F. ) ;
#32 = ORGANIZATION ( 'UNSPECIFIED', 'UNSPECIFIED', '' ) ;
#33 = DIRECTION ( 'NONE',  ( 1.000000000000000000, 1.836970198721030181E-16, 0.000000000000000000 ) ) ;
#34 = CARTESIAN_POINT ( 'NONE',  ( -1623.000000000000000, 0.000000000000000000, 0.000000000000000000 ) ) ;
#35 = EDGE_CURVE ( 'NONE', #160, #177, #125, .T. ) ;
#36 = DIRECTION ( 'NONE',  ( 0.000000000000000000, 1.000000000000000000, 0.000000000000000000 ) ) ;
#37 = CYLINDRICAL_SURFACE ( 'NONE', #211, 57.15000000000000568 ) ;
#38 = DIRECTION ( 'NONE',  ( 1.000000000000000000, 1.836970198721030181E-16, 0.000000000000000000 ) ) ;
#39 = FACE_OUTER_BOUND ( 'NONE', #142, .T. ) ;
#40 = CLOSED_SHELL ( 'NONE', ( #150, #153, #184, #171, #159, #9 ) ) ;
#41 = PERSON_AND_ORGANIZATION_ROLE ( 'creator' ) ;
#42 = CC_DESIGN_APPROVAL ( #119, ( #181 ) ) ;
#43 = PERSON_AND_ORGANIZATION_ROLE ( 'design_owner' ) ;
#44 = VERTEX_POINT ( 'NONE', #100 ) ;
#45 = PERSON_AND_ORGANIZATION_ROLE ( 'design_supplier' ) ;
#46 = CC_DESIGN_DATE_AND_TIME_ASSIGNMENT ( #115, #134, ( #237 ) ) ;
#47 = AXIS2_PLACEMENT_3D ( 'NONE', #165, #238, #145 ) ;
#48 = PERSON_AND_ORGANIZATION ( #223, #32 ) ;
#49 = EDGE_LOOP ( 'NONE', ( #50, #248 ) ) ;
#50 = ORIENTED_EDGE ( 'NONE', *, *, #234, .T. ) ;
#51 = APPROVAL_PERSON_ORGANIZATION ( #117, #13, #90 ) ;
#52 = EDGE_CURVE ( 'NONE', #70, #44, #196, .T. ) ;
#53 = ORIENTED_EDGE ( 'NONE', *, *, #113, .T. ) ;
#54 = UNCERTAINTY_MEASURE_WITH_UNIT (LENGTH_MEASURE( 1.000000000000000082E-05 ), #64, 'distance_accuracy_value', 'NONE');
#55 = CARTESIAN_POINT ( 'NONE',  ( 1623.000000000000000, -57.14999999999940883, 0.000000000000000000 ) ) ;
#56 = CIRCLE ( 'NONE', #220, 57.15000000000000568 ) ;
#57 = AXIS2_PLACEMENT_3D ( 'NONE', #25, #110, #24 ) ;
#58 = DIRECTION ( 'NONE',  ( 0.000000000000000000, 1.000000000000000000, 0.000000000000000000 ) ) ;
#59 = DIRECTION ( 'NONE',  ( 1.000000000000000000, 1.836970198721030181E-16, 0.000000000000000000 ) ) ;
#60 = CARTESIAN_POINT ( 'NONE',  ( 1623.000000000000000, 5.962805265048462694E-13, 0.000000000000000000 ) ) ;
#61 = AXIS2_PLACEMENT_3D ( 'NONE', #233, #147, #197 ) ;
#62 = EDGE_CURVE ( 'NONE', #70, #19, #10, .T. ) ;
#63 = AXIS2_PLACEMENT_3D ( 'NONE', #27, #94, #166 ) ;
#64 =( LENGTH_UNIT ( ) NAMED_UNIT ( * ) SI_UNIT ( .MILLI., .METRE. ) );
#65 = CARTESIAN_POINT ( 'NONE',  ( -1623.000000000000000, -57.15000000000001279, 0.000000000000000000 ) ) ;
#66 = CC_DESIGN_PERSON_AND_ORGANIZATION_ASSIGNMENT ( #169, #45, ( #181 ) ) ;
#67 = COORDINATED_UNIVERSAL_TIME_OFFSET ( 10, 0, .AHEAD. ) ;
#68 = APPROVAL_PERSON_ORGANIZATION ( #205, #119, #118 ) ;
#69 = DATE_TIME_ROLE ( 'classification_date' ) ;
#70 = VERTEX_POINT ( 'NONE', #75 ) ;
#71 = SHAPE_DEFINITION_REPRESENTATION ( #15, #73 ) ;
#72 = CIRCLE ( 'NONE', #168, 51.15000000000000568 ) ;
#73 = ADVANCED_BREP_SHAPE_REPRESENTATION ( '13-2919-4-1_REV_', ( #114, #63 ), #201 ) ;
#74 = APPROVAL_STATUS ( 'not_yet_approved' ) ;
#75 = CARTESIAN_POINT ( 'NONE',  ( 1623.000000000000000, 51.15000000000060254, 6.264068377638747951E-15 ) ) ;
#76 = ORIENTED_EDGE ( 'NONE', *, *, #29, .T. ) ;
#77 = ORIENTED_EDGE ( 'NONE', *, *, #52, .T. ) ;
#78 = EDGE_CURVE ( 'NONE', #242, #160, #155, .T. ) ;
#79 = ORIENTED_EDGE ( 'NONE', *, *, #109, .F. ) ;
#80 = CARTESIAN_POINT ( 'NONE',  ( 1623.000000000000000, 5.962805265048462694E-13, 0.000000000000000000 ) ) ;
#81 = VECTOR ( 'NONE', #130, 1000.000000000000000 ) ;
#82 = APPROVAL_PERSON_ORGANIZATION ( #151, #21, #204 ) ;
#83 = FACE_BOUND ( 'NONE', #209, .T. ) ;
#84 = DIRECTION ( 'NONE',  ( -1.000000000000000000, -1.836970198721030181E-16, -0.000000000000000000 ) ) ;
#85 = DIRECTION ( 'NONE',  ( -1.000000000000000000, -1.836970198721030181E-16, -0.000000000000000000 ) ) ;
#86 = LOCAL_TIME ( 10, 23, 32.00000000000000000, #188 ) ;
#87 = FACE_OUTER_BOUND ( 'NONE', #124, .T. ) ;
#88 = CC_DESIGN_PERSON_AND_ORGANIZATION_ASSIGNMENT ( #8, #97, ( #189 ) ) ;
#89 = CARTESIAN_POINT ( 'NONE',  ( 1623.000000000000000, 5.962805265048462694E-13, 0.000000000000000000 ) ) ;
#90 = APPROVAL_ROLE ( '' ) ;
#91 = CIRCLE ( 'NONE', #61, 57.15000000000000568 ) ;
#92 = COORDINATED_UNIVERSAL_TIME_OFFSET ( 10, 0, .AHEAD. ) ;
#93 = LOCAL_TIME ( 10, 23, 32.00000000000000000, #28 ) ;
#94 = DIRECTION ( 'NONE',  ( 0.000000000000000000, 0.000000000000000000, 1.000000000000000000 ) ) ;
#95 = EDGE_CURVE ( 'NONE', #19, #122, #163, .T. ) ;
#96 = CALENDAR_DATE ( 2026, 20, 1 ) ;
#97 = PERSON_AND_ORGANIZATION_ROLE ( 'classification_officer' ) ;
#98 = VECTOR ( 'NONE', #179, 1000.000000000000000 ) ;
#99 = CC_DESIGN_APPROVAL ( #13, ( #237 ) ) ;
#100 = CARTESIAN_POINT ( 'NONE',  ( -1623.000000000000000, 51.15000000000000568, 6.264068377638711663E-15 ) ) ;
#101 = DESIGN_CONTEXT ( 'detailed design', #148, 'design' ) ;
#102 = ORIENTED_EDGE ( 'NONE', *, *, #29, .F. ) ;
#103 = ORIENTED_EDGE ( 'NONE', *, *, #1, .F. ) ;
#104 = AXIS2_PLACEMENT_3D ( 'NONE', #210, #178, #192 ) ;
#105 = VERTEX_POINT ( 'NONE', #22 ) ;
#106 = EDGE_LOOP ( 'NONE', ( #53, #77, #195, #231 ) ) ;
#107 = DIRECTION ( 'NONE',  ( 0.000000000000000000, -1.000000000000000000, 0.000000000000000000 ) ) ;
#108 = VECTOR ( 'NONE', #235, 1000.000000000000000 ) ;
#109 = EDGE_CURVE ( 'NONE', #177, #160, #91, .T. ) ;
#110 = DIRECTION ( 'NONE',  ( 1.000000000000000000, 1.836970198721030181E-16, 0.000000000000000000 ) ) ;
#111 = DIRECTION ( 'NONE',  ( 0.000000000000000000, 1.000000000000000000, 0.000000000000000000 ) ) ;
#112 = FACE_OUTER_BOUND ( 'NONE', #137, .T. ) ;
#113 = EDGE_CURVE ( 'NONE', #19, #70, #236, .T. ) ;
#114 = MANIFOLD_SOLID_BREP ( 'Stainless chs 114.3 X 6.019 CHS(1)', #40 ) ;
#115 = DATE_AND_TIME ( #203, #244 ) ;
#116 = CALENDAR_DATE ( 2026, 20, 1 ) ;
#117 = PERSON_AND_ORGANIZATION ( #223, #32 ) ;
#118 = APPROVAL_ROLE ( '' ) ;
#119 = APPROVAL ( #187, 'UNSPECIFIED' ) ;
#120 = ORIENTED_EDGE ( 'NONE', *, *, #78, .F. ) ;
#121 = AXIS2_PLACEMENT_3D ( 'NONE', #199, #85, #217 ) ;
#122 = VERTEX_POINT ( 'NONE', #2 ) ;
#123 = PLANE ( 'NONE',  #104 ) ;
#124 = EDGE_LOOP ( 'NONE', ( #154, #208, #173, #245 ) ) ;
#125 = CIRCLE ( 'NONE', #247, 57.15000000000000568 ) ;
#126 = CIRCLE ( 'NONE', #161, 57.15000000000000568 ) ;
#127 = DIRECTION ( 'NONE',  ( 1.000000000000000000, 1.836970198721030181E-16, 0.000000000000000000 ) ) ;
#128 = DIRECTION ( 'NONE',  ( 0.000000000000000000, -1.000000000000000000, 0.000000000000000000 ) ) ;
#129 = FACE_OUTER_BOUND ( 'NONE', #106, .T. ) ;
#130 = DIRECTION ( 'NONE',  ( -1.000000000000000000, -1.836970198721030181E-16, -0.000000000000000000 ) ) ;
#131 = DIRECTION ( 'NONE',  ( -1.000000000000000000, -1.836970198721030181E-16, -0.000000000000000000 ) ) ;
#132 = AXIS2_PLACEMENT_3D ( 'NONE', #89, #84, #215 ) ;
#133 = PERSON_AND_ORGANIZATION ( #223, #32 ) ;
#134 = DATE_TIME_ROLE ( 'creation_date' ) ;
#135 = AXIS2_PLACEMENT_3D ( 'NONE', #144, #59, #36 ) ;
#136 = CC_DESIGN_APPROVAL ( #21, ( #189 ) ) ;
#137 = EDGE_LOOP ( 'NONE', ( #230, #138 ) ) ;
#138 = ORIENTED_EDGE ( 'NONE', *, *, #1, .T. ) ;
#139 = AXIS2_PLACEMENT_3D ( 'NONE', #60, #131, #128 ) ;
#140 = DIRECTION ( 'NONE',  ( 0.000000000000000000, 1.000000000000000000, 0.000000000000000000 ) ) ;
#141 = FACE_OUTER_BOUND ( 'NONE', #213, .T. ) ;
#142 = EDGE_LOOP ( 'NONE', ( #103, #193, #156, #102 ) ) ;
#143 = PLANE ( 'NONE',  #57 ) ;
#144 = CARTESIAN_POINT ( 'NONE',  ( 1623.000000000000000, 5.962805265048462694E-13, 0.000000000000000000 ) ) ;
#145 = DIRECTION ( 'NONE',  ( 0.000000000000000000, 1.000000000000000000, 0.000000000000000000 ) ) ;
#146 = CARTESIAN_POINT ( 'NONE',  ( 1623.000000000000000, 57.15000000000060965, 6.998856457127159629E-15 ) ) ;
#147 = DIRECTION ( 'NONE',  ( 1.000000000000000000, 1.836970198721030181E-16, 0.000000000000000000 ) ) ;
#148 = APPLICATION_CONTEXT ( 'configuration controlled 3d designs of mechanical parts and assemblies' ) ;
#149 = PERSON_AND_ORGANIZATION_ROLE ( 'creator' ) ;
#150 = ADVANCED_FACE ( 'NONE', ( #39 ), #239, .T. ) ;
#151 = PERSON_AND_ORGANIZATION ( #223, #32 ) ;
#152 = ORIENTED_EDGE ( 'NONE', *, *, #109, .T. ) ;
#153 = ADVANCED_FACE ( 'NONE', ( #129 ), #6, .F. ) ;
#154 = ORIENTED_EDGE ( 'NONE', *, *, #52, .F. ) ;
#155 = LINE ( 'NONE', #228, #108 ) ;
#156 = ORIENTED_EDGE ( 'NONE', *, *, #35, .T. ) ;
#157 = FACE_BOUND ( 'NONE', #49, .T. ) ;
#158 = LINE ( 'NONE', #55, #226 ) ;
#159 = ADVANCED_FACE ( 'NONE', ( #83, #112 ), #143, .T. ) ;
#160 = VERTEX_POINT ( 'NONE', #182 ) ;
#161 = AXIS2_PLACEMENT_3D ( 'NONE', #198, #183, #4 ) ;
#162 = PRODUCT ( '13-2919-4-1_REV_', '13-2919-4-1_REV_', '', ( #30 ) ) ;
#163 = LINE ( 'NONE', #180, #81 ) ;
#164 = CARTESIAN_POINT ( 'NONE',  ( -1623.000000000000000, 0.000000000000000000, 0.000000000000000000 ) ) ;
#165 = CARTESIAN_POINT ( 'NONE',  ( -1623.000000000000000, 0.000000000000000000, 0.000000000000000000 ) ) ;
#166 = DIRECTION ( 'NONE',  ( 1.000000000000000000, 0.000000000000000000, 0.000000000000000000 ) ) ;
#167 = PRODUCT_RELATED_PRODUCT_CATEGORY ( 'detail', '', ( #162 ) ) ;
#168 = AXIS2_PLACEMENT_3D ( 'NONE', #164, #38, #111 ) ;
#169 = PERSON_AND_ORGANIZATION ( #223, #32 ) ;
#170 = COORDINATED_UNIVERSAL_TIME_OFFSET ( 10, 0, .AHEAD. ) ;
#171 = ADVANCED_FACE ( 'NONE', ( #214 ), #37, .T. ) ;
#172 = DATE_AND_TIME ( #96, #86 ) ;
#173 = ORIENTED_EDGE ( 'NONE', *, *, #95, .T. ) ;
#174 = DATE_AND_TIME ( #241, #26 ) ;
#175 = DIRECTION ( 'NONE',  ( 1.000000000000000000, 1.836970198721030181E-16, 0.000000000000000000 ) ) ;
#176 = CC_DESIGN_PERSON_AND_ORGANIZATION_ASSIGNMENT ( #219, #41, ( #237 ) ) ;
#177 = VERTEX_POINT ( 'NONE', #65 ) ;
#178 = DIRECTION ( 'NONE',  ( 1.000000000000000000, 1.836970198721030181E-16, 0.000000000000000000 ) ) ;
#179 = DIRECTION ( 'NONE',  ( -1.000000000000000000, -1.836970198721030181E-16, -0.000000000000000000 ) ) ;
#180 = CARTESIAN_POINT ( 'NONE',  ( 1623.000000000000000, -51.14999999999940883, 0.000000000000000000 ) ) ;
#181 = PRODUCT_DEFINITION_FORMATION_WITH_SPECIFIED_SOURCE ( 'ANY', '', #162, .NOT_KNOWN. ) ;
#182 = CARTESIAN_POINT ( 'NONE',  ( -1623.000000000000000, 57.15000000000000568, 6.998856457127122552E-15 ) ) ;
#183 = DIRECTION ( 'NONE',  ( 1.000000000000000000, 1.836970198721030181E-16, 0.000000000000000000 ) ) ;
#184 = ADVANCED_FACE ( 'NONE', ( #87 ), #23, .F. ) ;
#185 = DIRECTION ( 'NONE',  ( -1.000000000000000000, -1.836970198721030181E-16, -0.000000000000000000 ) ) ;
#186 = EDGE_CURVE ( 'NONE', #44, #122, #72, .T. ) ;
#187 = APPROVAL_STATUS ( 'not_yet_approved' ) ;
#188 = COORDINATED_UNIVERSAL_TIME_OFFSET ( 10, 0, .AHEAD. ) ;
#189 = SECURITY_CLASSIFICATION ( '', '', #221 ) ;
#190 = DATE_AND_TIME ( #116, #93 ) ;
#191 = DATE_AND_TIME ( #240, #194 ) ;
#192 = DIRECTION ( 'NONE',  ( -1.836970198721030181E-16, 1.000000000000000000, 0.000000000000000000 ) ) ;
#193 = ORIENTED_EDGE ( 'NONE', *, *, #78, .T. ) ;
#194 = LOCAL_TIME ( 10, 23, 32.00000000000000000, #170 ) ;
#195 = ORIENTED_EDGE ( 'NONE', *, *, #234, .F. ) ;
#196 = LINE ( 'NONE', #20, #98 ) ;
#197 = DIRECTION ( 'NONE',  ( 0.000000000000000000, 1.000000000000000000, 0.000000000000000000 ) ) ;
#198 = CARTESIAN_POINT ( 'NONE',  ( 1623.000000000000000, 5.962805265048462694E-13, 0.000000000000000000 ) ) ;
#199 = CARTESIAN_POINT ( 'NONE',  ( 1623.000000000000000, 5.962805265048462694E-13, 0.000000000000000000 ) ) ;
#200 =( NAMED_UNIT ( * ) PLANE_ANGLE_UNIT ( ) SI_UNIT ( $, .RADIAN. ) );
#201 =( GEOMETRIC_REPRESENTATION_CONTEXT ( 3 ) GLOBAL_UNCERTAINTY_ASSIGNED_CONTEXT ( ( #54 ) ) GLOBAL_UNIT_ASSIGNED_CONTEXT ( ( #64, #200, #7 ) ) REPRESENTATION_CONTEXT ( 'NONE', 'WORKASPACE' ) );
#202 = APPLICATION_PROTOCOL_DEFINITION ( 'international standard', 'config_control_design', 1994, #148 ) ;
#203 = CALENDAR_DATE ( 2026, 20, 1 ) ;
#204 = APPROVAL_ROLE ( '' ) ;
#205 = PERSON_AND_ORGANIZATION ( #223, #32 ) ;
#206 = CC_DESIGN_PERSON_AND_ORGANIZATION_ASSIGNMENT ( #48, #43, ( #162 ) ) ;
#207 = AXIS2_PLACEMENT_3D ( 'NONE', #80, #175, #246 ) ;
#208 = ORIENTED_EDGE ( 'NONE', *, *, #62, .T. ) ;
#209 = EDGE_LOOP ( 'NONE', ( #229, #31 ) ) ;
#210 = CARTESIAN_POINT ( 'NONE',  ( -1623.000000000000000, 0.000000000000000000, 0.000000000000000000 ) ) ;
#211 = AXIS2_PLACEMENT_3D ( 'NONE', #3, #185, #107 ) ;
#212 = DIRECTION ( 'NONE',  ( -1.000000000000000000, -1.836970198721030181E-16, -0.000000000000000000 ) ) ;
#213 = EDGE_LOOP ( 'NONE', ( #79, #224 ) ) ;
#214 = FACE_OUTER_BOUND ( 'NONE', #232, .T. ) ;
#215 = DIRECTION ( 'NONE',  ( 0.000000000000000000, -1.000000000000000000, 0.000000000000000000 ) ) ;
#216 = APPLICATION_CONTEXT ( 'configuration controlled 3d designs of mechanical parts and assemblies' ) ;
#217 = DIRECTION ( 'NONE',  ( 0.000000000000000000, -1.000000000000000000, 0.000000000000000000 ) ) ;
#218 = CC_DESIGN_PERSON_AND_ORGANIZATION_ASSIGNMENT ( #133, #149, ( #181 ) ) ;
#219 = PERSON_AND_ORGANIZATION ( #223, #32 ) ;
#220 = AXIS2_PLACEMENT_3D ( 'NONE', #249, #33, #140 ) ;
#221 = SECURITY_CLASSIFICATION_LEVEL ( 'unclassified' ) ;
#222 = APPROVAL_STATUS ( 'not_yet_approved' ) ;
#223 = PERSON ( 'UNSPECIFIED', 'UNSPECIFIED', 'UNSPECIFIED', ('UNSPECIFIED'), ('UNSPECIFIED'), ('UNSPECIFIED') ) ;
#224 = ORIENTED_EDGE ( 'NONE', *, *, #35, .F. ) ;
#225 = EDGE_CURVE ( 'NONE', #105, #242, #126, .T. ) ;
#226 = VECTOR ( 'NONE', #212, 1000.000000000000000 ) ;
#227 = CC_DESIGN_SECURITY_CLASSIFICATION ( #189, ( #181 ) ) ;
#228 = CARTESIAN_POINT ( 'NONE',  ( 1623.000000000000000, 57.15000000000060254, 6.998856457127122552E-15 ) ) ;
#229 = ORIENTED_EDGE ( 'NONE', *, *, #113, .F. ) ;
#230 = ORIENTED_EDGE ( 'NONE', *, *, #225, .T. ) ;
#231 = ORIENTED_EDGE ( 'NONE', *, *, #95, .F. ) ;
#232 = EDGE_LOOP ( 'NONE', ( #120, #17, #76, #152 ) ) ;
#233 = CARTESIAN_POINT ( 'NONE',  ( -1623.000000000000000, 0.000000000000000000, 0.000000000000000000 ) ) ;
#234 = EDGE_CURVE ( 'NONE', #122, #44, #18, .T. ) ;
#235 = DIRECTION ( 'NONE',  ( -1.000000000000000000, -1.836970198721030181E-16, -0.000000000000000000 ) ) ;
#236 = CIRCLE ( 'NONE', #135, 51.15000000000000568 ) ;
#237 = PRODUCT_DEFINITION ( 'UNKNOWN', '', #181, #101 ) ;
#238 = DIRECTION ( 'NONE',  ( 1.000000000000000000, 1.836970198721030181E-16, 0.000000000000000000 ) ) ;
#239 = CYLINDRICAL_SURFACE ( 'NONE', #121, 57.15000000000000568 ) ;
#240 = CALENDAR_DATE ( 2026, 20, 1 ) ;
#241 = CALENDAR_DATE ( 2026, 20, 1 ) ;
#242 = VERTEX_POINT ( 'NONE', #146 ) ;
#243 = APPROVAL_DATE_TIME ( #172, #119 ) ;
#244 = LOCAL_TIME ( 10, 23, 32.00000000000000000, #67 ) ;
#245 = ORIENTED_EDGE ( 'NONE', *, *, #186, .F. ) ;
#246 = DIRECTION ( 'NONE',  ( 0.000000000000000000, 1.000000000000000000, 0.000000000000000000 ) ) ;
#247 = AXIS2_PLACEMENT_3D ( 'NONE', #34, #127, #58 ) ;
#248 = ORIENTED_EDGE ( 'NONE', *, *, #186, .T. ) ;
#249 = CARTESIAN_POINT ( 'NONE',  ( 1623.000000000000000, 5.962805265048462694E-13, 0.000000000000000000 ) ) ;
ENDSEC;
END-ISO-10303-21;
