ISO-10303-21;
HEADER;
FILE_DESCRIPTION (( 'STEP AP203' ),
    '1' );
FILE_NAME ('13-2919-7-1_REV_.step',
    '2026-01-19T23:19:58',
    ( '' ),
    ( '' ),
    'SwSTEP 2.0',
    'SolidWorks 2025',
    '' );
FILE_SCHEMA (( 'CONFIG_CONTROL_DESIGN' ));
ENDSEC;

DATA;
#1 = EDGE_CURVE ( 'NONE', #49, #24, #195, .T. ) ;
#2 = VERTEX_POINT ( 'NONE', #29 ) ;
#3 = EDGE_CURVE ( 'NONE', #24, #140, #9, .T. ) ;
#4 = ORIENTED_EDGE ( 'NONE', *, *, #145, .T. ) ;
#5 = EDGE_CURVE ( 'NONE', #81, #197, #239, .T. ) ;
#6 = AXIS2_PLACEMENT_3D ( 'NONE', #198, #28, #102 ) ;
#7 = CARTESIAN_POINT ( 'NONE',  ( 1283.000000000000000, 6.998856457127124130E-15, -57.15000000000000568 ) ) ;
#8 = ORIENTED_EDGE ( 'NONE', *, *, #1, .T. ) ;
#9 = LINE ( 'NONE', #7, #235 ) ;
#10 = CARTESIAN_POINT ( 'NONE',  ( 1083.000000000000000, 0.000000000000000000, 0.000000000000000000 ) ) ;
#11 = AXIS2_PLACEMENT_3D ( 'NONE', #188, #91, #209 ) ;
#12 = EDGE_CURVE ( 'NONE', #63, #81, #221, .T. ) ;
#13 =( LENGTH_UNIT ( ) NAMED_UNIT ( * ) SI_UNIT ( .MILLI., .METRE. ) );
#14 = CYLINDRICAL_SURFACE ( 'NONE', #53, 57.15000000000000568 ) ;
#15 = DIRECTION ( 'NONE',  ( 0.000000000000000000, 0.000000000000000000, -1.000000000000000000 ) ) ;
#16 = VECTOR ( 'NONE', #60, 1000.000000000000000 ) ;
#17 = DATE_AND_TIME ( #38, #26 ) ;
#18 = PERSON_AND_ORGANIZATION ( #162, #178 ) ;
#19 = APPROVAL_DATE_TIME ( #17, #128 ) ;
#20 = ORIENTED_EDGE ( 'NONE', *, *, #196, .T. ) ;
#21 = AXIS2_PLACEMENT_3D ( 'NONE', #136, #101, #142 ) ;
#22 = CC_DESIGN_SECURITY_CLASSIFICATION ( #76, ( #133 ) ) ;
#23 = ORIENTED_EDGE ( 'NONE', *, *, #115, .T. ) ;
#24 = VERTEX_POINT ( 'NONE', #236 ) ;
#25 = DIRECTION ( 'NONE',  ( 1.000000000000000000, 0.000000000000000000, 0.000000000000000000 ) ) ;
#26 = LOCAL_TIME ( 10, 19, 58.00000000000000000, #211 ) ;
#27 = DIRECTION ( 'NONE',  ( 0.000000000000000000, 0.000000000000000000, -1.000000000000000000 ) ) ;
#28 = DIRECTION ( 'NONE',  ( 1.000000000000000000, 0.000000000000000000, 0.000000000000000000 ) ) ;
#29 = CARTESIAN_POINT ( 'NONE',  ( 1283.000000000000000, 0.000000000000000000, 51.15000000000000568 ) ) ;
#30 = CARTESIAN_POINT ( 'NONE',  ( 1283.000000000000000, 0.000000000000000000, 0.000000000000000000 ) ) ;
#31 = DIRECTION ( 'NONE',  ( -1.000000000000000000, -0.000000000000000000, -0.000000000000000000 ) ) ;
#32 = DIRECTION ( 'NONE',  ( 0.000000000000000000, 0.000000000000000000, -1.000000000000000000 ) ) ;
#33 = LOCAL_TIME ( 10, 19, 58.00000000000000000, #125 ) ;
#34 = EDGE_CURVE ( 'NONE', #140, #116, #207, .T. ) ;
#35 = DIRECTION ( 'NONE',  ( 1.000000000000000000, 0.000000000000000000, 0.000000000000000000 ) ) ;
#36 = FACE_BOUND ( 'NONE', #131, .T. ) ;
#37 = AXIS2_PLACEMENT_3D ( 'NONE', #225, #54, #27 ) ;
#38 = CALENDAR_DATE ( 2026, 20, 1 ) ;
#39 = DATE_AND_TIME ( #126, #169 ) ;
#40 = MECHANICAL_CONTEXT ( 'NONE', #234, 'mechanical' ) ;
#41 = APPROVAL_PERSON_ORGANIZATION ( #166, #220, #74 ) ;
#42 = PERSON_AND_ORGANIZATION_ROLE ( 'creator' ) ;
#43 = DIRECTION ( 'NONE',  ( 0.000000000000000000, 0.000000000000000000, -1.000000000000000000 ) ) ;
#44 = VECTOR ( 'NONE', #67, 1000.000000000000000 ) ;
#45 = AXIS2_PLACEMENT_3D ( 'NONE', #10, #135, #32 ) ;
#46 = DIRECTION ( 'NONE',  ( 1.000000000000000000, 0.000000000000000000, 0.000000000000000000 ) ) ;
#47 =( NAMED_UNIT ( * ) PLANE_ANGLE_UNIT ( ) SI_UNIT ( $, .RADIAN. ) );
#48 = EDGE_CURVE ( 'NONE', #63, #2, #245, .T. ) ;
#49 = VERTEX_POINT ( 'NONE', #78 ) ;
#50 = DIRECTION ( 'NONE',  ( 0.000000000000000000, 0.000000000000000000, 1.000000000000000000 ) ) ;
#51 = CC_DESIGN_PERSON_AND_ORGANIZATION_ASSIGNMENT ( #147, #89, ( #106 ) ) ;
#52 = LINE ( 'NONE', #55, #44 ) ;
#53 = AXIS2_PLACEMENT_3D ( 'NONE', #122, #204, #222 ) ;
#54 = DIRECTION ( 'NONE',  ( 1.000000000000000000, 0.000000000000000000, 0.000000000000000000 ) ) ;
#55 = CARTESIAN_POINT ( 'NONE',  ( 1283.000000000000000, 0.000000000000000000, 57.15000000000000568 ) ) ;
#56 = PERSON_AND_ORGANIZATION ( #162, #178 ) ;
#57 = CIRCLE ( 'NONE', #149, 51.15000000000000568 ) ;
#58 = CC_DESIGN_DATE_AND_TIME_ASSIGNMENT ( #190, #186, ( #213 ) ) ;
#59 = CALENDAR_DATE ( 2026, 20, 1 ) ;
#60 = DIRECTION ( 'NONE',  ( -1.000000000000000000, -0.000000000000000000, -0.000000000000000000 ) ) ;
#61 = LOCAL_TIME ( 10, 19, 58.00000000000000000, #228 ) ;
#62 = ORIENTED_EDGE ( 'NONE', *, *, #218, .F. ) ;
#63 = VERTEX_POINT ( 'NONE', #156 ) ;
#64 = MANIFOLD_SOLID_BREP ( 'Stainless chs 114.3 X 6.019 CHS(1)', #215 ) ;
#65 = ORIENTED_EDGE ( 'NONE', *, *, #48, .F. ) ;
#66 = DIRECTION ( 'NONE',  ( 0.000000000000000000, 0.000000000000000000, -1.000000000000000000 ) ) ;
#67 = DIRECTION ( 'NONE',  ( -1.000000000000000000, -0.000000000000000000, -0.000000000000000000 ) ) ;
#68 = PERSON_AND_ORGANIZATION_ROLE ( 'creator' ) ;
#69 = ORIENTED_EDGE ( 'NONE', *, *, #34, .T. ) ;
#70 = ORIENTED_EDGE ( 'NONE', *, *, #12, .T. ) ;
#71 = CARTESIAN_POINT ( 'NONE',  ( 1283.000000000000000, 0.000000000000000000, 0.000000000000000000 ) ) ;
#72 = CALENDAR_DATE ( 2026, 20, 1 ) ;
#73 = COORDINATED_UNIVERSAL_TIME_OFFSET ( 10, 0, .AHEAD. ) ;
#74 = APPROVAL_ROLE ( '' ) ;
#75 = APPLICATION_PROTOCOL_DEFINITION ( 'international standard', 'config_control_design', 1994, #163 ) ;
#76 = SECURITY_CLASSIFICATION ( '', '', #246 ) ;
#77 = ORIENTED_EDGE ( 'NONE', *, *, #5, .T. ) ;
#78 = CARTESIAN_POINT ( 'NONE',  ( 1283.000000000000000, 0.000000000000000000, 57.15000000000000568 ) ) ;
#79 = AXIS2_PLACEMENT_3D ( 'NONE', #71, #200, #177 ) ;
#80 = ORIENTED_EDGE ( 'NONE', *, *, #232, .F. ) ;
#81 = VERTEX_POINT ( 'NONE', #153 ) ;
#82 = FACE_OUTER_BOUND ( 'NONE', #154, .T. ) ;
#83 = EDGE_LOOP ( 'NONE', ( #62, #65 ) ) ;
#84 = CYLINDRICAL_SURFACE ( 'NONE', #104, 57.15000000000000568 ) ;
#85 = CARTESIAN_POINT ( 'NONE',  ( 1083.000000000000000, 0.000000000000000000, 0.000000000000000000 ) ) ;
#86 = CARTESIAN_POINT ( 'NONE',  ( 1283.000000000000000, 0.000000000000000000, 0.000000000000000000 ) ) ;
#87 = APPROVAL_PERSON_ORGANIZATION ( #129, #93, #110 ) ;
#88 = CARTESIAN_POINT ( 'NONE',  ( 1083.000000000000000, 0.000000000000000000, 51.15000000000000568 ) ) ;
#89 = PERSON_AND_ORGANIZATION_ROLE ( 'design_owner' ) ;
#90 = DATE_TIME_ROLE ( 'classification_date' ) ;
#91 = DIRECTION ( 'NONE',  ( 0.000000000000000000, 0.000000000000000000, 1.000000000000000000 ) ) ;
#92 = AXIS2_PLACEMENT_3D ( 'NONE', #30, #35, #66 ) ;
#93 = APPROVAL ( #114, 'UNSPECIFIED' ) ;
#94 = DATE_AND_TIME ( #182, #174 ) ;
#95 = ORIENTED_EDGE ( 'NONE', *, *, #3, .F. ) ;
#96 = VECTOR ( 'NONE', #161, 1000.000000000000000 ) ;
#97 = ORIENTED_EDGE ( 'NONE', *, *, #218, .T. ) ;
#98 = ORIENTED_EDGE ( 'NONE', *, *, #145, .F. ) ;
#99 = CC_DESIGN_PERSON_AND_ORGANIZATION_ASSIGNMENT ( #148, #42, ( #213 ) ) ;
#100 = DESIGN_CONTEXT ( 'detailed design', #163, 'design' ) ;
#101 = DIRECTION ( 'NONE',  ( 1.000000000000000000, 0.000000000000000000, 0.000000000000000000 ) ) ;
#102 = DIRECTION ( 'NONE',  ( 0.000000000000000000, 0.000000000000000000, -1.000000000000000000 ) ) ;
#103 = CARTESIAN_POINT ( 'NONE',  ( 1283.000000000000000, 0.000000000000000000, 0.000000000000000000 ) ) ;
#104 = AXIS2_PLACEMENT_3D ( 'NONE', #86, #243, #183 ) ;
#105 = LINE ( 'NONE', #119, #96 ) ;
#106 = PRODUCT ( '13-2919-7-1_REV_', '13-2919-7-1_REV_', '', ( #40 ) ) ;
#107 = FACE_OUTER_BOUND ( 'NONE', #120, .T. ) ;
#108 = DIRECTION ( 'NONE',  ( 1.000000000000000000, 0.000000000000000000, 0.000000000000000000 ) ) ;
#109 = PERSON_AND_ORGANIZATION_ROLE ( 'design_supplier' ) ;
#110 = APPROVAL_ROLE ( '' ) ;
#111 = PERSON_AND_ORGANIZATION ( #162, #178 ) ;
#112 = CIRCLE ( 'NONE', #45, 57.15000000000000568 ) ;
#113 = CC_DESIGN_APPROVAL ( #220, ( #76 ) ) ;
#114 = APPROVAL_STATUS ( 'not_yet_approved' ) ;
#115 = EDGE_CURVE ( 'NONE', #49, #116, #52, .T. ) ;
#116 = VERTEX_POINT ( 'NONE', #224 ) ;
#117 = ADVANCED_FACE ( 'NONE', ( #107 ), #14, .T. ) ;
#118 = FACE_OUTER_BOUND ( 'NONE', #151, .T. ) ;
#119 = CARTESIAN_POINT ( 'NONE',  ( 1283.000000000000000, 0.000000000000000000, 51.15000000000000568 ) ) ;
#120 = EDGE_LOOP ( 'NONE', ( #98, #138, #69, #167 ) ) ;
#121 = AXIS2_PLACEMENT_3D ( 'NONE', #165, #46, #15 ) ;
#122 = CARTESIAN_POINT ( 'NONE',  ( 1283.000000000000000, 0.000000000000000000, 0.000000000000000000 ) ) ;
#123 = ADVANCED_FACE ( 'NONE', ( #159, #82 ), #139, .T. ) ;
#124 = CYLINDRICAL_SURFACE ( 'NONE', #244, 51.15000000000000568 ) ;
#125 = COORDINATED_UNIVERSAL_TIME_OFFSET ( 10, 0, .AHEAD. ) ;
#126 = CALENDAR_DATE ( 2026, 20, 1 ) ;
#127 = APPROVAL_ROLE ( '' ) ;
#128 = APPROVAL ( #233, 'UNSPECIFIED' ) ;
#129 = PERSON_AND_ORGANIZATION ( #162, #178 ) ;
#130 =( GEOMETRIC_REPRESENTATION_CONTEXT ( 3 ) GLOBAL_UNCERTAINTY_ASSIGNED_CONTEXT ( ( #155 ) ) GLOBAL_UNIT_ASSIGNED_CONTEXT ( ( #13, #47, #230 ) ) REPRESENTATION_CONTEXT ( 'NONE', 'WORKASPACE' ) );
#131 = EDGE_LOOP ( 'NONE', ( #20, #77 ) ) ;
#132 = DIRECTION ( 'NONE',  ( 1.000000000000000000, 0.000000000000000000, 0.000000000000000000 ) ) ;
#133 = PRODUCT_DEFINITION_FORMATION_WITH_SPECIFIED_SOURCE ( 'ANY', '', #106, .NOT_KNOWN. ) ;
#134 = CC_DESIGN_DATE_AND_TIME_ASSIGNMENT ( #39, #90, ( #76 ) ) ;
#135 = DIRECTION ( 'NONE',  ( 1.000000000000000000, 0.000000000000000000, 0.000000000000000000 ) ) ;
#136 = CARTESIAN_POINT ( 'NONE',  ( 1283.000000000000000, 0.000000000000000000, 0.000000000000000000 ) ) ;
#137 = CARTESIAN_POINT ( 'NONE',  ( 1283.000000000000000, 0.000000000000000000, 0.000000000000000000 ) ) ;
#138 = ORIENTED_EDGE ( 'NONE', *, *, #3, .T. ) ;
#139 = PLANE ( 'NONE',  #121 ) ;
#140 = VERTEX_POINT ( 'NONE', #160 ) ;
#141 = AXIS2_PLACEMENT_3D ( 'NONE', #171, #25, #194 ) ;
#142 = DIRECTION ( 'NONE',  ( 0.000000000000000000, 0.000000000000000000, -1.000000000000000000 ) ) ;
#143 = FACE_OUTER_BOUND ( 'NONE', #158, .T. ) ;
#144 = APPROVAL_PERSON_ORGANIZATION ( #18, #128, #127 ) ;
#145 = EDGE_CURVE ( 'NONE', #24, #49, #168, .T. ) ;
#146 = APPROVAL_DATE_TIME ( #94, #220 ) ;
#147 = PERSON_AND_ORGANIZATION ( #162, #178 ) ;
#148 = PERSON_AND_ORGANIZATION ( #162, #178 ) ;
#149 = AXIS2_PLACEMENT_3D ( 'NONE', #85, #108, #247 ) ;
#150 = EDGE_CURVE ( 'NONE', #2, #197, #105, .T. ) ;
#151 = EDGE_LOOP ( 'NONE', ( #80, #219 ) ) ;
#152 = ORIENTED_EDGE ( 'NONE', *, *, #150, .F. ) ;
#153 = CARTESIAN_POINT ( 'NONE',  ( 1083.000000000000000, 6.264068377638712452E-15, -51.15000000000000568 ) ) ;
#154 = EDGE_LOOP ( 'NONE', ( #8, #4 ) ) ;
#155 = UNCERTAINTY_MEASURE_WITH_UNIT (LENGTH_MEASURE( 1.000000000000000082E-05 ), #13, 'distance_accuracy_value', 'NONE');
#156 = CARTESIAN_POINT ( 'NONE',  ( 1283.000000000000000, 6.264068377638712452E-15, -51.15000000000000568 ) ) ;
#157 = CARTESIAN_POINT ( 'NONE',  ( 1083.000000000000000, 0.000000000000000000, 0.000000000000000000 ) ) ;
#158 = EDGE_LOOP ( 'NONE', ( #170, #193, #203, #191 ) ) ;
#159 = FACE_BOUND ( 'NONE', #83, .T. ) ;
#160 = CARTESIAN_POINT ( 'NONE',  ( 1083.000000000000000, 6.998856457127124130E-15, -57.15000000000000568 ) ) ;
#161 = DIRECTION ( 'NONE',  ( -1.000000000000000000, -0.000000000000000000, -0.000000000000000000 ) ) ;
#162 = PERSON ( 'UNSPECIFIED', 'UNSPECIFIED', 'UNSPECIFIED', ('UNSPECIFIED'), ('UNSPECIFIED'), ('UNSPECIFIED') ) ;
#163 = APPLICATION_CONTEXT ( 'configuration controlled 3d designs of mechanical parts and assemblies' ) ;
#164 = CIRCLE ( 'NONE', #79, 51.15000000000000568 ) ;
#165 = CARTESIAN_POINT ( 'NONE',  ( 1283.000000000000000, 0.000000000000000000, 0.000000000000000000 ) ) ;
#166 = PERSON_AND_ORGANIZATION ( #162, #178 ) ;
#167 = ORIENTED_EDGE ( 'NONE', *, *, #115, .F. ) ;
#168 = CIRCLE ( 'NONE', #92, 57.15000000000000568 ) ;
#169 = LOCAL_TIME ( 10, 19, 58.00000000000000000, #73 ) ;
#170 = ORIENTED_EDGE ( 'NONE', *, *, #12, .F. ) ;
#171 = CARTESIAN_POINT ( 'NONE',  ( 1283.000000000000000, 0.000000000000000000, 0.000000000000000000 ) ) ;
#172 = EDGE_LOOP ( 'NONE', ( #97, #70, #238, #152 ) ) ;
#173 = CC_DESIGN_PERSON_AND_ORGANIZATION_ASSIGNMENT ( #111, #68, ( #133 ) ) ;
#174 = LOCAL_TIME ( 10, 19, 58.00000000000000000, #214 ) ;
#175 = PRODUCT_RELATED_PRODUCT_CATEGORY ( 'detail', '', ( #106 ) ) ;
#176 = ADVANCED_BREP_SHAPE_REPRESENTATION ( '13-2919-7-1_REV_', ( #64, #11 ), #130 ) ;
#177 = DIRECTION ( 'NONE',  ( 0.000000000000000000, 0.000000000000000000, -1.000000000000000000 ) ) ;
#178 = ORGANIZATION ( 'UNSPECIFIED', 'UNSPECIFIED', '' ) ;
#179 = PLANE ( 'NONE',  #6 ) ;
#180 = CYLINDRICAL_SURFACE ( 'NONE', #192, 51.15000000000000568 ) ;
#181 = PRODUCT_DEFINITION_SHAPE ( 'NONE', 'NONE',  #213 ) ;
#182 = CALENDAR_DATE ( 2026, 20, 1 ) ;
#183 = DIRECTION ( 'NONE',  ( 0.000000000000000000, 0.000000000000000000, 1.000000000000000000 ) ) ;
#184 = CC_DESIGN_APPROVAL ( #93, ( #133 ) ) ;
#185 = DATE_AND_TIME ( #72, #33 ) ;
#186 = DATE_TIME_ROLE ( 'creation_date' ) ;
#187 = CARTESIAN_POINT ( 'NONE',  ( 1283.000000000000000, 6.264068377638712452E-15, -51.15000000000000568 ) ) ;
#188 = CARTESIAN_POINT ( 'NONE',  ( 0.000000000000000000, 0.000000000000000000, 0.000000000000000000 ) ) ;
#189 = CC_DESIGN_PERSON_AND_ORGANIZATION_ASSIGNMENT ( #206, #109, ( #133 ) ) ;
#190 = DATE_AND_TIME ( #59, #61 ) ;
#191 = ORIENTED_EDGE ( 'NONE', *, *, #5, .F. ) ;
#192 = AXIS2_PLACEMENT_3D ( 'NONE', #137, #226, #50 ) ;
#193 = ORIENTED_EDGE ( 'NONE', *, *, #48, .T. ) ;
#194 = DIRECTION ( 'NONE',  ( 0.000000000000000000, 0.000000000000000000, -1.000000000000000000 ) ) ;
#195 = CIRCLE ( 'NONE', #21, 57.15000000000000568 ) ;
#196 = EDGE_CURVE ( 'NONE', #197, #81, #57, .T. ) ;
#197 = VERTEX_POINT ( 'NONE', #88 ) ;
#198 = CARTESIAN_POINT ( 'NONE',  ( 1083.000000000000000, 0.000000000000000000, 0.000000000000000000 ) ) ;
#199 = EDGE_LOOP ( 'NONE', ( #95, #242, #23, #223 ) ) ;
#200 = DIRECTION ( 'NONE',  ( 1.000000000000000000, 0.000000000000000000, 0.000000000000000000 ) ) ;
#201 = FACE_OUTER_BOUND ( 'NONE', #172, .T. ) ;
#202 = AXIS2_PLACEMENT_3D ( 'NONE', #157, #132, #43 ) ;
#203 = ORIENTED_EDGE ( 'NONE', *, *, #150, .T. ) ;
#204 = DIRECTION ( 'NONE',  ( -1.000000000000000000, -0.000000000000000000, -0.000000000000000000 ) ) ;
#205 = DIRECTION ( 'NONE',  ( 0.000000000000000000, 0.000000000000000000, 1.000000000000000000 ) ) ;
#206 = PERSON_AND_ORGANIZATION ( #162, #178 ) ;
#207 = CIRCLE ( 'NONE', #202, 57.15000000000000568 ) ;
#208 = CC_DESIGN_PERSON_AND_ORGANIZATION_ASSIGNMENT ( #56, #210, ( #76 ) ) ;
#209 = DIRECTION ( 'NONE',  ( 1.000000000000000000, 0.000000000000000000, 0.000000000000000000 ) ) ;
#210 = PERSON_AND_ORGANIZATION_ROLE ( 'classification_officer' ) ;
#211 = COORDINATED_UNIVERSAL_TIME_OFFSET ( 10, 0, .AHEAD. ) ;
#212 = APPROVAL_DATE_TIME ( #185, #93 ) ;
#213 = PRODUCT_DEFINITION ( 'UNKNOWN', '', #133, #100 ) ;
#214 = COORDINATED_UNIVERSAL_TIME_OFFSET ( 10, 0, .AHEAD. ) ;
#215 = CLOSED_SHELL ( 'NONE', ( #117, #216, #227, #217, #123, #237 ) ) ;
#216 = ADVANCED_FACE ( 'NONE', ( #201 ), #180, .F. ) ;
#217 = ADVANCED_FACE ( 'NONE', ( #240 ), #84, .T. ) ;
#218 = EDGE_CURVE ( 'NONE', #2, #63, #164, .T. ) ;
#219 = ORIENTED_EDGE ( 'NONE', *, *, #34, .F. ) ;
#220 = APPROVAL ( #229, 'UNSPECIFIED' ) ;
#221 = LINE ( 'NONE', #187, #16 ) ;
#222 = DIRECTION ( 'NONE',  ( 0.000000000000000000, 0.000000000000000000, 1.000000000000000000 ) ) ;
#223 = ORIENTED_EDGE ( 'NONE', *, *, #232, .T. ) ;
#224 = CARTESIAN_POINT ( 'NONE',  ( 1083.000000000000000, 0.000000000000000000, 57.15000000000000568 ) ) ;
#225 = CARTESIAN_POINT ( 'NONE',  ( 1083.000000000000000, 0.000000000000000000, 0.000000000000000000 ) ) ;
#226 = DIRECTION ( 'NONE',  ( -1.000000000000000000, -0.000000000000000000, -0.000000000000000000 ) ) ;
#227 = ADVANCED_FACE ( 'NONE', ( #143 ), #124, .F. ) ;
#228 = COORDINATED_UNIVERSAL_TIME_OFFSET ( 10, 0, .AHEAD. ) ;
#229 = APPROVAL_STATUS ( 'not_yet_approved' ) ;
#230 =( NAMED_UNIT ( * ) SI_UNIT ( $, .STERADIAN. ) SOLID_ANGLE_UNIT ( ) );
#231 = SHAPE_DEFINITION_REPRESENTATION ( #181, #176 ) ;
#232 = EDGE_CURVE ( 'NONE', #116, #140, #112, .T. ) ;
#233 = APPROVAL_STATUS ( 'not_yet_approved' ) ;
#234 = APPLICATION_CONTEXT ( 'configuration controlled 3d designs of mechanical parts and assemblies' ) ;
#235 = VECTOR ( 'NONE', #31, 1000.000000000000000 ) ;
#236 = CARTESIAN_POINT ( 'NONE',  ( 1283.000000000000000, 6.998856457127124130E-15, -57.15000000000000568 ) ) ;
#237 = ADVANCED_FACE ( 'NONE', ( #36, #118 ), #179, .F. ) ;
#238 = ORIENTED_EDGE ( 'NONE', *, *, #196, .F. ) ;
#239 = CIRCLE ( 'NONE', #37, 51.15000000000000568 ) ;
#240 = FACE_OUTER_BOUND ( 'NONE', #199, .T. ) ;
#241 = DIRECTION ( 'NONE',  ( -1.000000000000000000, -0.000000000000000000, -0.000000000000000000 ) ) ;
#242 = ORIENTED_EDGE ( 'NONE', *, *, #1, .F. ) ;
#243 = DIRECTION ( 'NONE',  ( -1.000000000000000000, -0.000000000000000000, -0.000000000000000000 ) ) ;
#244 = AXIS2_PLACEMENT_3D ( 'NONE', #103, #241, #205 ) ;
#245 = CIRCLE ( 'NONE', #141, 51.15000000000000568 ) ;
#246 = SECURITY_CLASSIFICATION_LEVEL ( 'unclassified' ) ;
#247 = DIRECTION ( 'NONE',  ( 0.000000000000000000, 0.000000000000000000, -1.000000000000000000 ) ) ;
#248 = CC_DESIGN_APPROVAL ( #128, ( #213 ) ) ;
#249 = APPLICATION_PROTOCOL_DEFINITION ( 'international standard', 'config_control_design', 1994, #234 ) ;
ENDSEC;
END-ISO-10303-21;
