ISO-10303-21;
HEADER;
FILE_DESCRIPTION (( 'STEP AP203' ),
    '1' );
FILE_NAME ('13-2919-8-1_REV_.step',
    '2026-01-19T23:18:21',
    ( '' ),
    ( '' ),
    'SwSTEP 2.0',
    'SolidWorks 2025',
    '' );
FILE_SCHEMA (( 'CONFIG_CONTROL_DESIGN' ));
ENDSEC;

DATA;
#1 = APPLICATION_PROTOCOL_DEFINITION ( 'international standard', 'config_control_design', 1994, #390 ) ;
#2 = CIRCLE ( 'NONE', #245, 44.45000000000002416 ) ;
#3 = EDGE_CURVE ( 'NONE', #7, #352, #214, .T. ) ;
#4 = DIRECTION ( 'NONE',  ( 7.441173087299979304E-17, -1.000000000000000000, -0.000000000000000000 ) ) ;
#5 = ORIENTED_EDGE ( 'NONE', *, *, #186, .F. ) ;
#6 = DIRECTION ( 'NONE',  ( -1.000000000000000000, 0.000000000000000000, 0.000000000000000000 ) ) ;
#7 = VERTEX_POINT ( 'NONE', #181 ) ;
#8 = CARTESIAN_POINT ( 'NONE',  ( 38.94999999999999574, 191.4999999999999432, 0.000000000000000000 ) ) ;
#9 = ORIENTED_EDGE ( 'NONE', *, *, #315, .F. ) ;
#10 = LOCAL_TIME ( 10, 18, 21.00000000000000000, #297 ) ;
#11 = EDGE_LOOP ( 'NONE', ( #17, #262 ) ) ;
#12 = ADVANCED_FACE ( 'NONE', ( #14 ), #272, .T. ) ;
#13 = ORIENTED_EDGE ( 'NONE', *, *, #3, .F. ) ;
#14 = FACE_OUTER_BOUND ( 'NONE', #32, .T. ) ;
#15 = AXIS2_PLACEMENT_3D ( 'NONE', #305, #334, #51 ) ;
#16 = FACE_OUTER_BOUND ( 'NONE', #190, .T. ) ;
#17 = ORIENTED_EDGE ( 'NONE', *, *, #112, .T. ) ;
#18 = COORDINATED_UNIVERSAL_TIME_OFFSET ( 10, 0, .AHEAD. ) ;
#19 = ORIENTED_EDGE ( 'NONE', *, *, #331, .T. ) ;
#20 = CLOSED_SHELL ( 'NONE', ( #399, #123, #285, #12, #73, #46 ) ) ;
#21 = DIRECTION ( 'NONE',  ( 0.000000000000000000, 0.000000000000000000, -1.000000000000000000 ) ) ;
#22 = PRODUCT_DEFINITION ( 'UNKNOWN', '', #120, #52 ) ;
#23 = CYLINDRICAL_SURFACE ( 'NONE', #33, 38.95000000000000995 ) ;
#24 = CARTESIAN_POINT ( 'NONE',  ( -333.0000000000000000, 306.0000000000000000, -38.95000000000000995 ) ) ;
#25 = ADVANCED_BREP_SHAPE_REPRESENTATION ( '13-2919-8-1_REV_', ( #97, #362, #126 ), #187 ) ;
#26 = EDGE_CURVE ( 'NONE', #304, #44, #28, .T. ) ;
#27 = FACE_OUTER_BOUND ( 'NONE', #384, .T. ) ;
#28 = CIRCLE ( 'NONE', #63, 44.45000000000002416 ) ;
#29 = ORGANIZATION ( 'UNSPECIFIED', 'UNSPECIFIED', '' ) ;
#30 = CARTESIAN_POINT ( 'NONE',  ( -333.0000000000000000, 306.0000000000000000, 44.45000000000002416 ) ) ;
#31 = PLANE ( 'NONE',  #263 ) ;
#32 = EDGE_LOOP ( 'NONE', ( #5, #323, #146, #67 ) ) ;
#33 = AXIS2_PLACEMENT_3D ( 'NONE', #61, #188, #217 ) ;
#34 = CC_DESIGN_PERSON_AND_ORGANIZATION_ASSIGNMENT ( #83, #238, ( #120 ) ) ;
#35 = CYLINDRICAL_SURFACE ( 'NONE', #312, 38.95000000000000995 ) ;
#36 = ORIENTED_EDGE ( 'NONE', *, *, #177, .T. ) ;
#37 = DIRECTION ( 'NONE',  ( 1.000000000000000000, 0.000000000000000000, 0.000000000000000000 ) ) ;
#38 = ORIENTED_EDGE ( 'NONE', *, *, #56, .F. ) ;
#39 = CC_DESIGN_DATE_AND_TIME_ASSIGNMENT ( #86, #357, ( #282 ) ) ;
#40 = EDGE_LOOP ( 'NONE', ( #349, #380, #356, #296 ) ) ;
#41 = CIRCLE ( 'NONE', #277, 44.45000000000002416 ) ;
#42 = VECTOR ( 'NONE', #233, 1000.000000000000000 ) ;
#43 = APPROVAL_DATE_TIME ( #143, #299 ) ;
#44 = VERTEX_POINT ( 'NONE', #300 ) ;
#45 = DIRECTION ( 'NONE',  ( -1.000000000000000000, 0.000000000000000000, 0.000000000000000000 ) ) ;
#46 = ADVANCED_FACE ( 'NONE', ( #84, #47 ), #206, .F. ) ;
#47 = FACE_OUTER_BOUND ( 'NONE', #202, .T. ) ;
#48 = DATE_AND_TIME ( #201, #176 ) ;
#49 = AXIS2_PLACEMENT_3D ( 'NONE', #308, #252, #185 ) ;
#50 = CIRCLE ( 'NONE', #374, 44.45000000000002416 ) ;
#51 = DIRECTION ( 'NONE',  ( 0.000000000000000000, 0.000000000000000000, 1.000000000000000000 ) ) ;
#52 = DESIGN_CONTEXT ( 'detailed design', #257, 'design' ) ;
#53 = APPROVAL_ROLE ( '' ) ;
#54 = CARTESIAN_POINT ( 'NONE',  ( 38.95000000000000995, 5.000000000000007105, 0.000000000000000000 ) ) ;
#55 = VERTEX_POINT ( 'NONE', #393 ) ;
#56 = EDGE_CURVE ( 'NONE', #132, #69, #175, .T. ) ;
#57 = AXIS2_PLACEMENT_3D ( 'NONE', #375, #311, #313 ) ;
#58 = DIRECTION ( 'NONE',  ( 1.000000000000000000, -0.000000000000000000, -0.000000000000000000 ) ) ;
#59 = DIRECTION ( 'NONE',  ( 0.000000000000000000, 0.000000000000000000, 1.000000000000000000 ) ) ;
#60 = EDGE_CURVE ( 'NONE', #230, #267, #170, .T. ) ;
#61 = CARTESIAN_POINT ( 'NONE',  ( -333.0000000000000000, 306.0000000000000000, 0.000000000000000000 ) ) ;
#62 = FACE_OUTER_BOUND ( 'NONE', #82, .T. ) ;
#63 = AXIS2_PLACEMENT_3D ( 'NONE', #179, #333, #364 ) ;
#64 = PRODUCT ( '13-2919-8-1_REV_', '13-2919-8-1_REV_', '', ( #379 ) ) ;
#65 = CARTESIAN_POINT ( 'NONE',  ( -114.5000000000000995, 306.0000000000000000, 38.95000000000000995 ) ) ;
#66 = CARTESIAN_POINT ( 'NONE',  ( -1.387778780781445676E-14, 191.4999999999999432, 0.000000000000000000 ) ) ;
#67 = ORIENTED_EDGE ( 'NONE', *, *, #232, .T. ) ;
#68 = EDGE_CURVE ( 'NONE', #267, #230, #306, .T. ) ;
#69 = VERTEX_POINT ( 'NONE', #359 ) ;
#70 = DIRECTION ( 'NONE',  ( -7.441173087299979304E-17, 1.000000000000000000, 0.000000000000000000 ) ) ;
#71 = ORIENTED_EDGE ( 'NONE', *, *, #335, .F. ) ;
#72 = UNCERTAINTY_MEASURE_WITH_UNIT (LENGTH_MEASURE( 1.000000000000000082E-05 ), #168, 'distance_accuracy_value', 'NONE');
#73 = ADVANCED_FACE ( 'NONE', ( #244, #396 ), #367, .T. ) ;
#74 = CARTESIAN_POINT ( 'NONE',  ( 0.000000000000000000, 5.000000000000004441, 0.000000000000000000 ) ) ;
#75 = VERTEX_POINT ( 'NONE', #54 ) ;
#76 = CARTESIAN_POINT ( 'NONE',  ( -44.45000000000002416, 5.000000000000000888, 5.443555022209988064E-15 ) ) ;
#77 = ORIENTED_EDGE ( 'NONE', *, *, #26, .T. ) ;
#78 = AXIS2_PLACEMENT_3D ( 'NONE', #210, #204, #90 ) ;
#79 = CALENDAR_DATE ( 2026, 20, 1 ) ;
#80 = CYLINDRICAL_SURFACE ( 'NONE', #92, 38.95000000000000995 ) ;
#81 = DATE_AND_TIME ( #198, #182 ) ;
#82 = EDGE_LOOP ( 'NONE', ( #195, #101, #338, #290 ) ) ;
#83 = PERSON_AND_ORGANIZATION ( #231, #29 ) ;
#84 = FACE_BOUND ( 'NONE', #266, .T. ) ;
#85 = AXIS2_PLACEMENT_3D ( 'NONE', #339, #405, #283 ) ;
#86 = DATE_AND_TIME ( #79, #171 ) ;
#87 = CIRCLE ( 'NONE', #145, 38.95000000000000995 ) ;
#88 = CARTESIAN_POINT ( 'NONE',  ( -114.5000000000000995, 306.0000000000000000, 0.000000000000000000 ) ) ;
#89 = ADVANCED_FACE ( 'NONE', ( #16 ), #80, .F. ) ;
#90 = DIRECTION ( 'NONE',  ( 0.000000000000000000, 0.000000000000000000, 1.000000000000000000 ) ) ;
#91 = FACE_OUTER_BOUND ( 'NONE', #193, .T. ) ;
#92 = AXIS2_PLACEMENT_3D ( 'NONE', #180, #121, #211 ) ;
#93 = CARTESIAN_POINT ( 'NONE',  ( 44.45000000000000995, 191.4999999999999432, 0.000000000000000000 ) ) ;
#94 = CARTESIAN_POINT ( 'NONE',  ( -38.95000000000002416, 191.4999999999999432, 4.769999282678942383E-15 ) ) ;
#95 = DIRECTION ( 'NONE',  ( 0.000000000000000000, 0.000000000000000000, 1.000000000000000000 ) ) ;
#96 = PRODUCT_DEFINITION_SHAPE ( 'NONE', 'NONE',  #22 ) ;
#97 = MANIFOLD_SOLID_BREP ( 'Stainless chs 88.9 X 5.5 CHS(1)[1]', #130 ) ;
#98 = DIRECTION ( 'NONE',  ( -7.441173087299979304E-17, 1.000000000000000000, 0.000000000000000000 ) ) ;
#99 = AXIS2_PLACEMENT_3D ( 'NONE', #398, #242, #141 ) ;
#100 = CARTESIAN_POINT ( 'NONE',  ( 0.000000000000000000, 0.000000000000000000, 0.000000000000000000 ) ) ;
#101 = ORIENTED_EDGE ( 'NONE', *, *, #112, .F. ) ;
#102 = CARTESIAN_POINT ( 'NONE',  ( -333.0000000000000000, 306.0000000000000000, 0.000000000000000000 ) ) ;
#103 = DIRECTION ( 'NONE',  ( 1.000000000000000000, 0.000000000000000000, 0.000000000000000000 ) ) ;
#104 = ORIENTED_EDGE ( 'NONE', *, *, #68, .T. ) ;
#105 = VECTOR ( 'NONE', #274, 1000.000000000000000 ) ;
#106 = VECTOR ( 'NONE', #194, 1000.000000000000000 ) ;
#107 = CARTESIAN_POINT ( 'NONE',  ( -1.387778780781445676E-14, 191.4999999999999432, 0.000000000000000000 ) ) ;
#108 = ORIENTED_EDGE ( 'NONE', *, *, #213, .T. ) ;
#109 = ORIENTED_EDGE ( 'NONE', *, *, #60, .T. ) ;
#110 = PERSON_AND_ORGANIZATION_ROLE ( 'design_supplier' ) ;
#111 = DIRECTION ( 'NONE',  ( 0.000000000000000000, 0.000000000000000000, 1.000000000000000000 ) ) ;
#112 = EDGE_CURVE ( 'NONE', #293, #55, #2, .T. ) ;
#113 = ORIENTED_EDGE ( 'NONE', *, *, #26, .F. ) ;
#114 = APPROVAL_DATE_TIME ( #366, #216 ) ;
#115 = ORIENTED_EDGE ( 'NONE', *, *, #391, .F. ) ;
#116 = APPROVAL_STATUS ( 'not_yet_approved' ) ;
#117 = DIRECTION ( 'NONE',  ( 0.000000000000000000, 0.000000000000000000, 1.000000000000000000 ) ) ;
#118 = APPROVAL ( #116, 'UNSPECIFIED' ) ;
#119 = AXIS2_PLACEMENT_3D ( 'NONE', #153, #279, #155 ) ;
#120 = PRODUCT_DEFINITION_FORMATION_WITH_SPECIFIED_SOURCE ( 'ANY', '', #64, .NOT_KNOWN. ) ;
#121 = DIRECTION ( 'NONE',  ( 1.000000000000000000, -0.000000000000000000, -0.000000000000000000 ) ) ;
#122 = CARTESIAN_POINT ( 'NONE',  ( -38.95000000000002416, 191.4999999999999432, 4.769999282678943171E-15 ) ) ;
#123 = ADVANCED_FACE ( 'NONE', ( #298 ), #269, .F. ) ;
#124 = CARTESIAN_POINT ( 'NONE',  ( -333.0000000000000000, 306.0000000000000000, 0.000000000000000000 ) ) ;
#125 = LINE ( 'NONE', #94, #42 ) ;
#126 = AXIS2_PLACEMENT_3D ( 'NONE', #100, #265, #388 ) ;
#127 = DIRECTION ( 'NONE',  ( 0.000000000000000000, 0.000000000000000000, 1.000000000000000000 ) ) ;
#128 = CARTESIAN_POINT ( 'NONE',  ( -333.0000000000000000, 306.0000000000000000, 0.000000000000000000 ) ) ;
#129 = EDGE_CURVE ( 'NONE', #140, #75, #261, .T. ) ;
#130 = CLOSED_SHELL ( 'NONE', ( #199, #163, #89, #205, #365, #134 ) ) ;
#131 = CIRCLE ( 'NONE', #278, 38.95000000000000995 ) ;
#132 = VERTEX_POINT ( 'NONE', #93 ) ;
#133 = LINE ( 'NONE', #259, #106 ) ;
#134 = ADVANCED_FACE ( 'NONE', ( #310, #158 ), #376, .F. ) ;
#135 = ORIENTED_EDGE ( 'NONE', *, *, #253, .F. ) ;
#136 = CARTESIAN_POINT ( 'NONE',  ( -1.387778780781445676E-14, 191.4999999999999432, 0.000000000000000000 ) ) ;
#137 = ORIENTED_EDGE ( 'NONE', *, *, #350, .F. ) ;
#138 = VECTOR ( 'NONE', #249, 1000.000000000000000 ) ;
#139 = VECTOR ( 'NONE', #196, 1000.000000000000000 ) ;
#140 = VERTEX_POINT ( 'NONE', #341 ) ;
#141 = DIRECTION ( 'NONE',  ( 1.000000000000000000, 0.000000000000000000, 0.000000000000000000 ) ) ;
#142 = CC_DESIGN_PERSON_AND_ORGANIZATION_ASSIGNMENT ( #400, #363, ( #22 ) ) ;
#143 = DATE_AND_TIME ( #329, #208 ) ;
#144 = DIRECTION ( 'NONE',  ( -1.000000000000000000, 0.000000000000000000, 0.000000000000000000 ) ) ;
#145 = AXIS2_PLACEMENT_3D ( 'NONE', #281, #254, #408 ) ;
#146 = ORIENTED_EDGE ( 'NONE', *, *, #56, .T. ) ;
#147 = CARTESIAN_POINT ( 'NONE',  ( 44.45000000000000995, 191.4999999999999432, 0.000000000000000000 ) ) ;
#148 = EDGE_CURVE ( 'NONE', #55, #304, #284, .T. ) ;
#149 = APPROVAL_DATE_TIME ( #81, #118 ) ;
#150 = DIRECTION ( 'NONE',  ( -7.441173087299979304E-17, 1.000000000000000000, 0.000000000000000000 ) ) ;
#151 = AXIS2_PLACEMENT_3D ( 'NONE', #88, #45, #111 ) ;
#152 = CC_DESIGN_APPROVAL ( #216, ( #22 ) ) ;
#153 = CARTESIAN_POINT ( 'NONE',  ( 0.000000000000000000, 5.000000000000004441, 0.000000000000000000 ) ) ;
#154 = CARTESIAN_POINT ( 'NONE',  ( -44.45000000000003837, 191.4999999999999432, 5.443555022209989642E-15 ) ) ;
#155 = DIRECTION ( 'NONE',  ( 0.000000000000000000, 0.000000000000000000, 1.000000000000000000 ) ) ;
#156 = VECTOR ( 'NONE', #372, 1000.000000000000000 ) ;
#157 = CARTESIAN_POINT ( 'NONE',  ( -333.0000000000000000, 306.0000000000000000, 0.000000000000000000 ) ) ;
#158 = FACE_OUTER_BOUND ( 'NONE', #382, .T. ) ;
#159 =( NAMED_UNIT ( * ) PLANE_ANGLE_UNIT ( ) SI_UNIT ( $, .RADIAN. ) );
#160 = DIRECTION ( 'NONE',  ( 0.000000000000000000, 0.000000000000000000, 1.000000000000000000 ) ) ;
#161 = AXIS2_PLACEMENT_3D ( 'NONE', #128, #407, #21 ) ;
#162 = ORIENTED_EDGE ( 'NONE', *, *, #191, .T. ) ;
#163 = ADVANCED_FACE ( 'NONE', ( #91 ), #23, .F. ) ;
#164 = CARTESIAN_POINT ( 'NONE',  ( 0.000000000000000000, 5.000000000000004441, 0.000000000000000000 ) ) ;
#165 = VERTEX_POINT ( 'NONE', #122 ) ;
#166 = DIRECTION ( 'NONE',  ( -7.441173087299979304E-17, 1.000000000000000000, 0.000000000000000000 ) ) ;
#167 = EDGE_LOOP ( 'NONE', ( #19, #162 ) ) ;
#168 =( LENGTH_UNIT ( ) NAMED_UNIT ( * ) SI_UNIT ( .MILLI., .METRE. ) );
#169 = ORIENTED_EDGE ( 'NONE', *, *, #129, .T. ) ;
#170 = CIRCLE ( 'NONE', #226, 38.95000000000000995 ) ;
#171 = LOCAL_TIME ( 10, 18, 21.00000000000000000, #369 ) ;
#172 = SHAPE_DEFINITION_REPRESENTATION ( #96, #25 ) ;
#173 = VERTEX_POINT ( 'NONE', #154 ) ;
#174 = CARTESIAN_POINT ( 'NONE',  ( -1.387778780781445676E-14, 191.4999999999999432, 0.000000000000000000 ) ) ;
#175 = LINE ( 'NONE', #147, #105 ) ;
#176 = LOCAL_TIME ( 10, 18, 21.00000000000000000, #336 ) ;
#177 = EDGE_CURVE ( 'NONE', #7, #267, #409, .T. ) ;
#178 = PERSON_AND_ORGANIZATION ( #231, #29 ) ;
#179 = CARTESIAN_POINT ( 'NONE',  ( -114.5000000000000995, 306.0000000000000000, 0.000000000000000000 ) ) ;
#180 = CARTESIAN_POINT ( 'NONE',  ( -333.0000000000000000, 306.0000000000000000, 0.000000000000000000 ) ) ;
#181 = CARTESIAN_POINT ( 'NONE',  ( -333.0000000000000000, 306.0000000000000000, -38.95000000000000995 ) ) ;
#182 = LOCAL_TIME ( 10, 18, 21.00000000000000000, #18 ) ;
#183 = CARTESIAN_POINT ( 'NONE',  ( 38.94999999999999574, 191.4999999999999432, 0.000000000000000000 ) ) ;
#184 = CARTESIAN_POINT ( 'NONE',  ( -333.0000000000000000, 306.0000000000000000, 0.000000000000000000 ) ) ;
#185 = DIRECTION ( 'NONE',  ( 0.000000000000000000, 0.000000000000000000, 1.000000000000000000 ) ) ;
#186 = EDGE_CURVE ( 'NONE', #173, #401, #377, .T. ) ;
#187 =( GEOMETRIC_REPRESENTATION_CONTEXT ( 3 ) GLOBAL_UNCERTAINTY_ASSIGNED_CONTEXT ( ( #72 ) ) GLOBAL_UNIT_ASSIGNED_CONTEXT ( ( #168, #159, #256 ) ) REPRESENTATION_CONTEXT ( 'NONE', 'WORKASPACE' ) );
#188 = DIRECTION ( 'NONE',  ( 1.000000000000000000, -0.000000000000000000, -0.000000000000000000 ) ) ;
#189 = DIRECTION ( 'NONE',  ( -7.441173087299979304E-17, 1.000000000000000000, 0.000000000000000000 ) ) ;
#190 = EDGE_LOOP ( 'NONE', ( #9, #108, #36, #222 ) ) ;
#191 = EDGE_CURVE ( 'NONE', #173, #132, #385, .T. ) ;
#192 = CARTESIAN_POINT ( 'NONE',  ( -1.387778780781445676E-14, 191.4999999999999432, 0.000000000000000000 ) ) ;
#193 = EDGE_LOOP ( 'NONE', ( #328, #387, #295, #288 ) ) ;
#194 = DIRECTION ( 'NONE',  ( 1.000000000000000000, -0.000000000000000000, -0.000000000000000000 ) ) ;
#195 = ORIENTED_EDGE ( 'NONE', *, *, #148, .F. ) ;
#196 = DIRECTION ( 'NONE',  ( 1.000000000000000000, -0.000000000000000000, -0.000000000000000000 ) ) ;
#197 = EDGE_LOOP ( 'NONE', ( #104, #109 ) ) ;
#198 = CALENDAR_DATE ( 2026, 20, 1 ) ;
#199 = ADVANCED_FACE ( 'NONE', ( #27 ), #371, .T. ) ;
#200 = ORIENTED_EDGE ( 'NONE', *, *, #191, .F. ) ;
#201 = CALENDAR_DATE ( 2026, 20, 1 ) ;
#202 = EDGE_LOOP ( 'NONE', ( #389, #258 ) ) ;
#203 = PERSON_AND_ORGANIZATION_ROLE ( 'design_owner' ) ;
#204 = DIRECTION ( 'NONE',  ( -1.000000000000000000, 0.000000000000000000, 0.000000000000000000 ) ) ;
#205 = ADVANCED_FACE ( 'NONE', ( #62 ), #255, .T. ) ;
#206 = PLANE ( 'NONE',  #15 ) ;
#207 = AXIS2_PLACEMENT_3D ( 'NONE', #124, #58, #220 ) ;
#208 = LOCAL_TIME ( 10, 18, 21.00000000000000000, #392 ) ;
#209 = APPROVAL_STATUS ( 'not_yet_approved' ) ;
#210 = CARTESIAN_POINT ( 'NONE',  ( -333.0000000000000000, 306.0000000000000000, 0.000000000000000000 ) ) ;
#211 = DIRECTION ( 'NONE',  ( 0.000000000000000000, 0.000000000000000000, -1.000000000000000000 ) ) ;
#212 = CARTESIAN_POINT ( 'NONE',  ( -114.5000000000000995, 306.0000000000000000, 0.000000000000000000 ) ) ;
#213 = EDGE_CURVE ( 'NONE', #352, #7, #270, .T. ) ;
#214 = CIRCLE ( 'NONE', #78, 38.95000000000000995 ) ;
#215 = DIRECTION ( 'NONE',  ( -1.000000000000000000, 0.000000000000000000, 0.000000000000000000 ) ) ;
#216 = APPROVAL ( #273, 'UNSPECIFIED' ) ;
#217 = DIRECTION ( 'NONE',  ( 0.000000000000000000, 0.000000000000000000, -1.000000000000000000 ) ) ;
#218 = AXIS2_PLACEMENT_3D ( 'NONE', #343, #98, #250 ) ;
#219 = CIRCLE ( 'NONE', #228, 44.45000000000002416 ) ;
#220 = DIRECTION ( 'NONE',  ( 0.000000000000000000, 0.000000000000000000, -1.000000000000000000 ) ) ;
#221 = LINE ( 'NONE', #383, #139 ) ;
#222 = ORIENTED_EDGE ( 'NONE', *, *, #60, .F. ) ;
#223 = DIRECTION ( 'NONE',  ( 0.000000000000000000, 0.000000000000000000, 1.000000000000000000 ) ) ;
#224 = VERTEX_POINT ( 'NONE', #183 ) ;
#225 = CARTESIAN_POINT ( 'NONE',  ( -114.5000000000000995, 306.0000000000000000, 44.45000000000002416 ) ) ;
#226 = AXIS2_PLACEMENT_3D ( 'NONE', #337, #144, #117 ) ;
#227 = ORIENTED_EDGE ( 'NONE', *, *, #186, .T. ) ;
#228 = AXIS2_PLACEMENT_3D ( 'NONE', #107, #189, #351 ) ;
#229 = CYLINDRICAL_SURFACE ( 'NONE', #294, 44.45000000000002416 ) ;
#230 = VERTEX_POINT ( 'NONE', #65 ) ;
#231 = PERSON ( 'UNSPECIFIED', 'UNSPECIFIED', 'UNSPECIFIED', ('UNSPECIFIED'), ('UNSPECIFIED'), ('UNSPECIFIED') ) ;
#232 = EDGE_CURVE ( 'NONE', #69, #401, #301, .T. ) ;
#233 = DIRECTION ( 'NONE',  ( 7.441173087299979304E-17, -1.000000000000000000, -0.000000000000000000 ) ) ;
#234 = ORIENTED_EDGE ( 'NONE', *, *, #321, .F. ) ;
#235 = DATE_TIME_ROLE ( 'creation_date' ) ;
#236 = ORIENTED_EDGE ( 'NONE', *, *, #213, .F. ) ;
#237 = CC_DESIGN_SECURITY_CLASSIFICATION ( #282, ( #120 ) ) ;
#238 = PERSON_AND_ORGANIZATION_ROLE ( 'creator' ) ;
#239 = ORIENTED_EDGE ( 'NONE', *, *, #358, .T. ) ;
#240 = EDGE_CURVE ( 'NONE', #44, #304, #326, .T. ) ;
#241 = APPROVAL_ROLE ( '' ) ;
#242 = DIRECTION ( 'NONE',  ( 7.441173087299979304E-17, -1.000000000000000000, -0.000000000000000000 ) ) ;
#243 = PERSON_AND_ORGANIZATION_ROLE ( 'classification_officer' ) ;
#244 = FACE_BOUND ( 'NONE', #303, .T. ) ;
#245 = AXIS2_PLACEMENT_3D ( 'NONE', #247, #370, #330 ) ;
#246 = CC_DESIGN_APPROVAL ( #299, ( #282 ) ) ;
#247 = CARTESIAN_POINT ( 'NONE',  ( -333.0000000000000000, 306.0000000000000000, 0.000000000000000000 ) ) ;
#248 = EDGE_CURVE ( 'NONE', #55, #293, #41, .T. ) ;
#249 = DIRECTION ( 'NONE',  ( 7.441173087299979304E-17, -1.000000000000000000, -0.000000000000000000 ) ) ;
#250 = DIRECTION ( 'NONE',  ( 0.000000000000000000, 0.000000000000000000, 1.000000000000000000 ) ) ;
#251 = CIRCLE ( 'NONE', #404, 38.95000000000000995 ) ;
#252 = DIRECTION ( 'NONE',  ( -7.441173087299979304E-17, 1.000000000000000000, 0.000000000000000000 ) ) ;
#253 = EDGE_CURVE ( 'NONE', #165, #224, #87, .T. ) ;
#254 = DIRECTION ( 'NONE',  ( -7.441173087299979304E-17, 1.000000000000000000, 0.000000000000000000 ) ) ;
#255 = CYLINDRICAL_SURFACE ( 'NONE', #207, 44.45000000000002416 ) ;
#256 =( NAMED_UNIT ( * ) SI_UNIT ( $, .STERADIAN. ) SOLID_ANGLE_UNIT ( ) );
#257 = APPLICATION_CONTEXT ( 'configuration controlled 3d designs of mechanical parts and assemblies' ) ;
#258 = ORIENTED_EDGE ( 'NONE', *, *, #358, .F. ) ;
#259 = CARTESIAN_POINT ( 'NONE',  ( -333.0000000000000000, 306.0000000000000000, -44.45000000000002416 ) ) ;
#260 = ORIENTED_EDGE ( 'NONE', *, *, #248, .F. ) ;
#261 = CIRCLE ( 'NONE', #49, 38.95000000000000995 ) ;
#262 = ORIENTED_EDGE ( 'NONE', *, *, #248, .T. ) ;
#263 = AXIS2_PLACEMENT_3D ( 'NONE', #102, #6, #223 ) ;
#264 = EDGE_CURVE ( 'NONE', #165, #140, #125, .T. ) ;
#265 = DIRECTION ( 'NONE',  ( 0.000000000000000000, 0.000000000000000000, 1.000000000000000000 ) ) ;
#266 = EDGE_LOOP ( 'NONE', ( #347, #169 ) ) ;
#267 = VERTEX_POINT ( 'NONE', #319 ) ;
#268 = APPLICATION_PROTOCOL_DEFINITION ( 'international standard', 'config_control_design', 1994, #257 ) ;
#269 = CYLINDRICAL_SURFACE ( 'NONE', #57, 38.95000000000000995 ) ;
#270 = CIRCLE ( 'NONE', #318, 38.95000000000000995 ) ;
#271 = PERSON_AND_ORGANIZATION ( #231, #29 ) ;
#272 = CYLINDRICAL_SURFACE ( 'NONE', #99, 44.45000000000002416 ) ;
#273 = APPROVAL_STATUS ( 'not_yet_approved' ) ;
#274 = DIRECTION ( 'NONE',  ( 7.441173087299979304E-17, -1.000000000000000000, -0.000000000000000000 ) ) ;
#275 = PERSON_AND_ORGANIZATION ( #231, #29 ) ;
#276 = EDGE_LOOP ( 'NONE', ( #200, #227, #239, #38 ) ) ;
#277 = AXIS2_PLACEMENT_3D ( 'NONE', #184, #342, #127 ) ;
#278 = AXIS2_PLACEMENT_3D ( 'NONE', #74, #70, #287 ) ;
#279 = DIRECTION ( 'NONE',  ( -7.441173087299979304E-17, 1.000000000000000000, 0.000000000000000000 ) ) ;
#280 = CARTESIAN_POINT ( 'NONE',  ( -44.45000000000003837, 191.4999999999999432, 5.443555022209988064E-15 ) ) ;
#281 = CARTESIAN_POINT ( 'NONE',  ( -1.387778780781445676E-14, 191.4999999999999432, 0.000000000000000000 ) ) ;
#282 = SECURITY_CLASSIFICATION ( '', '', #360 ) ;
#283 = DIRECTION ( 'NONE',  ( 0.000000000000000000, 0.000000000000000000, 1.000000000000000000 ) ) ;
#284 = LINE ( 'NONE', #30, #286 ) ;
#285 = ADVANCED_FACE ( 'NONE', ( #289 ), #35, .F. ) ;
#286 = VECTOR ( 'NONE', #411, 1000.000000000000000 ) ;
#287 = DIRECTION ( 'NONE',  ( 0.000000000000000000, 0.000000000000000000, 1.000000000000000000 ) ) ;
#288 = ORIENTED_EDGE ( 'NONE', *, *, #177, .F. ) ;
#289 = FACE_OUTER_BOUND ( 'NONE', #40, .T. ) ;
#290 = ORIENTED_EDGE ( 'NONE', *, *, #240, .T. ) ;
#291 = FACE_OUTER_BOUND ( 'NONE', #11, .T. ) ;
#292 = CC_DESIGN_PERSON_AND_ORGANIZATION_ASSIGNMENT ( #271, #203, ( #64 ) ) ;
#293 = VERTEX_POINT ( 'NONE', #355 ) ;
#294 = AXIS2_PLACEMENT_3D ( 'NONE', #136, #4, #37 ) ;
#295 = ORIENTED_EDGE ( 'NONE', *, *, #68, .F. ) ;
#296 = ORIENTED_EDGE ( 'NONE', *, *, #129, .F. ) ;
#297 = COORDINATED_UNIVERSAL_TIME_OFFSET ( 10, 0, .AHEAD. ) ;
#298 = FACE_OUTER_BOUND ( 'NONE', #317, .T. ) ;
#299 = APPROVAL ( #209, 'UNSPECIFIED' ) ;
#300 = CARTESIAN_POINT ( 'NONE',  ( -114.5000000000000995, 306.0000000000000000, -44.45000000000002416 ) ) ;
#301 = CIRCLE ( 'NONE', #119, 44.45000000000002416 ) ;
#302 = APPROVAL_ROLE ( '' ) ;
#303 = EDGE_LOOP ( 'NONE', ( #234, #135 ) ) ;
#304 = VERTEX_POINT ( 'NONE', #225 ) ;
#305 = CARTESIAN_POINT ( 'NONE',  ( 0.000000000000000000, 5.000000000000004441, 0.000000000000000000 ) ) ;
#306 = CIRCLE ( 'NONE', #151, 38.95000000000000995 ) ;
#307 = APPROVAL_PERSON_ORGANIZATION ( #394, #118, #241 ) ;
#308 = CARTESIAN_POINT ( 'NONE',  ( 0.000000000000000000, 5.000000000000004441, 0.000000000000000000 ) ) ;
#309 = CC_DESIGN_PERSON_AND_ORGANIZATION_ASSIGNMENT ( #275, #110, ( #120 ) ) ;
#310 = FACE_BOUND ( 'NONE', #197, .T. ) ;
#311 = DIRECTION ( 'NONE',  ( 7.441173087299979304E-17, -1.000000000000000000, -0.000000000000000000 ) ) ;
#312 = AXIS2_PLACEMENT_3D ( 'NONE', #192, #346, #103 ) ;
#313 = DIRECTION ( 'NONE',  ( 1.000000000000000000, 0.000000000000000000, 0.000000000000000000 ) ) ;
#314 = DIRECTION ( 'NONE',  ( -7.441173087299979304E-17, 1.000000000000000000, 0.000000000000000000 ) ) ;
#315 = EDGE_CURVE ( 'NONE', #352, #230, #221, .T. ) ;
#316 = DIRECTION ( 'NONE',  ( 0.000000000000000000, 0.000000000000000000, 1.000000000000000000 ) ) ;
#317 = EDGE_LOOP ( 'NONE', ( #361, #324, #71, #137 ) ) ;
#318 = AXIS2_PLACEMENT_3D ( 'NONE', #157, #345, #95 ) ;
#319 = CARTESIAN_POINT ( 'NONE',  ( -114.5000000000000995, 306.0000000000000000, -38.95000000000000995 ) ) ;
#320 = ORIENTED_EDGE ( 'NONE', *, *, #240, .F. ) ;
#321 = EDGE_CURVE ( 'NONE', #224, #165, #251, .T. ) ;
#322 = FACE_OUTER_BOUND ( 'NONE', #276, .T. ) ;
#323 = ORIENTED_EDGE ( 'NONE', *, *, #331, .F. ) ;
#324 = ORIENTED_EDGE ( 'NONE', *, *, #264, .T. ) ;
#325 = PERSON_AND_ORGANIZATION ( #231, #29 ) ;
#326 = CIRCLE ( 'NONE', #402, 44.45000000000002416 ) ;
#327 = APPROVAL_PERSON_ORGANIZATION ( #325, #216, #302 ) ;
#328 = ORIENTED_EDGE ( 'NONE', *, *, #3, .T. ) ;
#329 = CALENDAR_DATE ( 2026, 20, 1 ) ;
#330 = DIRECTION ( 'NONE',  ( 0.000000000000000000, 0.000000000000000000, 1.000000000000000000 ) ) ;
#331 = EDGE_CURVE ( 'NONE', #132, #173, #219, .T. ) ;
#332 = PERSON_AND_ORGANIZATION ( #231, #29 ) ;
#333 = DIRECTION ( 'NONE',  ( -1.000000000000000000, 0.000000000000000000, 0.000000000000000000 ) ) ;
#334 = DIRECTION ( 'NONE',  ( -7.441173087299979304E-17, 1.000000000000000000, 0.000000000000000000 ) ) ;
#335 = EDGE_CURVE ( 'NONE', #75, #140, #131, .T. ) ;
#336 = COORDINATED_UNIVERSAL_TIME_OFFSET ( 10, 0, .AHEAD. ) ;
#337 = CARTESIAN_POINT ( 'NONE',  ( -114.5000000000000995, 306.0000000000000000, 0.000000000000000000 ) ) ;
#338 = ORIENTED_EDGE ( 'NONE', *, *, #391, .T. ) ;
#339 = CARTESIAN_POINT ( 'NONE',  ( -114.5000000000000995, 306.0000000000000000, 0.000000000000000000 ) ) ;
#340 = PRODUCT_RELATED_PRODUCT_CATEGORY ( 'detail', '', ( #64 ) ) ;
#341 = CARTESIAN_POINT ( 'NONE',  ( -38.95000000000000995, 5.000000000000001776, 4.769999282678942383E-15 ) ) ;
#342 = DIRECTION ( 'NONE',  ( -1.000000000000000000, 0.000000000000000000, 0.000000000000000000 ) ) ;
#343 = CARTESIAN_POINT ( 'NONE',  ( -1.387778780781445676E-14, 191.4999999999999432, 0.000000000000000000 ) ) ;
#344 = CC_DESIGN_APPROVAL ( #118, ( #120 ) ) ;
#345 = DIRECTION ( 'NONE',  ( -1.000000000000000000, 0.000000000000000000, 0.000000000000000000 ) ) ;
#346 = DIRECTION ( 'NONE',  ( 7.441173087299979304E-17, -1.000000000000000000, -0.000000000000000000 ) ) ;
#347 = ORIENTED_EDGE ( 'NONE', *, *, #335, .T. ) ;
#348 = CARTESIAN_POINT ( 'NONE',  ( -333.0000000000000000, 306.0000000000000000, 38.95000000000000995 ) ) ;
#349 = ORIENTED_EDGE ( 'NONE', *, *, #264, .F. ) ;
#350 = EDGE_CURVE ( 'NONE', #224, #75, #381, .T. ) ;
#351 = DIRECTION ( 'NONE',  ( 0.000000000000000000, 0.000000000000000000, 1.000000000000000000 ) ) ;
#352 = VERTEX_POINT ( 'NONE', #348 ) ;
#353 = FACE_BOUND ( 'NONE', #354, .T. ) ;
#354 = EDGE_LOOP ( 'NONE', ( #13, #236 ) ) ;
#355 = CARTESIAN_POINT ( 'NONE',  ( -333.0000000000000000, 306.0000000000000000, -44.45000000000002416 ) ) ;
#356 = ORIENTED_EDGE ( 'NONE', *, *, #350, .T. ) ;
#357 = DATE_TIME_ROLE ( 'classification_date' ) ;
#358 = EDGE_CURVE ( 'NONE', #401, #69, #50, .T. ) ;
#359 = CARTESIAN_POINT ( 'NONE',  ( 44.45000000000002416, 5.000000000000007994, 0.000000000000000000 ) ) ;
#360 = SECURITY_CLASSIFICATION_LEVEL ( 'unclassified' ) ;
#361 = ORIENTED_EDGE ( 'NONE', *, *, #321, .T. ) ;
#362 = MANIFOLD_SOLID_BREP ( 'Stainless chs 88.9 X 5.5 CHS(1)[2]', #20 ) ;
#363 = PERSON_AND_ORGANIZATION_ROLE ( 'creator' ) ;
#364 = DIRECTION ( 'NONE',  ( 0.000000000000000000, 0.000000000000000000, 1.000000000000000000 ) ) ;
#365 = ADVANCED_FACE ( 'NONE', ( #353, #291 ), #31, .T. ) ;
#366 = DATE_AND_TIME ( #397, #10 ) ;
#367 = PLANE ( 'NONE',  #395 ) ;
#368 = VECTOR ( 'NONE', #386, 1000.000000000000000 ) ;
#369 = COORDINATED_UNIVERSAL_TIME_OFFSET ( 10, 0, .AHEAD. ) ;
#370 = DIRECTION ( 'NONE',  ( -1.000000000000000000, 0.000000000000000000, 0.000000000000000000 ) ) ;
#371 = CYLINDRICAL_SURFACE ( 'NONE', #161, 44.45000000000002416 ) ;
#372 = DIRECTION ( 'NONE',  ( 1.000000000000000000, -0.000000000000000000, -0.000000000000000000 ) ) ;
#373 = CC_DESIGN_PERSON_AND_ORGANIZATION_ASSIGNMENT ( #178, #243, ( #282 ) ) ;
#374 = AXIS2_PLACEMENT_3D ( 'NONE', #164, #166, #316 ) ;
#375 = CARTESIAN_POINT ( 'NONE',  ( -1.387778780781445676E-14, 191.4999999999999432, 0.000000000000000000 ) ) ;
#376 = PLANE ( 'NONE',  #85 ) ;
#377 = LINE ( 'NONE', #280, #138 ) ;
#378 = APPROVAL_PERSON_ORGANIZATION ( #332, #299, #53 ) ;
#379 = MECHANICAL_CONTEXT ( 'NONE', #390, 'mechanical' ) ;
#380 = ORIENTED_EDGE ( 'NONE', *, *, #253, .T. ) ;
#381 = LINE ( 'NONE', #8, #368 ) ;
#382 = EDGE_LOOP ( 'NONE', ( #320, #113 ) ) ;
#383 = CARTESIAN_POINT ( 'NONE',  ( -333.0000000000000000, 306.0000000000000000, 38.95000000000000995 ) ) ;
#384 = EDGE_LOOP ( 'NONE', ( #260, #410, #77, #115 ) ) ;
#385 = CIRCLE ( 'NONE', #218, 44.45000000000002416 ) ;
#386 = DIRECTION ( 'NONE',  ( 7.441173087299979304E-17, -1.000000000000000000, -0.000000000000000000 ) ) ;
#387 = ORIENTED_EDGE ( 'NONE', *, *, #315, .T. ) ;
#388 = DIRECTION ( 'NONE',  ( 1.000000000000000000, 0.000000000000000000, 0.000000000000000000 ) ) ;
#389 = ORIENTED_EDGE ( 'NONE', *, *, #232, .F. ) ;
#390 = APPLICATION_CONTEXT ( 'configuration controlled 3d designs of mechanical parts and assemblies' ) ;
#391 = EDGE_CURVE ( 'NONE', #293, #44, #133, .T. ) ;
#392 = COORDINATED_UNIVERSAL_TIME_OFFSET ( 10, 0, .AHEAD. ) ;
#393 = CARTESIAN_POINT ( 'NONE',  ( -333.0000000000000000, 306.0000000000000000, 44.45000000000002416 ) ) ;
#394 = PERSON_AND_ORGANIZATION ( #231, #29 ) ;
#395 = AXIS2_PLACEMENT_3D ( 'NONE', #174, #150, #403 ) ;
#396 = FACE_OUTER_BOUND ( 'NONE', #167, .T. ) ;
#397 = CALENDAR_DATE ( 2026, 20, 1 ) ;
#398 = CARTESIAN_POINT ( 'NONE',  ( -1.387778780781445676E-14, 191.4999999999999432, 0.000000000000000000 ) ) ;
#399 = ADVANCED_FACE ( 'NONE', ( #322 ), #229, .T. ) ;
#400 = PERSON_AND_ORGANIZATION ( #231, #29 ) ;
#401 = VERTEX_POINT ( 'NONE', #76 ) ;
#402 = AXIS2_PLACEMENT_3D ( 'NONE', #212, #215, #59 ) ;
#403 = DIRECTION ( 'NONE',  ( 0.000000000000000000, 0.000000000000000000, 1.000000000000000000 ) ) ;
#404 = AXIS2_PLACEMENT_3D ( 'NONE', #66, #314, #160 ) ;
#405 = DIRECTION ( 'NONE',  ( -1.000000000000000000, 0.000000000000000000, 0.000000000000000000 ) ) ;
#406 = CC_DESIGN_DATE_AND_TIME_ASSIGNMENT ( #48, #235, ( #22 ) ) ;
#407 = DIRECTION ( 'NONE',  ( 1.000000000000000000, -0.000000000000000000, -0.000000000000000000 ) ) ;
#408 = DIRECTION ( 'NONE',  ( 0.000000000000000000, 0.000000000000000000, 1.000000000000000000 ) ) ;
#409 = LINE ( 'NONE', #24, #156 ) ;
#410 = ORIENTED_EDGE ( 'NONE', *, *, #148, .T. ) ;
#411 = DIRECTION ( 'NONE',  ( 1.000000000000000000, -0.000000000000000000, -0.000000000000000000 ) ) ;
ENDSEC;
END-ISO-10303-21;
