ISO-10303-21;
HEADER;
FILE_DESCRIPTION (( 'STEP AP203' ),
    '1' );
FILE_NAME ('1_2 FW 304_REV_.step',
    '2026-01-09T02:54:09',
    ( '' ),
    ( '' ),
    'SwSTEP 2.0',
    'SolidWorks 2025',
    '' );
FILE_SCHEMA (( 'CONFIG_CONTROL_DESIGN' ));
ENDSEC;

DATA;
#1 = DATE_AND_TIME ( #75, #202 ) ;
#2 = EDGE_LOOP ( 'NONE', ( #38, #144 ) ) ;
#3 = CIRCLE ( 'NONE', #5, 12.00000000000000000 ) ;
#4 = ORIENTED_EDGE ( 'NONE', *, *, #12, .T. ) ;
#5 = AXIS2_PLACEMENT_3D ( 'NONE', #85, #87, #86 ) ;
#6 = ORIENTED_EDGE ( 'NONE', *, *, #12, .F. ) ;
#7 = DIRECTION ( 'NONE',  ( -0.000000000000000000, 1.000000000000000000, -0.000000000000000000 ) ) ;
#8 = CYLINDRICAL_SURFACE ( 'NONE', #89, 7.000000000000000000 ) ;
#9 = CARTESIAN_POINT ( 'NONE',  ( 8.572527594031473190E-16, 0.000000000000000000, -7.000000000000000000 ) ) ;
#10 = CARTESIAN_POINT ( 'NONE',  ( 1.469576158976823947E-15, -2.000000000000000000, -12.00000000000000000 ) ) ;
#11 = DIRECTION ( 'NONE',  ( 1.000000000000000000, 0.000000000000000000, 0.000000000000000000 ) ) ;
#12 = EDGE_CURVE ( 'NONE', #171, #229, #133, .T. ) ;
#13 = AXIS2_PLACEMENT_3D ( 'NONE', #205, #33, #216 ) ;
#14 = CALENDAR_DATE ( 2026, 9, 1 ) ;
#15 = DIRECTION ( 'NONE',  ( 0.000000000000000000, 0.000000000000000000, 1.000000000000000000 ) ) ;
#16 = COORDINATED_UNIVERSAL_TIME_OFFSET ( 10, 0, .AHEAD. ) ;
#17 = PERSON_AND_ORGANIZATION_ROLE ( 'creator' ) ;
#18 = ADVANCED_FACE ( 'NONE', ( #177, #102 ), #217, .F. ) ;
#19 = CARTESIAN_POINT ( 'NONE',  ( 1.469576158976823947E-15, 0.000000000000000000, -12.00000000000000000 ) ) ;
#20 = EDGE_LOOP ( 'NONE', ( #117, #114 ) ) ;
#21 = CC_DESIGN_APPROVAL ( #198, ( #71 ) ) ;
#22 = DIRECTION ( 'NONE',  ( 0.000000000000000000, -1.000000000000000000, 0.000000000000000000 ) ) ;
#23 = VERTEX_POINT ( 'NONE', #160 ) ;
#24 = APPROVAL_DATE_TIME ( #191, #184 ) ;
#25 = VECTOR ( 'NONE', #179, 1000.000000000000000 ) ;
#26 = AXIS2_PLACEMENT_3D ( 'NONE', #30, #156, #212 ) ;
#27 = DIRECTION ( 'NONE',  ( -0.000000000000000000, 1.000000000000000000, -0.000000000000000000 ) ) ;
#28 = ORIENTED_EDGE ( 'NONE', *, *, #248, .T. ) ;
#29 = ADVANCED_FACE ( 'NONE', ( #233 ), #111, .F. ) ;
#30 = CARTESIAN_POINT ( 'NONE',  ( 7.000000000000000000, -2.000000000000000000, 0.000000000000000000 ) ) ;
#31 =( LENGTH_UNIT ( ) NAMED_UNIT ( * ) SI_UNIT ( .MILLI., .METRE. ) );
#32 = CC_DESIGN_PERSON_AND_ORGANIZATION_ASSIGNMENT ( #118, #173, ( #234 ) ) ;
#33 = DIRECTION ( 'NONE',  ( -0.000000000000000000, 1.000000000000000000, -0.000000000000000000 ) ) ;
#34 = FACE_OUTER_BOUND ( 'NONE', #211, .T. ) ;
#35 = APPROVAL_STATUS ( 'not_yet_approved' ) ;
#36 = DIRECTION ( 'NONE',  ( -0.000000000000000000, 1.000000000000000000, -0.000000000000000000 ) ) ;
#37 = DIRECTION ( 'NONE',  ( 0.000000000000000000, 0.000000000000000000, 1.000000000000000000 ) ) ;
#38 = ORIENTED_EDGE ( 'NONE', *, *, #199, .F. ) ;
#39 = ADVANCED_FACE ( 'NONE', ( #201 ), #8, .F. ) ;
#40 = FACE_OUTER_BOUND ( 'NONE', #42, .T. ) ;
#41 = DIRECTION ( 'NONE',  ( -0.000000000000000000, 1.000000000000000000, -0.000000000000000000 ) ) ;
#42 = EDGE_LOOP ( 'NONE', ( #176, #146 ) ) ;
#43 = APPROVAL_PERSON_ORGANIZATION ( #129, #184, #183 ) ;
#44 = FACE_OUTER_BOUND ( 'NONE', #161, .T. ) ;
#45 = DIRECTION ( 'NONE',  ( 0.000000000000000000, 0.000000000000000000, 1.000000000000000000 ) ) ;
#46 = CARTESIAN_POINT ( 'NONE',  ( 0.000000000000000000, 0.000000000000000000, 0.000000000000000000 ) ) ;
#47 = LINE ( 'NONE', #208, #104 ) ;
#48 = PERSON ( 'UNSPECIFIED', 'UNSPECIFIED', 'UNSPECIFIED', ('UNSPECIFIED'), ('UNSPECIFIED'), ('UNSPECIFIED') ) ;
#49 = DIRECTION ( 'NONE',  ( -0.000000000000000000, 1.000000000000000000, -0.000000000000000000 ) ) ;
#50 = DIRECTION ( 'NONE',  ( -0.000000000000000000, 1.000000000000000000, -0.000000000000000000 ) ) ;
#51 = DIRECTION ( 'NONE',  ( -0.000000000000000000, 1.000000000000000000, -0.000000000000000000 ) ) ;
#52 = LOCAL_TIME ( 13, 54, 9.000000000000000000, #187 ) ;
#53 = APPROVAL_DATE_TIME ( #93, #198 ) ;
#54 = AXIS2_PLACEMENT_3D ( 'NONE', #162, #27, #45 ) ;
#55 = ORIENTED_EDGE ( 'NONE', *, *, #199, .T. ) ;
#56 = APPROVAL_ROLE ( '' ) ;
#57 = VERTEX_POINT ( 'NONE', #207 ) ;
#58 =( GEOMETRIC_REPRESENTATION_CONTEXT ( 3 ) GLOBAL_UNCERTAINTY_ASSIGNED_CONTEXT ( ( #132 ) ) GLOBAL_UNIT_ASSIGNED_CONTEXT ( ( #31, #91, #65 ) ) REPRESENTATION_CONTEXT ( 'NONE', 'WORKASPACE' ) );
#59 = ORIENTED_EDGE ( 'NONE', *, *, #82, .F. ) ;
#60 = APPROVAL_STATUS ( 'not_yet_approved' ) ;
#61 = CC_DESIGN_PERSON_AND_ORGANIZATION_ASSIGNMENT ( #78, #17, ( #145 ) ) ;
#62 = ORIENTED_EDGE ( 'NONE', *, *, #166, .F. ) ;
#63 = VECTOR ( 'NONE', #210, 1000.000000000000000 ) ;
#64 = CIRCLE ( 'NONE', #223, 7.000000000000000000 ) ;
#65 =( NAMED_UNIT ( * ) SI_UNIT ( $, .STERADIAN. ) SOLID_ANGLE_UNIT ( ) );
#66 = LINE ( 'NONE', #242, #63 ) ;
#67 = ADVANCED_BREP_SHAPE_REPRESENTATION ( '1_2 FW 304_REV_', ( #90, #219 ), #58 ) ;
#68 = AXIS2_PLACEMENT_3D ( 'NONE', #138, #22, #174 ) ;
#69 = CARTESIAN_POINT ( 'NONE',  ( 0.000000000000000000, -2.000000000000000000, 7.000000000000000000 ) ) ;
#70 = APPROVAL_ROLE ( '' ) ;
#71 = SECURITY_CLASSIFICATION ( '', '', #96 ) ;
#72 = ADVANCED_FACE ( 'NONE', ( #40, #194 ), #178, .F. ) ;
#73 = CARTESIAN_POINT ( 'NONE',  ( 0.000000000000000000, 0.000000000000000000, 0.000000000000000000 ) ) ;
#74 = EDGE_LOOP ( 'NONE', ( #4, #169 ) ) ;
#75 = CALENDAR_DATE ( 2026, 9, 1 ) ;
#76 = VERTEX_POINT ( 'NONE', #116 ) ;
#77 = PERSON_AND_ORGANIZATION ( #48, #147 ) ;
#78 = PERSON_AND_ORGANIZATION ( #48, #147 ) ;
#79 = ORIENTED_EDGE ( 'NONE', *, *, #143, .F. ) ;
#80 = VERTEX_POINT ( 'NONE', #218 ) ;
#81 = CC_DESIGN_APPROVAL ( #230, ( #234 ) ) ;
#82 = EDGE_CURVE ( 'NONE', #229, #171, #121, .T. ) ;
#83 = ORIENTED_EDGE ( 'NONE', *, *, #224, .T. ) ;
#84 = DIRECTION ( 'NONE',  ( 0.000000000000000000, 0.000000000000000000, 1.000000000000000000 ) ) ;
#85 = CARTESIAN_POINT ( 'NONE',  ( 0.000000000000000000, -2.000000000000000000, 0.000000000000000000 ) ) ;
#86 = DIRECTION ( 'NONE',  ( 0.000000000000000000, 0.000000000000000000, 1.000000000000000000 ) ) ;
#87 = DIRECTION ( 'NONE',  ( -0.000000000000000000, 1.000000000000000000, -0.000000000000000000 ) ) ;
#88 = COORDINATED_UNIVERSAL_TIME_OFFSET ( 10, 0, .AHEAD. ) ;
#89 = AXIS2_PLACEMENT_3D ( 'NONE', #149, #49, #127 ) ;
#90 = MANIFOLD_SOLID_BREP ( 'Revolve', #126 ) ;
#91 =( NAMED_UNIT ( * ) PLANE_ANGLE_UNIT ( ) SI_UNIT ( $, .RADIAN. ) );
#92 = CARTESIAN_POINT ( 'NONE',  ( 0.000000000000000000, 0.000000000000000000, 0.000000000000000000 ) ) ;
#93 = DATE_AND_TIME ( #14, #52 ) ;
#94 = CC_DESIGN_SECURITY_CLASSIFICATION ( #71, ( #234 ) ) ;
#95 = CIRCLE ( 'NONE', #185, 7.000000000000000000 ) ;
#96 = SECURITY_CLASSIFICATION_LEVEL ( 'unclassified' ) ;
#97 = ORIENTED_EDGE ( 'NONE', *, *, #155, .F. ) ;
#98 = DATE_TIME_ROLE ( 'creation_date' ) ;
#99 = LOCAL_TIME ( 13, 54, 9.000000000000000000, #153 ) ;
#100 = PRODUCT_DEFINITION_SHAPE ( 'NONE', 'NONE',  #145 ) ;
#101 = AXIS2_PLACEMENT_3D ( 'NONE', #73, #41, #15 ) ;
#102 = FACE_OUTER_BOUND ( 'NONE', #20, .T. ) ;
#103 = PERSON_AND_ORGANIZATION ( #48, #147 ) ;
#104 = VECTOR ( 'NONE', #238, 1000.000000000000000 ) ;
#105 = CARTESIAN_POINT ( 'NONE',  ( 0.000000000000000000, -2.000000000000000000, 0.000000000000000000 ) ) ;
#106 = CARTESIAN_POINT ( 'NONE',  ( 0.000000000000000000, 0.000000000000000000, 0.000000000000000000 ) ) ;
#107 = CARTESIAN_POINT ( 'NONE',  ( 8.572527594031473190E-16, -2.000000000000000000, -7.000000000000000000 ) ) ;
#108 = CARTESIAN_POINT ( 'NONE',  ( 0.000000000000000000, 0.000000000000000000, 0.000000000000000000 ) ) ;
#109 = APPLICATION_CONTEXT ( 'configuration controlled 3d designs of mechanical parts and assemblies' ) ;
#110 = CIRCLE ( 'NONE', #124, 12.00000000000000000 ) ;
#111 = CYLINDRICAL_SURFACE ( 'NONE', #241, 7.000000000000000000 ) ;
#112 = SHAPE_DEFINITION_REPRESENTATION ( #100, #67 ) ;
#113 = DIRECTION ( 'NONE',  ( 0.000000000000000000, 0.000000000000000000, 1.000000000000000000 ) ) ;
#114 = ORIENTED_EDGE ( 'NONE', *, *, #143, .T. ) ;
#115 = PERSON_AND_ORGANIZATION_ROLE ( 'classification_officer' ) ;
#116 = CARTESIAN_POINT ( 'NONE',  ( 8.572527594031473190E-16, 0.000000000000000000, -7.000000000000000000 ) ) ;
#117 = ORIENTED_EDGE ( 'NONE', *, *, #197, .T. ) ;
#118 = PERSON_AND_ORGANIZATION ( #48, #147 ) ;
#119 = DESIGN_CONTEXT ( 'detailed design', #109, 'design' ) ;
#120 = AXIS2_PLACEMENT_3D ( 'NONE', #186, #225, #180 ) ;
#121 = CIRCLE ( 'NONE', #13, 7.000000000000000000 ) ;
#122 = DIRECTION ( 'NONE',  ( 0.000000000000000000, 0.000000000000000000, 1.000000000000000000 ) ) ;
#123 = ADVANCED_FACE ( 'NONE', ( #44 ), #245, .T. ) ;
#124 = AXIS2_PLACEMENT_3D ( 'NONE', #106, #36, #130 ) ;
#125 = APPLICATION_PROTOCOL_DEFINITION ( 'international standard', 'config_control_design', 1994, #181 ) ;
#126 = CLOSED_SHELL ( 'NONE', ( #123, #39, #29, #72, #188, #18 ) ) ;
#127 = DIRECTION ( 'NONE',  ( 0.000000000000000000, 0.000000000000000000, 1.000000000000000000 ) ) ;
#128 = CC_DESIGN_PERSON_AND_ORGANIZATION_ASSIGNMENT ( #215, #243, ( #234 ) ) ;
#129 = PERSON_AND_ORGANIZATION ( #48, #147 ) ;
#130 = DIRECTION ( 'NONE',  ( 0.000000000000000000, 0.000000000000000000, 1.000000000000000000 ) ) ;
#131 = EDGE_CURVE ( 'NONE', #76, #23, #64, .T. ) ;
#132 = UNCERTAINTY_MEASURE_WITH_UNIT (LENGTH_MEASURE( 1.000000000000000082E-05 ), #31, 'distance_accuracy_value', 'NONE');
#133 = CIRCLE ( 'NONE', #54, 7.000000000000000000 ) ;
#134 = VERTEX_POINT ( 'NONE', #19 ) ;
#135 = PERSON_AND_ORGANIZATION ( #48, #147 ) ;
#136 = DATE_AND_TIME ( #190, #99 ) ;
#137 = CIRCLE ( 'NONE', #240, 12.00000000000000000 ) ;
#138 = CARTESIAN_POINT ( 'NONE',  ( 7.000000000000000000, 0.000000000000000000, 0.000000000000000000 ) ) ;
#139 = ORIENTED_EDGE ( 'NONE', *, *, #166, .T. ) ;
#140 = VECTOR ( 'NONE', #150, 1000.000000000000000 ) ;
#141 = ORIENTED_EDGE ( 'NONE', *, *, #131, .T. ) ;
#142 = PRODUCT ( '1_2 FW 304_REV_', '1_2 FW 304_REV_', '', ( #148 ) ) ;
#143 = EDGE_CURVE ( 'NONE', #134, #80, #110, .T. ) ;
#144 = ORIENTED_EDGE ( 'NONE', *, *, #131, .F. ) ;
#145 = PRODUCT_DEFINITION ( 'UNKNOWN', '', #234, #119 ) ;
#146 = ORIENTED_EDGE ( 'NONE', *, *, #248, .F. ) ;
#147 = ORGANIZATION ( 'UNSPECIFIED', 'UNSPECIFIED', '' ) ;
#148 = MECHANICAL_CONTEXT ( 'NONE', #181, 'mechanical' ) ;
#149 = CARTESIAN_POINT ( 'NONE',  ( 0.000000000000000000, 0.000000000000000000, 0.000000000000000000 ) ) ;
#150 = DIRECTION ( 'NONE',  ( -0.000000000000000000, 1.000000000000000000, -0.000000000000000000 ) ) ;
#151 = DIRECTION ( 'NONE',  ( -0.000000000000000000, 1.000000000000000000, -0.000000000000000000 ) ) ;
#152 = CARTESIAN_POINT ( 'NONE',  ( 0.000000000000000000, 0.000000000000000000, 0.000000000000000000 ) ) ;
#153 = COORDINATED_UNIVERSAL_TIME_OFFSET ( 10, 0, .AHEAD. ) ;
#154 = CARTESIAN_POINT ( 'NONE',  ( 0.000000000000000000, 0.000000000000000000, 0.000000000000000000 ) ) ;
#155 = EDGE_CURVE ( 'NONE', #57, #80, #66, .T. ) ;
#156 = DIRECTION ( 'NONE',  ( -0.000000000000000000, 1.000000000000000000, 0.000000000000000000 ) ) ;
#157 = EDGE_CURVE ( 'NONE', #57, #200, #137, .T. ) ;
#158 = ORIENTED_EDGE ( 'NONE', *, *, #170, .F. ) ;
#159 = DATE_AND_TIME ( #192, #189 ) ;
#160 = CARTESIAN_POINT ( 'NONE',  ( 0.000000000000000000, 0.000000000000000000, 7.000000000000000000 ) ) ;
#161 = EDGE_LOOP ( 'NONE', ( #249, #139, #246, #97 ) ) ;
#162 = CARTESIAN_POINT ( 'NONE',  ( 0.000000000000000000, -2.000000000000000000, 0.000000000000000000 ) ) ;
#163 = CC_DESIGN_DATE_AND_TIME_ASSIGNMENT ( #1, #231, ( #71 ) ) ;
#164 = LOCAL_TIME ( 13, 54, 9.000000000000000000, #88 ) ;
#165 = APPLICATION_PROTOCOL_DEFINITION ( 'international standard', 'config_control_design', 1994, #109 ) ;
#166 = EDGE_CURVE ( 'NONE', #200, #134, #47, .T. ) ;
#167 = CALENDAR_DATE ( 2026, 9, 1 ) ;
#168 = CC_DESIGN_PERSON_AND_ORGANIZATION_ASSIGNMENT ( #103, #182, ( #142 ) ) ;
#169 = ORIENTED_EDGE ( 'NONE', *, *, #82, .T. ) ;
#170 = EDGE_CURVE ( 'NONE', #171, #23, #206, .T. ) ;
#171 = VERTEX_POINT ( 'NONE', #69 ) ;
#172 = EDGE_LOOP ( 'NONE', ( #196, #6, #175, #55 ) ) ;
#173 = PERSON_AND_ORGANIZATION_ROLE ( 'design_supplier' ) ;
#174 = DIRECTION ( 'NONE',  ( 0.000000000000000000, -0.000000000000000000, -1.000000000000000000 ) ) ;
#175 = ORIENTED_EDGE ( 'NONE', *, *, #170, .T. ) ;
#176 = ORIENTED_EDGE ( 'NONE', *, *, #157, .F. ) ;
#177 = FACE_BOUND ( 'NONE', #2, .T. ) ;
#178 = PLANE ( 'NONE',  #26 ) ;
#179 = DIRECTION ( 'NONE',  ( -0.000000000000000000, 1.000000000000000000, -0.000000000000000000 ) ) ;
#180 = DIRECTION ( 'NONE',  ( 0.000000000000000000, 0.000000000000000000, 1.000000000000000000 ) ) ;
#181 = APPLICATION_CONTEXT ( 'configuration controlled 3d designs of mechanical parts and assemblies' ) ;
#182 = PERSON_AND_ORGANIZATION_ROLE ( 'design_owner' ) ;
#183 = APPROVAL_ROLE ( '' ) ;
#184 = APPROVAL ( #35, 'UNSPECIFIED' ) ;
#185 = AXIS2_PLACEMENT_3D ( 'NONE', #108, #50, #203 ) ;
#186 = CARTESIAN_POINT ( 'NONE',  ( 0.000000000000000000, 0.000000000000000000, 0.000000000000000000 ) ) ;
#187 = COORDINATED_UNIVERSAL_TIME_OFFSET ( 10, 0, .AHEAD. ) ;
#188 = ADVANCED_FACE ( 'NONE', ( #34 ), #221, .T. ) ;
#189 = LOCAL_TIME ( 13, 54, 9.000000000000000000, #244 ) ;
#190 = CALENDAR_DATE ( 2026, 9, 1 ) ;
#191 = DATE_AND_TIME ( #167, #164 ) ;
#192 = CALENDAR_DATE ( 2026, 9, 1 ) ;
#193 = APPROVAL_STATUS ( 'not_yet_approved' ) ;
#194 = FACE_BOUND ( 'NONE', #74, .T. ) ;
#195 = CC_DESIGN_PERSON_AND_ORGANIZATION_ASSIGNMENT ( #77, #115, ( #71 ) ) ;
#196 = ORIENTED_EDGE ( 'NONE', *, *, #224, .F. ) ;
#197 = EDGE_CURVE ( 'NONE', #80, #134, #232, .T. ) ;
#198 = APPROVAL ( #60, 'UNSPECIFIED' ) ;
#199 = EDGE_CURVE ( 'NONE', #23, #76, #95, .T. ) ;
#200 = VERTEX_POINT ( 'NONE', #10 ) ;
#201 = FACE_OUTER_BOUND ( 'NONE', #227, .T. ) ;
#202 = LOCAL_TIME ( 13, 54, 9.000000000000000000, #16 ) ;
#203 = DIRECTION ( 'NONE',  ( 0.000000000000000000, 0.000000000000000000, 1.000000000000000000 ) ) ;
#204 = AXIS2_PLACEMENT_3D ( 'NONE', #46, #151, #37 ) ;
#205 = CARTESIAN_POINT ( 'NONE',  ( 0.000000000000000000, -2.000000000000000000, 0.000000000000000000 ) ) ;
#206 = LINE ( 'NONE', #226, #140 ) ;
#207 = CARTESIAN_POINT ( 'NONE',  ( 0.000000000000000000, -2.000000000000000000, 12.00000000000000000 ) ) ;
#208 = CARTESIAN_POINT ( 'NONE',  ( 1.469576158976823947E-15, 0.000000000000000000, -12.00000000000000000 ) ) ;
#209 = APPROVAL_PERSON_ORGANIZATION ( #135, #230, #70 ) ;
#210 = DIRECTION ( 'NONE',  ( -0.000000000000000000, 1.000000000000000000, -0.000000000000000000 ) ) ;
#211 = EDGE_LOOP ( 'NONE', ( #62, #28, #235, #79 ) ) ;
#212 = DIRECTION ( 'NONE',  ( 0.000000000000000000, 0.000000000000000000, 1.000000000000000000 ) ) ;
#213 = APPROVAL_PERSON_ORGANIZATION ( #214, #198, #56 ) ;
#214 = PERSON_AND_ORGANIZATION ( #48, #147 ) ;
#215 = PERSON_AND_ORGANIZATION ( #48, #147 ) ;
#216 = DIRECTION ( 'NONE',  ( 0.000000000000000000, 0.000000000000000000, 1.000000000000000000 ) ) ;
#217 = PLANE ( 'NONE',  #68 ) ;
#218 = CARTESIAN_POINT ( 'NONE',  ( 0.000000000000000000, 0.000000000000000000, 12.00000000000000000 ) ) ;
#219 = AXIS2_PLACEMENT_3D ( 'NONE', #152, #220, #11 ) ;
#220 = DIRECTION ( 'NONE',  ( 0.000000000000000000, 0.000000000000000000, 1.000000000000000000 ) ) ;
#221 = CYLINDRICAL_SURFACE ( 'NONE', #204, 12.00000000000000000 ) ;
#222 = LINE ( 'NONE', #9, #25 ) ;
#223 = AXIS2_PLACEMENT_3D ( 'NONE', #154, #228, #113 ) ;
#224 = EDGE_CURVE ( 'NONE', #229, #76, #222, .T. ) ;
#225 = DIRECTION ( 'NONE',  ( -0.000000000000000000, 1.000000000000000000, -0.000000000000000000 ) ) ;
#226 = CARTESIAN_POINT ( 'NONE',  ( 0.000000000000000000, 0.000000000000000000, 7.000000000000000000 ) ) ;
#227 = EDGE_LOOP ( 'NONE', ( #59, #83, #141, #158 ) ) ;
#228 = DIRECTION ( 'NONE',  ( -0.000000000000000000, 1.000000000000000000, -0.000000000000000000 ) ) ;
#229 = VERTEX_POINT ( 'NONE', #107 ) ;
#230 = APPROVAL ( #193, 'UNSPECIFIED' ) ;
#231 = DATE_TIME_ROLE ( 'classification_date' ) ;
#232 = CIRCLE ( 'NONE', #120, 12.00000000000000000 ) ;
#233 = FACE_OUTER_BOUND ( 'NONE', #172, .T. ) ;
#234 = PRODUCT_DEFINITION_FORMATION_WITH_SPECIFIED_SOURCE ( 'ANY', '', #142, .NOT_KNOWN. ) ;
#235 = ORIENTED_EDGE ( 'NONE', *, *, #155, .T. ) ;
#236 = PRODUCT_RELATED_PRODUCT_CATEGORY ( 'detail', '', ( #142 ) ) ;
#237 = CC_DESIGN_DATE_AND_TIME_ASSIGNMENT ( #136, #98, ( #145 ) ) ;
#238 = DIRECTION ( 'NONE',  ( -0.000000000000000000, 1.000000000000000000, -0.000000000000000000 ) ) ;
#239 = CC_DESIGN_APPROVAL ( #184, ( #145 ) ) ;
#240 = AXIS2_PLACEMENT_3D ( 'NONE', #105, #51, #122 ) ;
#241 = AXIS2_PLACEMENT_3D ( 'NONE', #92, #7, #84 ) ;
#242 = CARTESIAN_POINT ( 'NONE',  ( 0.000000000000000000, 0.000000000000000000, 12.00000000000000000 ) ) ;
#243 = PERSON_AND_ORGANIZATION_ROLE ( 'creator' ) ;
#244 = COORDINATED_UNIVERSAL_TIME_OFFSET ( 10, 0, .AHEAD. ) ;
#245 = CYLINDRICAL_SURFACE ( 'NONE', #101, 12.00000000000000000 ) ;
#246 = ORIENTED_EDGE ( 'NONE', *, *, #197, .F. ) ;
#247 = APPROVAL_DATE_TIME ( #159, #230 ) ;
#248 = EDGE_CURVE ( 'NONE', #200, #57, #3, .T. ) ;
#249 = ORIENTED_EDGE ( 'NONE', *, *, #157, .T. ) ;
ENDSEC;
END-ISO-10303-21;
