ISO-10303-21;
HEADER;
FILE_DESCRIPTION (( 'STEP AP203' ),
    '1' );
FILE_NAME ('1_2-FW_REV_.step',
    '2025-11-20T00:56:19',
    ( '' ),
    ( '' ),
    'SwSTEP 2.0',
    'SolidWorks 2025',
    '' );
FILE_SCHEMA (( 'CONFIG_CONTROL_DESIGN' ));
ENDSEC;

DATA;
#1 = EDGE_CURVE ( 'NONE', #190, #80, #176, .T. ) ;
#2 = APPROVAL_PERSON_ORGANIZATION ( #133, #134, #55 ) ;
#3 = PERSON_AND_ORGANIZATION ( #156, #120 ) ;
#4 = CALENDAR_DATE ( 2025, 20, 11 ) ;
#5 = DIRECTION ( 'NONE',  ( -0.000000000000000000, 1.000000000000000000, -0.000000000000000000 ) ) ;
#6 = DATE_AND_TIME ( #219, #14 ) ;
#7 = EDGE_CURVE ( 'NONE', #119, #205, #237, .T. ) ;
#8 = DIRECTION ( 'NONE',  ( -0.000000000000000000, 1.000000000000000000, -0.000000000000000000 ) ) ;
#9 = CIRCLE ( 'NONE', #47, 7.000000000000000000 ) ;
#10 = DIRECTION ( 'NONE',  ( -0.000000000000000000, 1.000000000000000000, -0.000000000000000000 ) ) ;
#11 = DIRECTION ( 'NONE',  ( 0.000000000000000000, 0.000000000000000000, 1.000000000000000000 ) ) ;
#12 = APPROVAL ( #66, 'UNSPECIFIED' ) ;
#13 = ORIENTED_EDGE ( 'NONE', *, *, #99, .T. ) ;
#14 = LOCAL_TIME ( 11, 56, 19.00000000000000000, #131 ) ;
#15 = PERSON_AND_ORGANIZATION ( #156, #120 ) ;
#16 = CARTESIAN_POINT ( 'NONE',  ( 1.592040838891559095E-15, -2.000000000000000000, -13.00000000000000000 ) ) ;
#17 = CARTESIAN_POINT ( 'NONE',  ( 0.000000000000000000, 0.000000000000000000, 0.000000000000000000 ) ) ;
#18 = APPROVAL_PERSON_ORGANIZATION ( #211, #12, #126 ) ;
#19 = CARTESIAN_POINT ( 'NONE',  ( 0.000000000000000000, 0.000000000000000000, 13.00000000000000000 ) ) ;
#20 = DIRECTION ( 'NONE',  ( -0.000000000000000000, 1.000000000000000000, 0.000000000000000000 ) ) ;
#21 = ORIENTED_EDGE ( 'NONE', *, *, #173, .F. ) ;
#22 = ORIENTED_EDGE ( 'NONE', *, *, #61, .F. ) ;
#23 = FACE_OUTER_BOUND ( 'NONE', #44, .T. ) ;
#24 = UNCERTAINTY_MEASURE_WITH_UNIT (LENGTH_MEASURE( 1.000000000000000082E-05 ), #248, 'distance_accuracy_value', 'NONE');
#25 = ADVANCED_FACE ( 'NONE', ( #23 ), #98, .T. ) ;
#26 = CARTESIAN_POINT ( 'NONE',  ( 0.000000000000000000, 0.000000000000000000, 13.00000000000000000 ) ) ;
#27 = FACE_OUTER_BOUND ( 'NONE', #188, .T. ) ;
#28 = ORIENTED_EDGE ( 'NONE', *, *, #186, .T. ) ;
#29 = CARTESIAN_POINT ( 'NONE',  ( 0.000000000000000000, 0.000000000000000000, 0.000000000000000000 ) ) ;
#30 = CARTESIAN_POINT ( 'NONE',  ( 8.572527594031473190E-16, 0.000000000000000000, -7.000000000000000000 ) ) ;
#31 = DIRECTION ( 'NONE',  ( 0.000000000000000000, 0.000000000000000000, 1.000000000000000000 ) ) ;
#32 = CIRCLE ( 'NONE', #36, 7.000000000000000000 ) ;
#33 = APPLICATION_CONTEXT ( 'configuration controlled 3d designs of mechanical parts and assemblies' ) ;
#34 = DIRECTION ( 'NONE',  ( 0.000000000000000000, 0.000000000000000000, 1.000000000000000000 ) ) ;
#35 = MECHANICAL_CONTEXT ( 'NONE', #148, 'mechanical' ) ;
#36 = AXIS2_PLACEMENT_3D ( 'NONE', #246, #53, #227 ) ;
#37 = PLANE ( 'NONE',  #187 ) ;
#38 = ORIENTED_EDGE ( 'NONE', *, *, #7, .F. ) ;
#39 = COORDINATED_UNIVERSAL_TIME_OFFSET ( 10, 0, .AHEAD. ) ;
#40 = AXIS2_PLACEMENT_3D ( 'NONE', #103, #174, #118 ) ;
#41 = VERTEX_POINT ( 'NONE', #81 ) ;
#42 = VERTEX_POINT ( 'NONE', #30 ) ;
#43 = SECURITY_CLASSIFICATION ( '', '', #236 ) ;
#44 = EDGE_LOOP ( 'NONE', ( #192, #13, #59, #60 ) ) ;
#45 = CARTESIAN_POINT ( 'NONE',  ( 1.592040838891559095E-15, 0.000000000000000000, -13.00000000000000000 ) ) ;
#46 = MANIFOLD_SOLID_BREP ( 'Revolve', #89 ) ;
#47 = AXIS2_PLACEMENT_3D ( 'NONE', #159, #5, #79 ) ;
#48 = LINE ( 'NONE', #130, #51 ) ;
#49 = CALENDAR_DATE ( 2025, 20, 11 ) ;
#50 = ADVANCED_FACE ( 'NONE', ( #27 ), #204, .F. ) ;
#51 = VECTOR ( 'NONE', #153, 1000.000000000000000 ) ;
#52 = CARTESIAN_POINT ( 'NONE',  ( 0.000000000000000000, 0.000000000000000000, 0.000000000000000000 ) ) ;
#53 = DIRECTION ( 'NONE',  ( -0.000000000000000000, 1.000000000000000000, -0.000000000000000000 ) ) ;
#54 = EDGE_LOOP ( 'NONE', ( #38, #158 ) ) ;
#55 = APPROVAL_ROLE ( '' ) ;
#56 = DIRECTION ( 'NONE',  ( -0.000000000000000000, 1.000000000000000000, -0.000000000000000000 ) ) ;
#57 = LOCAL_TIME ( 11, 56, 19.00000000000000000, #39 ) ;
#58 = ORIENTED_EDGE ( 'NONE', *, *, #203, .F. ) ;
#59 = ORIENTED_EDGE ( 'NONE', *, *, #1, .F. ) ;
#60 = ORIENTED_EDGE ( 'NONE', *, *, #125, .F. ) ;
#61 = EDGE_CURVE ( 'NONE', #91, #41, #9, .T. ) ;
#62 = ORIENTED_EDGE ( 'NONE', *, *, #99, .F. ) ;
#63 = AXIS2_PLACEMENT_3D ( 'NONE', #146, #106, #69 ) ;
#64 = DIRECTION ( 'NONE',  ( 1.000000000000000000, 0.000000000000000000, 0.000000000000000000 ) ) ;
#65 = DESIGN_CONTEXT ( 'detailed design', #33, 'design' ) ;
#66 = APPROVAL_STATUS ( 'not_yet_approved' ) ;
#67 = CARTESIAN_POINT ( 'NONE',  ( 0.000000000000000000, 0.000000000000000000, 0.000000000000000000 ) ) ;
#68 = CIRCLE ( 'NONE', #166, 13.00000000000000000 ) ;
#69 = DIRECTION ( 'NONE',  ( 0.000000000000000000, -0.000000000000000000, -1.000000000000000000 ) ) ;
#70 = PRODUCT_RELATED_PRODUCT_CATEGORY ( 'detail', '', ( #115 ) ) ;
#71 = PERSON_AND_ORGANIZATION_ROLE ( 'creator' ) ;
#72 = LOCAL_TIME ( 11, 56, 19.00000000000000000, #124 ) ;
#73 = PERSON_AND_ORGANIZATION ( #156, #120 ) ;
#74 = PERSON_AND_ORGANIZATION ( #156, #120 ) ;
#75 = DIRECTION ( 'NONE',  ( -0.000000000000000000, 1.000000000000000000, -0.000000000000000000 ) ) ;
#76 = APPROVAL_DATE_TIME ( #152, #134 ) ;
#77 = FACE_OUTER_BOUND ( 'NONE', #147, .T. ) ;
#78 = DIRECTION ( 'NONE',  ( -0.000000000000000000, 1.000000000000000000, -0.000000000000000000 ) ) ;
#79 = DIRECTION ( 'NONE',  ( 0.000000000000000000, 0.000000000000000000, 1.000000000000000000 ) ) ;
#80 = VERTEX_POINT ( 'NONE', #102 ) ;
#81 = CARTESIAN_POINT ( 'NONE',  ( 0.000000000000000000, -2.000000000000000000, 7.000000000000000000 ) ) ;
#82 = CC_DESIGN_SECURITY_CLASSIFICATION ( #43, ( #154 ) ) ;
#83 = APPLICATION_PROTOCOL_DEFINITION ( 'international standard', 'config_control_design', 1994, #33 ) ;
#84 =( NAMED_UNIT ( * ) PLANE_ANGLE_UNIT ( ) SI_UNIT ( $, .RADIAN. ) );
#85 = ORIENTED_EDGE ( 'NONE', *, *, #136, .T. ) ;
#86 = AXIS2_PLACEMENT_3D ( 'NONE', #52, #105, #64 ) ;
#87 = CARTESIAN_POINT ( 'NONE',  ( 7.000000000000000000, -2.000000000000000000, 0.000000000000000000 ) ) ;
#88 = ADVANCED_FACE ( 'NONE', ( #114 ), #160, .F. ) ;
#89 = CLOSED_SHELL ( 'NONE', ( #25, #50, #88, #184, #168, #233 ) ) ;
#90 = DATE_AND_TIME ( #151, #183 ) ;
#91 = VERTEX_POINT ( 'NONE', #122 ) ;
#92 = PERSON_AND_ORGANIZATION_ROLE ( 'classification_officer' ) ;
#93 = DIRECTION ( 'NONE',  ( -0.000000000000000000, 1.000000000000000000, -0.000000000000000000 ) ) ;
#94 = PRODUCT_DEFINITION ( 'UNKNOWN', '', #154, #65 ) ;
#95 = APPROVAL_STATUS ( 'not_yet_approved' ) ;
#96 = ADVANCED_BREP_SHAPE_REPRESENTATION ( '1_2-FW_REV_', ( #46, #86 ), #202 ) ;
#97 = PRODUCT_DEFINITION_SHAPE ( 'NONE', 'NONE',  #94 ) ;
#98 = CYLINDRICAL_SURFACE ( 'NONE', #216, 13.00000000000000000 ) ;
#99 = EDGE_CURVE ( 'NONE', #205, #80, #221, .T. ) ;
#100 = DIRECTION ( 'NONE',  ( -0.000000000000000000, 1.000000000000000000, -0.000000000000000000 ) ) ;
#101 = AXIS2_PLACEMENT_3D ( 'NONE', #67, #123, #31 ) ;
#102 = CARTESIAN_POINT ( 'NONE',  ( 1.592040838891559095E-15, 0.000000000000000000, -13.00000000000000000 ) ) ;
#103 = CARTESIAN_POINT ( 'NONE',  ( 0.000000000000000000, 0.000000000000000000, 0.000000000000000000 ) ) ;
#104 = APPLICATION_PROTOCOL_DEFINITION ( 'international standard', 'config_control_design', 1994, #148 ) ;
#105 = DIRECTION ( 'NONE',  ( 0.000000000000000000, 0.000000000000000000, 1.000000000000000000 ) ) ;
#106 = DIRECTION ( 'NONE',  ( 0.000000000000000000, -1.000000000000000000, 0.000000000000000000 ) ) ;
#107 = EDGE_CURVE ( 'NONE', #91, #42, #240, .T. ) ;
#108 = APPROVAL_DATE_TIME ( #245, #12 ) ;
#109 = DIRECTION ( 'NONE',  ( 0.000000000000000000, 0.000000000000000000, 1.000000000000000000 ) ) ;
#110 = PERSON_AND_ORGANIZATION ( #156, #120 ) ;
#111 = EDGE_CURVE ( 'NONE', #205, #119, #247, .T. ) ;
#112 = AXIS2_PLACEMENT_3D ( 'NONE', #222, #75, #11 ) ;
#113 = DATE_TIME_ROLE ( 'creation_date' ) ;
#114 = FACE_OUTER_BOUND ( 'NONE', #225, .T. ) ;
#115 = PRODUCT ( '1_2-FW_REV_', '1_2-FW_REV_', '', ( #35 ) ) ;
#116 = ORIENTED_EDGE ( 'NONE', *, *, #107, .T. ) ;
#117 = VECTOR ( 'NONE', #10, 1000.000000000000000 ) ;
#118 = DIRECTION ( 'NONE',  ( 0.000000000000000000, 0.000000000000000000, 1.000000000000000000 ) ) ;
#119 = VERTEX_POINT ( 'NONE', #196 ) ;
#120 = ORGANIZATION ( 'UNSPECIFIED', 'UNSPECIFIED', '' ) ;
#121 = CC_DESIGN_PERSON_AND_ORGANIZATION_ASSIGNMENT ( #210, #185, ( #94 ) ) ;
#122 = CARTESIAN_POINT ( 'NONE',  ( 8.572527594031473190E-16, -2.000000000000000000, -7.000000000000000000 ) ) ;
#123 = DIRECTION ( 'NONE',  ( -0.000000000000000000, 1.000000000000000000, -0.000000000000000000 ) ) ;
#124 = COORDINATED_UNIVERSAL_TIME_OFFSET ( 10, 0, .AHEAD. ) ;
#125 = EDGE_CURVE ( 'NONE', #119, #190, #206, .T. ) ;
#126 = APPROVAL_ROLE ( '' ) ;
#127 = FACE_BOUND ( 'NONE', #170, .T. ) ;
#128 = APPROVAL_PERSON_ORGANIZATION ( #3, #155, #214 ) ;
#129 = APPROVAL_DATE_TIME ( #6, #155 ) ;
#130 = CARTESIAN_POINT ( 'NONE',  ( 0.000000000000000000, 0.000000000000000000, 7.000000000000000000 ) ) ;
#131 = COORDINATED_UNIVERSAL_TIME_OFFSET ( 10, 0, .AHEAD. ) ;
#132 = CARTESIAN_POINT ( 'NONE',  ( 8.572527594031473190E-16, 0.000000000000000000, -7.000000000000000000 ) ) ;
#133 = PERSON_AND_ORGANIZATION ( #156, #120 ) ;
#134 = APPROVAL ( #95, 'UNSPECIFIED' ) ;
#135 = CC_DESIGN_APPROVAL ( #12, ( #94 ) ) ;
#136 = EDGE_CURVE ( 'NONE', #41, #229, #48, .T. ) ;
#137 = ORIENTED_EDGE ( 'NONE', *, *, #125, .T. ) ;
#138 = ORIENTED_EDGE ( 'NONE', *, *, #107, .F. ) ;
#139 = CC_DESIGN_PERSON_AND_ORGANIZATION_ASSIGNMENT ( #15, #165, ( #115 ) ) ;
#140 = CARTESIAN_POINT ( 'NONE',  ( 0.000000000000000000, -2.000000000000000000, 0.000000000000000000 ) ) ;
#141 = AXIS2_PLACEMENT_3D ( 'NONE', #177, #8, #169 ) ;
#142 = FACE_OUTER_BOUND ( 'NONE', #54, .T. ) ;
#143 = COORDINATED_UNIVERSAL_TIME_OFFSET ( 10, 0, .AHEAD. ) ;
#144 = DIRECTION ( 'NONE',  ( 0.000000000000000000, 0.000000000000000000, 1.000000000000000000 ) ) ;
#145 = CIRCLE ( 'NONE', #178, 7.000000000000000000 ) ;
#146 = CARTESIAN_POINT ( 'NONE',  ( 7.000000000000000000, 0.000000000000000000, 0.000000000000000000 ) ) ;
#147 = EDGE_LOOP ( 'NONE', ( #62, #161, #137, #58 ) ) ;
#148 = APPLICATION_CONTEXT ( 'configuration controlled 3d designs of mechanical parts and assemblies' ) ;
#149 = CC_DESIGN_APPROVAL ( #155, ( #154 ) ) ;
#150 = ORIENTED_EDGE ( 'NONE', *, *, #1, .T. ) ;
#151 = CALENDAR_DATE ( 2025, 20, 11 ) ;
#152 = DATE_AND_TIME ( #4, #57 ) ;
#153 = DIRECTION ( 'NONE',  ( -0.000000000000000000, 1.000000000000000000, -0.000000000000000000 ) ) ;
#154 = PRODUCT_DEFINITION_FORMATION_WITH_SPECIFIED_SOURCE ( 'ANY', '', #115, .NOT_KNOWN. ) ;
#155 = APPROVAL ( #198, 'UNSPECIFIED' ) ;
#156 = PERSON ( 'UNSPECIFIED', 'UNSPECIFIED', 'UNSPECIFIED', ('UNSPECIFIED'), ('UNSPECIFIED'), ('UNSPECIFIED') ) ;
#157 = AXIS2_PLACEMENT_3D ( 'NONE', #29, #93, #201 ) ;
#158 = ORIENTED_EDGE ( 'NONE', *, *, #111, .F. ) ;
#159 = CARTESIAN_POINT ( 'NONE',  ( 0.000000000000000000, -2.000000000000000000, 0.000000000000000000 ) ) ;
#160 = CYLINDRICAL_SURFACE ( 'NONE', #231, 7.000000000000000000 ) ;
#161 = ORIENTED_EDGE ( 'NONE', *, *, #111, .T. ) ;
#162 = CARTESIAN_POINT ( 'NONE',  ( 0.000000000000000000, 0.000000000000000000, 0.000000000000000000 ) ) ;
#163 = VECTOR ( 'NONE', #179, 1000.000000000000000 ) ;
#164 = FACE_OUTER_BOUND ( 'NONE', #239, .T. ) ;
#165 = PERSON_AND_ORGANIZATION_ROLE ( 'design_owner' ) ;
#166 = AXIS2_PLACEMENT_3D ( 'NONE', #17, #189, #144 ) ;
#167 = PLANE ( 'NONE',  #63 ) ;
#168 = ADVANCED_FACE ( 'NONE', ( #77 ), #235, .T. ) ;
#169 = DIRECTION ( 'NONE',  ( 0.000000000000000000, 0.000000000000000000, 1.000000000000000000 ) ) ;
#170 = EDGE_LOOP ( 'NONE', ( #21, #238 ) ) ;
#171 = LOCAL_TIME ( 11, 56, 19.00000000000000000, #143 ) ;
#172 = DATE_AND_TIME ( #193, #72 ) ;
#173 = EDGE_CURVE ( 'NONE', #229, #42, #194, .T. ) ;
#174 = DIRECTION ( 'NONE',  ( -0.000000000000000000, 1.000000000000000000, -0.000000000000000000 ) ) ;
#175 = CC_DESIGN_PERSON_AND_ORGANIZATION_ASSIGNMENT ( #74, #234, ( #154 ) ) ;
#176 = CIRCLE ( 'NONE', #40, 13.00000000000000000 ) ;
#177 = CARTESIAN_POINT ( 'NONE',  ( 0.000000000000000000, 0.000000000000000000, 0.000000000000000000 ) ) ;
#178 = AXIS2_PLACEMENT_3D ( 'NONE', #209, #226, #109 ) ;
#179 = DIRECTION ( 'NONE',  ( -0.000000000000000000, 1.000000000000000000, -0.000000000000000000 ) ) ;
#180 = DIRECTION ( 'NONE',  ( 0.000000000000000000, 0.000000000000000000, 1.000000000000000000 ) ) ;
#181 = DIRECTION ( 'NONE',  ( 0.000000000000000000, 0.000000000000000000, 1.000000000000000000 ) ) ;
#182 = CC_DESIGN_DATE_AND_TIME_ASSIGNMENT ( #90, #191, ( #43 ) ) ;
#183 = LOCAL_TIME ( 11, 56, 19.00000000000000000, #217 ) ;
#184 = ADVANCED_FACE ( 'NONE', ( #142, #224 ), #37, .F. ) ;
#185 = PERSON_AND_ORGANIZATION_ROLE ( 'creator' ) ;
#186 = EDGE_CURVE ( 'NONE', #41, #91, #145, .T. ) ;
#187 = AXIS2_PLACEMENT_3D ( 'NONE', #87, #20, #34 ) ;
#188 = EDGE_LOOP ( 'NONE', ( #22, #116, #232, #213 ) ) ;
#189 = DIRECTION ( 'NONE',  ( -0.000000000000000000, 1.000000000000000000, -0.000000000000000000 ) ) ;
#190 = VERTEX_POINT ( 'NONE', #19 ) ;
#191 = DATE_TIME_ROLE ( 'classification_date' ) ;
#192 = ORIENTED_EDGE ( 'NONE', *, *, #7, .T. ) ;
#193 = CALENDAR_DATE ( 2025, 20, 11 ) ;
#194 = CIRCLE ( 'NONE', #101, 7.000000000000000000 ) ;
#195 = SHAPE_DEFINITION_REPRESENTATION ( #97, #96 ) ;
#196 = CARTESIAN_POINT ( 'NONE',  ( 0.000000000000000000, -2.000000000000000000, 13.00000000000000000 ) ) ;
#197 = CARTESIAN_POINT ( 'NONE',  ( 0.000000000000000000, 0.000000000000000000, 0.000000000000000000 ) ) ;
#198 = APPROVAL_STATUS ( 'not_yet_approved' ) ;
#199 = VECTOR ( 'NONE', #242, 1000.000000000000000 ) ;
#200 = CC_DESIGN_APPROVAL ( #134, ( #43 ) ) ;
#201 = DIRECTION ( 'NONE',  ( 0.000000000000000000, 0.000000000000000000, 1.000000000000000000 ) ) ;
#202 =( GEOMETRIC_REPRESENTATION_CONTEXT ( 3 ) GLOBAL_UNCERTAINTY_ASSIGNED_CONTEXT ( ( #24 ) ) GLOBAL_UNIT_ASSIGNED_CONTEXT ( ( #248, #84, #244 ) ) REPRESENTATION_CONTEXT ( 'NONE', 'WORKASPACE' ) );
#203 = EDGE_CURVE ( 'NONE', #80, #190, #68, .T. ) ;
#204 = CYLINDRICAL_SURFACE ( 'NONE', #157, 7.000000000000000000 ) ;
#205 = VERTEX_POINT ( 'NONE', #16 ) ;
#206 = LINE ( 'NONE', #26, #199 ) ;
#207 = EDGE_CURVE ( 'NONE', #42, #229, #32, .T. ) ;
#208 = CARTESIAN_POINT ( 'NONE',  ( 0.000000000000000000, 0.000000000000000000, 7.000000000000000000 ) ) ;
#209 = CARTESIAN_POINT ( 'NONE',  ( 0.000000000000000000, -2.000000000000000000, 0.000000000000000000 ) ) ;
#210 = PERSON_AND_ORGANIZATION ( #156, #120 ) ;
#211 = PERSON_AND_ORGANIZATION ( #156, #120 ) ;
#212 = ORIENTED_EDGE ( 'NONE', *, *, #61, .T. ) ;
#213 = ORIENTED_EDGE ( 'NONE', *, *, #136, .F. ) ;
#214 = APPROVAL_ROLE ( '' ) ;
#215 = EDGE_LOOP ( 'NONE', ( #28, #212 ) ) ;
#216 = AXIS2_PLACEMENT_3D ( 'NONE', #197, #56, #218 ) ;
#217 = COORDINATED_UNIVERSAL_TIME_OFFSET ( 10, 0, .AHEAD. ) ;
#218 = DIRECTION ( 'NONE',  ( 0.000000000000000000, 0.000000000000000000, 1.000000000000000000 ) ) ;
#219 = CALENDAR_DATE ( 2025, 20, 11 ) ;
#220 = ORIENTED_EDGE ( 'NONE', *, *, #203, .T. ) ;
#221 = LINE ( 'NONE', #45, #163 ) ;
#222 = CARTESIAN_POINT ( 'NONE',  ( 0.000000000000000000, -2.000000000000000000, 0.000000000000000000 ) ) ;
#223 = ORIENTED_EDGE ( 'NONE', *, *, #173, .T. ) ;
#224 = FACE_BOUND ( 'NONE', #215, .T. ) ;
#225 = EDGE_LOOP ( 'NONE', ( #138, #249, #85, #223 ) ) ;
#226 = DIRECTION ( 'NONE',  ( -0.000000000000000000, 1.000000000000000000, -0.000000000000000000 ) ) ;
#227 = DIRECTION ( 'NONE',  ( 0.000000000000000000, 0.000000000000000000, 1.000000000000000000 ) ) ;
#228 = AXIS2_PLACEMENT_3D ( 'NONE', #140, #78, #181 ) ;
#229 = VERTEX_POINT ( 'NONE', #208 ) ;
#230 = CC_DESIGN_PERSON_AND_ORGANIZATION_ASSIGNMENT ( #73, #71, ( #154 ) ) ;
#231 = AXIS2_PLACEMENT_3D ( 'NONE', #162, #100, #180 ) ;
#232 = ORIENTED_EDGE ( 'NONE', *, *, #207, .T. ) ;
#233 = ADVANCED_FACE ( 'NONE', ( #127, #164 ), #167, .F. ) ;
#234 = PERSON_AND_ORGANIZATION_ROLE ( 'design_supplier' ) ;
#235 = CYLINDRICAL_SURFACE ( 'NONE', #141, 13.00000000000000000 ) ;
#236 = SECURITY_CLASSIFICATION_LEVEL ( 'unclassified' ) ;
#237 = CIRCLE ( 'NONE', #228, 13.00000000000000000 ) ;
#238 = ORIENTED_EDGE ( 'NONE', *, *, #207, .F. ) ;
#239 = EDGE_LOOP ( 'NONE', ( #150, #220 ) ) ;
#240 = LINE ( 'NONE', #132, #117 ) ;
#241 = CC_DESIGN_DATE_AND_TIME_ASSIGNMENT ( #172, #113, ( #94 ) ) ;
#242 = DIRECTION ( 'NONE',  ( -0.000000000000000000, 1.000000000000000000, -0.000000000000000000 ) ) ;
#243 = CC_DESIGN_PERSON_AND_ORGANIZATION_ASSIGNMENT ( #110, #92, ( #43 ) ) ;
#244 =( NAMED_UNIT ( * ) SI_UNIT ( $, .STERADIAN. ) SOLID_ANGLE_UNIT ( ) );
#245 = DATE_AND_TIME ( #49, #171 ) ;
#246 = CARTESIAN_POINT ( 'NONE',  ( 0.000000000000000000, 0.000000000000000000, 0.000000000000000000 ) ) ;
#247 = CIRCLE ( 'NONE', #112, 13.00000000000000000 ) ;
#248 =( LENGTH_UNIT ( ) NAMED_UNIT ( * ) SI_UNIT ( .MILLI., .METRE. ) );
#249 = ORIENTED_EDGE ( 'NONE', *, *, #186, .F. ) ;
ENDSEC;
END-ISO-10303-21;
