ISO-10303-21;
HEADER;
FILE_DESCRIPTION (( 'STEP AP203' ),
    '1' );
FILE_NAME ('20 DIA X 70 LG_REV_.step',
    '2026-01-19T23:19:23',
    ( '' ),
    ( '' ),
    'SwSTEP 2.0',
    'SolidWorks 2025',
    '' );
FILE_SCHEMA (( 'CONFIG_CONTROL_DESIGN' ));
ENDSEC;

DATA;
#1 = PERSON ( 'UNSPECIFIED', 'UNSPECIFIED', 'UNSPECIFIED', ('UNSPECIFIED'), ('UNSPECIFIED'), ('UNSPECIFIED') ) ;
#2 = ORIENTED_EDGE ( 'NONE', *, *, #207, .F. ) ;
#3 = CALENDAR_DATE ( 2026, 20, 1 ) ;
#4 = PERSON_AND_ORGANIZATION ( #1, #184 ) ;
#5 = ADVANCED_FACE ( 'NONE', ( #86 ), #82, .T. ) ;
#6 = CARTESIAN_POINT ( 'NONE',  ( 0.000000000000000000, 0.000000000000000000, 70.00000000000000000 ) ) ;
#7 = ORIENTED_EDGE ( 'NONE', *, *, #200, .T. ) ;
#8 = AXIS2_PLACEMENT_3D ( 'NONE', #47, #58, #126 ) ;
#9 = PERSON_AND_ORGANIZATION ( #1, #184 ) ;
#10 = DIRECTION ( 'NONE',  ( 0.000000000000000000, 0.000000000000000000, 1.000000000000000000 ) ) ;
#11 = PERSON_AND_ORGANIZATION_ROLE ( 'design_supplier' ) ;
#12 = EDGE_LOOP ( 'NONE', ( #232, #162 ) ) ;
#13 = ADVANCED_BREP_SHAPE_REPRESENTATION ( '20 DIA X 70 LG_REV_', ( #91, #148 ), #89 ) ;
#14 = ORIENTED_EDGE ( 'NONE', *, *, #207, .T. ) ;
#15 = CC_DESIGN_DATE_AND_TIME_ASSIGNMENT ( #240, #128, ( #211 ) ) ;
#16 = DIRECTION ( 'NONE',  ( 0.000000000000000000, 0.000000000000000000, 1.000000000000000000 ) ) ;
#17 = CIRCLE ( 'NONE', #55, 11.00000000000000178 ) ;
#18 = DIRECTION ( 'NONE',  ( 0.000000000000000000, 0.000000000000000000, 1.000000000000000000 ) ) ;
#19 = ORIENTED_EDGE ( 'NONE', *, *, #243, .F. ) ;
#20 = ORIENTED_EDGE ( 'NONE', *, *, #179, .T. ) ;
#21 = VECTOR ( 'NONE', #174, 1000.000000000000000 ) ;
#22 = DIRECTION ( 'NONE',  ( 1.000000000000000000, 0.000000000000000000, -0.000000000000000000 ) ) ;
#23 = EDGE_LOOP ( 'NONE', ( #98, #140 ) ) ;
#24 = FACE_BOUND ( 'NONE', #43, .T. ) ;
#25 = PRODUCT_RELATED_PRODUCT_CATEGORY ( 'detail', '', ( #194 ) ) ;
#26 = PERSON_AND_ORGANIZATION ( #1, #184 ) ;
#27 =( NAMED_UNIT ( * ) SI_UNIT ( $, .STERADIAN. ) SOLID_ANGLE_UNIT ( ) );
#28 = AXIS2_PLACEMENT_3D ( 'NONE', #212, #16, #65 ) ;
#29 = CC_DESIGN_SECURITY_CLASSIFICATION ( #211, ( #229 ) ) ;
#30 = EDGE_CURVE ( 'NONE', #119, #215, #17, .T. ) ;
#31 = VERTEX_POINT ( 'NONE', #62 ) ;
#32 = CIRCLE ( 'NONE', #67, 10.25000000000000000 ) ;
#33 = DATE_AND_TIME ( #144, #218 ) ;
#34 = EDGE_CURVE ( 'NONE', #31, #95, #32, .T. ) ;
#35 = ORIENTED_EDGE ( 'NONE', *, *, #182, .F. ) ;
#36 = VERTEX_POINT ( 'NONE', #88 ) ;
#37 = DIRECTION ( 'NONE',  ( -1.000000000000000000, 0.000000000000000000, 0.000000000000000000 ) ) ;
#38 = FACE_OUTER_BOUND ( 'NONE', #12, .T. ) ;
#39 = CARTESIAN_POINT ( 'NONE',  ( 10.25000000000000000, 1.255262969126037241E-15, 70.00000000000000000 ) ) ;
#40 = VECTOR ( 'NONE', #139, 1000.000000000000000 ) ;
#41 = VERTEX_POINT ( 'NONE', #63 ) ;
#42 = DIRECTION ( 'NONE',  ( 0.000000000000000000, 0.000000000000000000, 1.000000000000000000 ) ) ;
#43 = EDGE_LOOP ( 'NONE', ( #156, #19 ) ) ;
#44 = CARTESIAN_POINT ( 'NONE',  ( 0.000000000000000000, 0.000000000000000000, 0.000000000000000000 ) ) ;
#45 = AXIS2_PLACEMENT_3D ( 'NONE', #122, #102, #22 ) ;
#46 = CARTESIAN_POINT ( 'NONE',  ( 11.00000000000000178, 1.347111479062088602E-15, 70.00000000000000000 ) ) ;
#47 = CARTESIAN_POINT ( 'NONE',  ( 0.000000000000000000, 0.000000000000000000, 0.000000000000000000 ) ) ;
#48 = APPROVAL_ROLE ( '' ) ;
#49 = AXIS2_PLACEMENT_3D ( 'NONE', #44, #221, #159 ) ;
#50 = APPLICATION_CONTEXT ( 'configuration controlled 3d designs of mechanical parts and assemblies' ) ;
#51 = CYLINDRICAL_SURFACE ( 'NONE', #52, 10.25000000000000000 ) ;
#52 = AXIS2_PLACEMENT_3D ( 'NONE', #94, #92, #155 ) ;
#53 = CARTESIAN_POINT ( 'NONE',  ( 0.000000000000000000, 0.000000000000000000, 0.000000000000000000 ) ) ;
#54 = PERSON_AND_ORGANIZATION_ROLE ( 'creator' ) ;
#55 = AXIS2_PLACEMENT_3D ( 'NONE', #186, #10, #170 ) ;
#56 = AXIS2_PLACEMENT_3D ( 'NONE', #74, #196, #99 ) ;
#57 = COORDINATED_UNIVERSAL_TIME_OFFSET ( 10, 0, .AHEAD. ) ;
#58 = DIRECTION ( 'NONE',  ( 0.000000000000000000, 0.000000000000000000, 1.000000000000000000 ) ) ;
#59 = CALENDAR_DATE ( 2026, 20, 1 ) ;
#60 = VECTOR ( 'NONE', #239, 1000.000000000000000 ) ;
#61 = ADVANCED_FACE ( 'NONE', ( #130 ), #206, .T. ) ;
#62 = CARTESIAN_POINT ( 'NONE',  ( -10.25000000000000000, 0.000000000000000000, 70.00000000000000000 ) ) ;
#63 = CARTESIAN_POINT ( 'NONE',  ( 11.00000000000000178, 1.347111479062088602E-15, 0.000000000000000000 ) ) ;
#64 = CC_DESIGN_APPROVAL ( #173, ( #229 ) ) ;
#65 = DIRECTION ( 'NONE',  ( 1.000000000000000000, 0.000000000000000000, 0.000000000000000000 ) ) ;
#66 = DIRECTION ( 'NONE',  ( 1.000000000000000000, 0.000000000000000000, -0.000000000000000000 ) ) ;
#67 = AXIS2_PLACEMENT_3D ( 'NONE', #6, #81, #145 ) ;
#68 = LOCAL_TIME ( 10, 19, 23.00000000000000000, #101 ) ;
#69 = ADVANCED_FACE ( 'NONE', ( #84 ), #51, .F. ) ;
#70 = DIRECTION ( 'NONE',  ( 0.000000000000000000, 0.000000000000000000, 1.000000000000000000 ) ) ;
#71 = ORIENTED_EDGE ( 'NONE', *, *, #171, .T. ) ;
#72 = APPLICATION_PROTOCOL_DEFINITION ( 'international standard', 'config_control_design', 1994, #242 ) ;
#73 = EDGE_CURVE ( 'NONE', #36, #41, #205, .T. ) ;
#74 = CARTESIAN_POINT ( 'NONE',  ( 0.000000000000000000, 0.000000000000000000, 70.00000000000000000 ) ) ;
#75 = EDGE_LOOP ( 'NONE', ( #195, #14, #35, #219 ) ) ;
#76 =( NAMED_UNIT ( * ) PLANE_ANGLE_UNIT ( ) SI_UNIT ( $, .RADIAN. ) );
#77 = EDGE_CURVE ( 'NONE', #149, #96, #78, .T. ) ;
#78 = CIRCLE ( 'NONE', #228, 10.25000000000000000 ) ;
#79 = CARTESIAN_POINT ( 'NONE',  ( -11.00000000000000178, 0.000000000000000000, 70.00000000000000000 ) ) ;
#80 = APPROVAL_STATUS ( 'not_yet_approved' ) ;
#81 = DIRECTION ( 'NONE',  ( 0.000000000000000000, 0.000000000000000000, 1.000000000000000000 ) ) ;
#82 = CYLINDRICAL_SURFACE ( 'NONE', #107, 11.00000000000000178 ) ;
#83 = CIRCLE ( 'NONE', #49, 10.25000000000000000 ) ;
#84 = FACE_OUTER_BOUND ( 'NONE', #75, .T. ) ;
#85 = PERSON_AND_ORGANIZATION ( #1, #184 ) ;
#86 = FACE_OUTER_BOUND ( 'NONE', #234, .T. ) ;
#87 = CALENDAR_DATE ( 2026, 20, 1 ) ;
#88 = CARTESIAN_POINT ( 'NONE',  ( -11.00000000000000178, 0.000000000000000000, 0.000000000000000000 ) ) ;
#89 =( GEOMETRIC_REPRESENTATION_CONTEXT ( 3 ) GLOBAL_UNCERTAINTY_ASSIGNED_CONTEXT ( ( #188 ) ) GLOBAL_UNIT_ASSIGNED_CONTEXT ( ( #142, #76, #27 ) ) REPRESENTATION_CONTEXT ( 'NONE', 'WORKASPACE' ) );
#90 = DIRECTION ( 'NONE',  ( -0.000000000000000000, -0.000000000000000000, -1.000000000000000000 ) ) ;
#91 = MANIFOLD_SOLID_BREP ( 'Boss-Extrude1', #166 ) ;
#92 = DIRECTION ( 'NONE',  ( -0.000000000000000000, -0.000000000000000000, -1.000000000000000000 ) ) ;
#93 = CARTESIAN_POINT ( 'NONE',  ( -10.25000000000000000, 0.000000000000000000, 70.00000000000000000 ) ) ;
#94 = CARTESIAN_POINT ( 'NONE',  ( 0.000000000000000000, 0.000000000000000000, 70.00000000000000000 ) ) ;
#95 = VERTEX_POINT ( 'NONE', #39 ) ;
#96 = VERTEX_POINT ( 'NONE', #117 ) ;
#97 = PERSON_AND_ORGANIZATION ( #1, #184 ) ;
#98 = ORIENTED_EDGE ( 'NONE', *, *, #30, .T. ) ;
#99 = DIRECTION ( 'NONE',  ( 1.000000000000000000, 0.000000000000000000, 0.000000000000000000 ) ) ;
#100 = EDGE_LOOP ( 'NONE', ( #193, #105, #197, #202 ) ) ;
#101 = COORDINATED_UNIVERSAL_TIME_OFFSET ( 10, 0, .AHEAD. ) ;
#102 = DIRECTION ( 'NONE',  ( 0.000000000000000000, 0.000000000000000000, 1.000000000000000000 ) ) ;
#103 = LOCAL_TIME ( 10, 19, 23.00000000000000000, #169 ) ;
#104 = COORDINATED_UNIVERSAL_TIME_OFFSET ( 10, 0, .AHEAD. ) ;
#105 = ORIENTED_EDGE ( 'NONE', *, *, #30, .F. ) ;
#106 = PERSON_AND_ORGANIZATION_ROLE ( 'classification_officer' ) ;
#107 = AXIS2_PLACEMENT_3D ( 'NONE', #129, #204, #108 ) ;
#108 = DIRECTION ( 'NONE',  ( -1.000000000000000000, 0.000000000000000000, 0.000000000000000000 ) ) ;
#109 = APPROVAL_DATE_TIME ( #33, #173 ) ;
#110 = CC_DESIGN_PERSON_AND_ORGANIZATION_ASSIGNMENT ( #4, #54, ( #154 ) ) ;
#111 = SHAPE_DEFINITION_REPRESENTATION ( #248, #13 ) ;
#112 = PLANE ( 'NONE',  #210 ) ;
#113 = EDGE_CURVE ( 'NONE', #215, #119, #147, .T. ) ;
#114 = CARTESIAN_POINT ( 'NONE',  ( -11.00000000000000178, 0.000000000000000000, 70.00000000000000000 ) ) ;
#115 = APPROVAL_PERSON_ORGANIZATION ( #26, #150, #233 ) ;
#116 = CIRCLE ( 'NONE', #8, 11.00000000000000178 ) ;
#117 = CARTESIAN_POINT ( 'NONE',  ( -10.25000000000000000, 0.000000000000000000, 0.000000000000000000 ) ) ;
#118 = CC_DESIGN_DATE_AND_TIME_ASSIGNMENT ( #237, #141, ( #154 ) ) ;
#119 = VERTEX_POINT ( 'NONE', #114 ) ;
#120 = DIRECTION ( 'NONE',  ( 1.000000000000000000, 0.000000000000000000, 0.000000000000000000 ) ) ;
#121 = ORIENTED_EDGE ( 'NONE', *, *, #77, .T. ) ;
#122 = CARTESIAN_POINT ( 'NONE',  ( 0.000000000000000000, 0.000000000000000000, 70.00000000000000000 ) ) ;
#123 = CIRCLE ( 'NONE', #56, 10.25000000000000000 ) ;
#124 = PERSON_AND_ORGANIZATION_ROLE ( 'design_owner' ) ;
#125 = DATE_AND_TIME ( #180, #68 ) ;
#126 = DIRECTION ( 'NONE',  ( 1.000000000000000000, 0.000000000000000000, 0.000000000000000000 ) ) ;
#127 = CC_DESIGN_APPROVAL ( #150, ( #154 ) ) ;
#128 = DATE_TIME_ROLE ( 'classification_date' ) ;
#129 = CARTESIAN_POINT ( 'NONE',  ( 0.000000000000000000, 0.000000000000000000, 70.00000000000000000 ) ) ;
#130 = FACE_OUTER_BOUND ( 'NONE', #100, .T. ) ;
#131 = AXIS2_PLACEMENT_3D ( 'NONE', #153, #189, #37 ) ;
#132 = ADVANCED_FACE ( 'NONE', ( #230 ), #208, .F. ) ;
#133 = DESIGN_CONTEXT ( 'detailed design', #242, 'design' ) ;
#134 = DIRECTION ( 'NONE',  ( 0.000000000000000000, 0.000000000000000000, 1.000000000000000000 ) ) ;
#135 = APPROVAL ( #165, 'UNSPECIFIED' ) ;
#136 = LINE ( 'NONE', #93, #21 ) ;
#137 = CARTESIAN_POINT ( 'NONE',  ( 0.000000000000000000, 0.000000000000000000, 0.000000000000000000 ) ) ;
#138 = CC_DESIGN_APPROVAL ( #135, ( #211 ) ) ;
#139 = DIRECTION ( 'NONE',  ( -0.000000000000000000, -0.000000000000000000, -1.000000000000000000 ) ) ;
#140 = ORIENTED_EDGE ( 'NONE', *, *, #113, .T. ) ;
#141 = DATE_TIME_ROLE ( 'creation_date' ) ;
#142 =( LENGTH_UNIT ( ) NAMED_UNIT ( * ) SI_UNIT ( .MILLI., .METRE. ) );
#143 = ADVANCED_FACE ( 'NONE', ( #38, #175 ), #112, .F. ) ;
#144 = CALENDAR_DATE ( 2026, 20, 1 ) ;
#145 = DIRECTION ( 'NONE',  ( 1.000000000000000000, 0.000000000000000000, 0.000000000000000000 ) ) ;
#146 = ORIENTED_EDGE ( 'NONE', *, *, #243, .T. ) ;
#147 = CIRCLE ( 'NONE', #28, 11.00000000000000178 ) ;
#148 = AXIS2_PLACEMENT_3D ( 'NONE', #213, #42, #120 ) ;
#149 = VERTEX_POINT ( 'NONE', #151 ) ;
#150 = APPROVAL ( #198, 'UNSPECIFIED' ) ;
#151 = CARTESIAN_POINT ( 'NONE',  ( 10.25000000000000000, 1.255262969126037241E-15, 0.000000000000000000 ) ) ;
#152 = VECTOR ( 'NONE', #216, 1000.000000000000000 ) ;
#153 = CARTESIAN_POINT ( 'NONE',  ( 0.000000000000000000, 0.000000000000000000, 70.00000000000000000 ) ) ;
#154 = PRODUCT_DEFINITION ( 'UNKNOWN', '', #229, #133 ) ;
#155 = DIRECTION ( 'NONE',  ( -1.000000000000000000, 0.000000000000000000, 0.000000000000000000 ) ) ;
#156 = ORIENTED_EDGE ( 'NONE', *, *, #34, .F. ) ;
#157 = CARTESIAN_POINT ( 'NONE',  ( 11.00000000000000178, 1.347111479062088602E-15, 70.00000000000000000 ) ) ;
#158 = LINE ( 'NONE', #199, #60 ) ;
#159 = DIRECTION ( 'NONE',  ( 1.000000000000000000, 0.000000000000000000, 0.000000000000000000 ) ) ;
#160 = AXIS2_PLACEMENT_3D ( 'NONE', #226, #70, #209 ) ;
#161 = LOCAL_TIME ( 10, 19, 23.00000000000000000, #57 ) ;
#162 = ORIENTED_EDGE ( 'NONE', *, *, #200, .F. ) ;
#163 = FACE_OUTER_BOUND ( 'NONE', #23, .T. ) ;
#164 = CC_DESIGN_PERSON_AND_ORGANIZATION_ASSIGNMENT ( #97, #124, ( #194 ) ) ;
#165 = APPROVAL_STATUS ( 'not_yet_approved' ) ;
#166 = CLOSED_SHELL ( 'NONE', ( #69, #5, #238, #143, #61, #132 ) ) ;
#167 = APPROVAL_PERSON_ORGANIZATION ( #187, #135, #48 ) ;
#168 = APPROVAL_ROLE ( '' ) ;
#169 = COORDINATED_UNIVERSAL_TIME_OFFSET ( 10, 0, .AHEAD. ) ;
#170 = DIRECTION ( 'NONE',  ( 1.000000000000000000, 0.000000000000000000, 0.000000000000000000 ) ) ;
#171 = EDGE_CURVE ( 'NONE', #31, #96, #136, .T. ) ;
#172 = COORDINATED_UNIVERSAL_TIME_OFFSET ( 10, 0, .AHEAD. ) ;
#173 = APPROVAL ( #80, 'UNSPECIFIED' ) ;
#174 = DIRECTION ( 'NONE',  ( -0.000000000000000000, -0.000000000000000000, -1.000000000000000000 ) ) ;
#175 = FACE_BOUND ( 'NONE', #225, .T. ) ;
#176 = ORIENTED_EDGE ( 'NONE', *, *, #113, .F. ) ;
#177 = ORIENTED_EDGE ( 'NONE', *, *, #182, .T. ) ;
#178 = PLANE ( 'NONE',  #45 ) ;
#179 = EDGE_CURVE ( 'NONE', #215, #41, #246, .T. ) ;
#180 = CALENDAR_DATE ( 2026, 20, 1 ) ;
#181 = APPROVAL_DATE_TIME ( #125, #150 ) ;
#182 = EDGE_CURVE ( 'NONE', #96, #149, #83, .T. ) ;
#183 = PERSON_AND_ORGANIZATION_ROLE ( 'creator' ) ;
#184 = ORGANIZATION ( 'UNSPECIFIED', 'UNSPECIFIED', '' ) ;
#185 = SECURITY_CLASSIFICATION_LEVEL ( 'unclassified' ) ;
#186 = CARTESIAN_POINT ( 'NONE',  ( 0.000000000000000000, 0.000000000000000000, 70.00000000000000000 ) ) ;
#187 = PERSON_AND_ORGANIZATION ( #1, #184 ) ;
#188 = UNCERTAINTY_MEASURE_WITH_UNIT (LENGTH_MEASURE( 1.000000000000000082E-05 ), #142, 'distance_accuracy_value', 'NONE');
#189 = DIRECTION ( 'NONE',  ( -0.000000000000000000, -0.000000000000000000, -1.000000000000000000 ) ) ;
#190 = APPROVAL_PERSON_ORGANIZATION ( #220, #173, #168 ) ;
#191 = ORIENTED_EDGE ( 'NONE', *, *, #77, .F. ) ;
#192 = DIRECTION ( 'NONE',  ( 1.000000000000000000, 0.000000000000000000, 0.000000000000000000 ) ) ;
#193 = ORIENTED_EDGE ( 'NONE', *, *, #179, .F. ) ;
#194 = PRODUCT ( '20 DIA X 70 LG_REV_', '20 DIA X 70 LG_REV_', '', ( #249 ) ) ;
#195 = ORIENTED_EDGE ( 'NONE', *, *, #34, .T. ) ;
#196 = DIRECTION ( 'NONE',  ( 0.000000000000000000, 0.000000000000000000, 1.000000000000000000 ) ) ;
#197 = ORIENTED_EDGE ( 'NONE', *, *, #203, .T. ) ;
#198 = APPROVAL_STATUS ( 'not_yet_approved' ) ;
#199 = CARTESIAN_POINT ( 'NONE',  ( 10.25000000000000000, 1.255262969126037241E-15, 70.00000000000000000 ) ) ;
#200 = EDGE_CURVE ( 'NONE', #41, #36, #116, .T. ) ;
#201 = DATE_AND_TIME ( #59, #245 ) ;
#202 = ORIENTED_EDGE ( 'NONE', *, *, #73, .T. ) ;
#203 = EDGE_CURVE ( 'NONE', #119, #36, #235, .T. ) ;
#204 = DIRECTION ( 'NONE',  ( -0.000000000000000000, -0.000000000000000000, -1.000000000000000000 ) ) ;
#205 = CIRCLE ( 'NONE', #160, 11.00000000000000178 ) ;
#206 = CYLINDRICAL_SURFACE ( 'NONE', #224, 11.00000000000000178 ) ;
#207 = EDGE_CURVE ( 'NONE', #95, #149, #158, .T. ) ;
#208 = CYLINDRICAL_SURFACE ( 'NONE', #131, 10.25000000000000000 ) ;
#209 = DIRECTION ( 'NONE',  ( 1.000000000000000000, 0.000000000000000000, 0.000000000000000000 ) ) ;
#210 = AXIS2_PLACEMENT_3D ( 'NONE', #53, #18, #66 ) ;
#211 = SECURITY_CLASSIFICATION ( '', '', #185 ) ;
#212 = CARTESIAN_POINT ( 'NONE',  ( 0.000000000000000000, 0.000000000000000000, 70.00000000000000000 ) ) ;
#213 = CARTESIAN_POINT ( 'NONE',  ( 0.000000000000000000, 0.000000000000000000, 0.000000000000000000 ) ) ;
#214 = CC_DESIGN_PERSON_AND_ORGANIZATION_ASSIGNMENT ( #223, #11, ( #229 ) ) ;
#215 = VERTEX_POINT ( 'NONE', #46 ) ;
#216 = DIRECTION ( 'NONE',  ( -0.000000000000000000, -0.000000000000000000, -1.000000000000000000 ) ) ;
#217 = APPLICATION_PROTOCOL_DEFINITION ( 'international standard', 'config_control_design', 1994, #50 ) ;
#218 = LOCAL_TIME ( 10, 19, 23.00000000000000000, #104 ) ;
#219 = ORIENTED_EDGE ( 'NONE', *, *, #171, .F. ) ;
#220 = PERSON_AND_ORGANIZATION ( #1, #184 ) ;
#221 = DIRECTION ( 'NONE',  ( 0.000000000000000000, 0.000000000000000000, 1.000000000000000000 ) ) ;
#222 = APPROVAL_DATE_TIME ( #201, #135 ) ;
#223 = PERSON_AND_ORGANIZATION ( #1, #184 ) ;
#224 = AXIS2_PLACEMENT_3D ( 'NONE', #244, #90, #227 ) ;
#225 = EDGE_LOOP ( 'NONE', ( #177, #121 ) ) ;
#226 = CARTESIAN_POINT ( 'NONE',  ( 0.000000000000000000, 0.000000000000000000, 0.000000000000000000 ) ) ;
#227 = DIRECTION ( 'NONE',  ( -1.000000000000000000, 0.000000000000000000, 0.000000000000000000 ) ) ;
#228 = AXIS2_PLACEMENT_3D ( 'NONE', #137, #134, #192 ) ;
#229 = PRODUCT_DEFINITION_FORMATION_WITH_SPECIFIED_SOURCE ( 'ANY', '', #194, .NOT_KNOWN. ) ;
#230 = FACE_OUTER_BOUND ( 'NONE', #236, .T. ) ;
#231 = CC_DESIGN_PERSON_AND_ORGANIZATION_ASSIGNMENT ( #85, #183, ( #229 ) ) ;
#232 = ORIENTED_EDGE ( 'NONE', *, *, #73, .F. ) ;
#233 = APPROVAL_ROLE ( '' ) ;
#234 = EDGE_LOOP ( 'NONE', ( #176, #20, #7, #247 ) ) ;
#235 = LINE ( 'NONE', #79, #152 ) ;
#236 = EDGE_LOOP ( 'NONE', ( #2, #146, #71, #191 ) ) ;
#237 = DATE_AND_TIME ( #3, #161 ) ;
#238 = ADVANCED_FACE ( 'NONE', ( #163, #24 ), #178, .T. ) ;
#239 = DIRECTION ( 'NONE',  ( -0.000000000000000000, -0.000000000000000000, -1.000000000000000000 ) ) ;
#240 = DATE_AND_TIME ( #87, #103 ) ;
#241 = CC_DESIGN_PERSON_AND_ORGANIZATION_ASSIGNMENT ( #9, #106, ( #211 ) ) ;
#242 = APPLICATION_CONTEXT ( 'configuration controlled 3d designs of mechanical parts and assemblies' ) ;
#243 = EDGE_CURVE ( 'NONE', #95, #31, #123, .T. ) ;
#244 = CARTESIAN_POINT ( 'NONE',  ( 0.000000000000000000, 0.000000000000000000, 70.00000000000000000 ) ) ;
#245 = LOCAL_TIME ( 10, 19, 23.00000000000000000, #172 ) ;
#246 = LINE ( 'NONE', #157, #40 ) ;
#247 = ORIENTED_EDGE ( 'NONE', *, *, #203, .F. ) ;
#248 = PRODUCT_DEFINITION_SHAPE ( 'NONE', 'NONE',  #154 ) ;
#249 = MECHANICAL_CONTEXT ( 'NONE', #50, 'mechanical' ) ;
ENDSEC;
END-ISO-10303-21;
