ISO-10303-21;
HEADER;
FILE_DESCRIPTION (( 'STEP AP203' ),
    '1' );
FILE_NAME ('3-4 FW HT ZP_REV_.step',
    '2026-01-19T23:19:02',
    ( '' ),
    ( '' ),
    'SwSTEP 2.0',
    'SolidWorks 2025',
    '' );
FILE_SCHEMA (( 'CONFIG_CONTROL_DESIGN' ));
ENDSEC;

DATA;
#1 = APPROVAL ( #67, 'UNSPECIFIED' ) ;
#2 = CARTESIAN_POINT ( 'NONE',  ( -2.220446049250313081E-13, -4.000000000000003553, 2.220446049250313081E-13 ) ) ;
#3 = CARTESIAN_POINT ( 'NONE',  ( -2.220446049250313081E-13, -4.000000000000003553, 2.220446049250313081E-13 ) ) ;
#4 = CARTESIAN_POINT ( 'NONE',  ( 1.458907215176194512E-14, -9.121204216617949000E-29, -18.50000000000085265 ) ) ;
#5 = CARTESIAN_POINT ( 'NONE',  ( 8.280284194242875516E-15, 7.687696040411638247E-29, -10.50000000000000000 ) ) ;
#6 = PRODUCT_DEFINITION_FORMATION_WITH_SPECIFIED_SOURCE ( 'ANY', '', #51, .NOT_KNOWN. ) ;
#7 = PERSON_AND_ORGANIZATION_ROLE ( 'design_owner' ) ;
#8 = CARTESIAN_POINT ( 'NONE',  ( 0.000000000000000000, 0.000000000000000000, 0.000000000000000000 ) ) ;
#9 = DATE_AND_TIME ( #222, #17 ) ;
#10 = APPROVAL_PERSON_ORGANIZATION ( #203, #1, #49 ) ;
#11 = EDGE_LOOP ( 'NONE', ( #147, #152 ) ) ;
#12 = CIRCLE ( 'NONE', #97, 10.50000000000048672 ) ;
#13 = EDGE_LOOP ( 'NONE', ( #226, #246, #74, #92 ) ) ;
#14 = ORIENTED_EDGE ( 'NONE', *, *, #228, .T. ) ;
#15 = ORIENTED_EDGE ( 'NONE', *, *, #53, .T. ) ;
#16 = DIRECTION ( 'NONE',  ( 4.079889994189920431E-30, 1.000000000000000000, 7.321615276582515819E-30 ) ) ;
#17 = LOCAL_TIME ( 10, 19, 2.000000000000000000, #33 ) ;
#18 = ORIENTED_EDGE ( 'NONE', *, *, #23, .F. ) ;
#19 = DIRECTION ( 'NONE',  ( -6.661338147750648350E-16, 0.000000000000000000, 1.000000000000000000 ) ) ;
#20 = ADVANCED_BREP_SHAPE_REPRESENTATION ( '3-4 FW HT ZP_REV_', ( #128, #207 ), #196 ) ;
#21 = DIRECTION ( 'NONE',  ( -6.661338147750631587E-16, 4.930380657631096073E-30, 1.000000000000000000 ) ) ;
#22 = DIRECTION ( 'NONE',  ( 4.079889994189920431E-30, 1.000000000000000000, 7.321615276582515819E-30 ) ) ;
#23 = EDGE_CURVE ( 'NONE', #71, #125, #68, .T. ) ;
#24 = FACE_OUTER_BOUND ( 'NONE', #88, .T. ) ;
#25 = AXIS2_PLACEMENT_3D ( 'NONE', #161, #217, #218 ) ;
#26 = CARTESIAN_POINT ( 'NONE',  ( 1.458907215174963889E-14, -4.000000000000003553, -18.49999999999977618 ) ) ;
#27 = DATE_TIME_ROLE ( 'classification_date' ) ;
#28 = ADVANCED_FACE ( 'NONE', ( #234, #172 ), #91, .F. ) ;
#29 = DIRECTION ( 'NONE',  ( 0.000000000000000000, 0.000000000000000000, 1.000000000000000000 ) ) ;
#30 = SECURITY_CLASSIFICATION ( '', '', #82 ) ;
#31 = APPROVAL_STATUS ( 'not_yet_approved' ) ;
#32 = DATE_AND_TIME ( #200, #166 ) ;
#33 = COORDINATED_UNIVERSAL_TIME_OFFSET ( 10, 0, .AHEAD. ) ;
#34 = CIRCLE ( 'NONE', #73, 18.50000000000085265 ) ;
#35 = EDGE_LOOP ( 'NONE', ( #248, #89, #205, #167 ) ) ;
#36 = CC_DESIGN_PERSON_AND_ORGANIZATION_ASSIGNMENT ( #143, #164, ( #142 ) ) ;
#37 = CLOSED_SHELL ( 'NONE', ( #131, #158, #69, #119, #179, #28 ) ) ;
#38 = CARTESIAN_POINT ( 'NONE',  ( 10.50000000000206413, -4.000000000000447642, 2.886579864025407005E-12 ) ) ;
#39 = EDGE_LOOP ( 'NONE', ( #168, #189 ) ) ;
#40 =( LENGTH_UNIT ( ) NAMED_UNIT ( * ) SI_UNIT ( .MILLI., .METRE. ) );
#41 = CARTESIAN_POINT ( 'NONE',  ( 0.000000000000000000, 0.000000000000000000, 0.000000000000000000 ) ) ;
#42 = CARTESIAN_POINT ( 'NONE',  ( 8.280284194243266791E-15, -5.176899690512891094E-29, -10.50000000000048672 ) ) ;
#43 = CARTESIAN_POINT ( 'NONE',  ( 1.458907215176126355E-14, 1.354498826167764754E-28, -18.50000000000000000 ) ) ;
#44 = CARTESIAN_POINT ( 'NONE',  ( -6.994405055138486205E-15, 5.176899690512889973E-29, 10.50000000000048672 ) ) ;
#45 = LINE ( 'NONE', #174, #150 ) ;
#46 = DIRECTION ( 'NONE',  ( -6.661338147750631587E-16, 4.930380657631096073E-30, 1.000000000000000000 ) ) ;
#47 = PERSON_AND_ORGANIZATION_ROLE ( 'design_supplier' ) ;
#48 = UNCERTAINTY_MEASURE_WITH_UNIT (LENGTH_MEASURE( 1.000000000000000082E-05 ), #40, 'distance_accuracy_value', 'NONE');
#49 = APPROVAL_ROLE ( '' ) ;
#50 = CALENDAR_DATE ( 2026, 20, 1 ) ;
#51 = PRODUCT ( '3-4 FW HT ZP_REV_', '3-4 FW HT ZP_REV_', '', ( #104 ) ) ;
#52 = COORDINATED_UNIVERSAL_TIME_OFFSET ( 10, 0, .AHEAD. ) ;
#53 = EDGE_CURVE ( 'NONE', #126, #227, #118, .T. ) ;
#54 = PERSON_AND_ORGANIZATION ( #95, #129 ) ;
#55 = AXIS2_PLACEMENT_3D ( 'NONE', #38, #249, #190 ) ;
#56 =( NAMED_UNIT ( * ) PLANE_ANGLE_UNIT ( ) SI_UNIT ( $, .RADIAN. ) );
#57 = DIRECTION ( 'NONE',  ( -6.661338147750631587E-16, 4.930380657631096073E-30, 1.000000000000000000 ) ) ;
#58 = DIRECTION ( 'NONE',  ( 4.079889994189920431E-30, 1.000000000000000000, 7.321615276582515819E-30 ) ) ;
#59 = CARTESIAN_POINT ( 'NONE',  ( 8.280284194230163812E-15, -4.000000000000003553, -10.49999999999977796 ) ) ;
#60 = LOCAL_TIME ( 10, 19, 2.000000000000000000, #182 ) ;
#61 = CARTESIAN_POINT ( 'NONE',  ( 0.000000000000000000, 0.000000000000000000, 0.000000000000000000 ) ) ;
#62 = DIRECTION ( 'NONE',  ( -6.661338147750630601E-16, 4.930380657631095372E-30, 1.000000000000000000 ) ) ;
#63 = PERSON_AND_ORGANIZATION_ROLE ( 'creator' ) ;
#64 = CARTESIAN_POINT ( 'NONE',  ( -6.994405055138486205E-15, 5.176899690512889973E-29, 10.50000000000048672 ) ) ;
#65 = CC_DESIGN_SECURITY_CLASSIFICATION ( #30, ( #6 ) ) ;
#66 = APPROVAL_DATE_TIME ( #81, #70 ) ;
#67 = APPROVAL_STATUS ( 'not_yet_approved' ) ;
#68 = CIRCLE ( 'NONE', #206, 10.50000000000048672 ) ;
#69 = ADVANCED_FACE ( 'NONE', ( #24 ), #111, .F. ) ;
#70 = APPROVAL ( #101, 'UNSPECIFIED' ) ;
#71 = VERTEX_POINT ( 'NONE', #5 ) ;
#72 = CARTESIAN_POINT ( 'NONE',  ( 0.000000000000000000, 0.000000000000000000, 0.000000000000000000 ) ) ;
#73 = AXIS2_PLACEMENT_3D ( 'NONE', #198, #133, #212 ) ;
#74 = ORIENTED_EDGE ( 'NONE', *, *, #23, .T. ) ;
#75 = DIRECTION ( 'NONE',  ( 4.079889994189920431E-30, 1.000000000000000000, 7.321615276582515819E-30 ) ) ;
#76 = CYLINDRICAL_SURFACE ( 'NONE', #185, 18.50000000000085265 ) ;
#77 = DIRECTION ( 'NONE',  ( 4.079889994189920431E-30, 1.000000000000000000, 7.321615276582515819E-30 ) ) ;
#78 = PLANE ( 'NONE',  #55 ) ;
#79 = APPROVAL_PERSON_ORGANIZATION ( #238, #70, #123 ) ;
#80 = LINE ( 'NONE', #64, #102 ) ;
#81 = DATE_AND_TIME ( #50, #107 ) ;
#82 = SECURITY_CLASSIFICATION_LEVEL ( 'unclassified' ) ;
#83 = EDGE_CURVE ( 'NONE', #126, #110, #208, .T. ) ;
#84 = APPROVAL_ROLE ( '' ) ;
#85 = VECTOR ( 'NONE', #58, 1000.000000000000000 ) ;
#86 = DIRECTION ( 'NONE',  ( 4.079889994189920431E-30, 1.000000000000000000, 7.321615276582515819E-30 ) ) ;
#87 = CIRCLE ( 'NONE', #245, 18.50000000000085265 ) ;
#88 = EDGE_LOOP ( 'NONE', ( #148, #209, #109, #230 ) ) ;
#89 = ORIENTED_EDGE ( 'NONE', *, *, #83, .T. ) ;
#90 = AXIS2_PLACEMENT_3D ( 'NONE', #176, #156, #57 ) ;
#91 = PLANE ( 'NONE',  #242 ) ;
#92 = ORIENTED_EDGE ( 'NONE', *, *, #151, .F. ) ;
#93 = DIRECTION ( 'NONE',  ( 4.079889994189920431E-30, 1.000000000000000000, 7.321615276582515819E-30 ) ) ;
#94 = CC_DESIGN_PERSON_AND_ORGANIZATION_ASSIGNMENT ( #236, #202, ( #30 ) ) ;
#95 = PERSON ( 'UNSPECIFIED', 'UNSPECIFIED', 'UNSPECIFIED', ('UNSPECIFIED'), ('UNSPECIFIED'), ('UNSPECIFIED') ) ;
#96 = CYLINDRICAL_SURFACE ( 'NONE', #90, 18.50000000000085265 ) ;
#97 = AXIS2_PLACEMENT_3D ( 'NONE', #193, #93, #233 ) ;
#98 = LINE ( 'NONE', #42, #85 ) ;
#99 = APPLICATION_PROTOCOL_DEFINITION ( 'international standard', 'config_control_design', 1994, #108 ) ;
#100 = CARTESIAN_POINT ( 'NONE',  ( 0.000000000000000000, 0.000000000000000000, 0.000000000000000000 ) ) ;
#101 = APPROVAL_STATUS ( 'not_yet_approved' ) ;
#102 = VECTOR ( 'NONE', #178, 1000.000000000000000 ) ;
#103 = PERSON_AND_ORGANIZATION ( #95, #129 ) ;
#104 = MECHANICAL_CONTEXT ( 'NONE', #108, 'mechanical' ) ;
#105 = COORDINATED_UNIVERSAL_TIME_OFFSET ( 10, 0, .AHEAD. ) ;
#106 = EDGE_CURVE ( 'NONE', #191, #173, #114, .T. ) ;
#107 = LOCAL_TIME ( 10, 19, 2.000000000000000000, #105 ) ;
#108 = APPLICATION_CONTEXT ( 'configuration controlled 3d designs of mechanical parts and assemblies' ) ;
#109 = ORIENTED_EDGE ( 'NONE', *, *, #151, .T. ) ;
#110 = VERTEX_POINT ( 'NONE', #213 ) ;
#111 = CYLINDRICAL_SURFACE ( 'NONE', #229, 10.50000000000048672 ) ;
#112 = CC_DESIGN_PERSON_AND_ORGANIZATION_ASSIGNMENT ( #121, #7, ( #51 ) ) ;
#113 = EDGE_LOOP ( 'NONE', ( #211, #127 ) ) ;
#114 = CIRCLE ( 'NONE', #25, 10.50000000000048672 ) ;
#115 = DIRECTION ( 'NONE',  ( -6.661338147750631587E-16, 4.930380657631096073E-30, 1.000000000000000000 ) ) ;
#116 = DIRECTION ( 'NONE',  ( 4.079889994189920431E-30, 1.000000000000000000, 7.321615276582515819E-30 ) ) ;
#117 =( NAMED_UNIT ( * ) SI_UNIT ( $, .STERADIAN. ) SOLID_ANGLE_UNIT ( ) );
#118 = LINE ( 'NONE', #4, #144 ) ;
#119 = ADVANCED_FACE ( 'NONE', ( #175, #139 ), #78, .F. ) ;
#120 = CARTESIAN_POINT ( 'NONE',  ( 0.000000000000000000, 0.000000000000000000, 0.000000000000000000 ) ) ;
#121 = PERSON_AND_ORGANIZATION ( #95, #129 ) ;
#122 = CIRCLE ( 'NONE', #192, 18.50000000000085265 ) ;
#123 = APPROVAL_ROLE ( '' ) ;
#124 = AXIS2_PLACEMENT_3D ( 'NONE', #2, #116, #157 ) ;
#125 = VERTEX_POINT ( 'NONE', #44 ) ;
#126 = VERTEX_POINT ( 'NONE', #26 ) ;
#127 = ORIENTED_EDGE ( 'NONE', *, *, #223, .T. ) ;
#128 = MANIFOLD_SOLID_BREP ( 'Revolve', #37 ) ;
#129 = ORGANIZATION ( 'UNSPECIFIED', 'UNSPECIFIED', '' ) ;
#130 = ORIENTED_EDGE ( 'NONE', *, *, #214, .F. ) ;
#131 = ADVANCED_FACE ( 'NONE', ( #195 ), #76, .T. ) ;
#132 = ORIENTED_EDGE ( 'NONE', *, *, #169, .F. ) ;
#133 = DIRECTION ( 'NONE',  ( 4.079889994189920431E-30, 1.000000000000000000, 7.321615276582515819E-30 ) ) ;
#134 = CYLINDRICAL_SURFACE ( 'NONE', #224, 10.50000000000048672 ) ;
#135 = AXIS2_PLACEMENT_3D ( 'NONE', #3, #77, #19 ) ;
#136 = FACE_OUTER_BOUND ( 'NONE', #35, .T. ) ;
#137 = DIRECTION ( 'NONE',  ( -6.661338147750630601E-16, 4.930380657631095372E-30, 1.000000000000000000 ) ) ;
#138 = EDGE_CURVE ( 'NONE', #173, #71, #98, .T. ) ;
#139 = FACE_BOUND ( 'NONE', #113, .T. ) ;
#140 = CALENDAR_DATE ( 2026, 20, 1 ) ;
#141 = DIRECTION ( 'NONE',  ( -4.079889994189929540E-30, -1.000000000000000000, 4.930380657631093270E-30 ) ) ;
#142 = PRODUCT_DEFINITION ( 'UNKNOWN', '', #6, #197 ) ;
#143 = PERSON_AND_ORGANIZATION ( #95, #129 ) ;
#144 = VECTOR ( 'NONE', #199, 1000.000000000000000 ) ;
#145 = APPROVAL_DATE_TIME ( #183, #171 ) ;
#146 = EDGE_CURVE ( 'NONE', #149, #227, #122, .T. ) ;
#147 = ORIENTED_EDGE ( 'NONE', *, *, #228, .F. ) ;
#148 = ORIENTED_EDGE ( 'NONE', *, *, #138, .F. ) ;
#149 = VERTEX_POINT ( 'NONE', #154 ) ;
#150 = VECTOR ( 'NONE', #216, 1000.000000000000000 ) ;
#151 = EDGE_CURVE ( 'NONE', #191, #125, #80, .T. ) ;
#152 = ORIENTED_EDGE ( 'NONE', *, *, #83, .F. ) ;
#153 = FACE_OUTER_BOUND ( 'NONE', #13, .T. ) ;
#154 = CARTESIAN_POINT ( 'NONE',  ( -1.232347557333923602E-14, 9.121204216617947879E-29, 18.50000000000085265 ) ) ;
#155 = CIRCLE ( 'NONE', #135, 10.50000000000048672 ) ;
#156 = DIRECTION ( 'NONE',  ( 4.079889994189920431E-30, 1.000000000000000000, 7.321615276582515819E-30 ) ) ;
#157 = DIRECTION ( 'NONE',  ( -6.661338147750618768E-16, 0.000000000000000000, 1.000000000000000000 ) ) ;
#158 = ADVANCED_FACE ( 'NONE', ( #153 ), #134, .F. ) ;
#159 = CARTESIAN_POINT ( 'NONE',  ( 0.000000000000000000, 0.000000000000000000, 0.000000000000000000 ) ) ;
#160 = SHAPE_DEFINITION_REPRESENTATION ( #243, #20 ) ;
#161 = CARTESIAN_POINT ( 'NONE',  ( -2.220446049250313081E-13, -4.000000000000003553, 2.220446049250313081E-13 ) ) ;
#162 = COORDINATED_UNIVERSAL_TIME_OFFSET ( 10, 0, .AHEAD. ) ;
#163 = DATE_TIME_ROLE ( 'creation_date' ) ;
#164 = PERSON_AND_ORGANIZATION_ROLE ( 'creator' ) ;
#165 = EDGE_CURVE ( 'NONE', #227, #149, #87, .T. ) ;
#166 = LOCAL_TIME ( 10, 19, 2.000000000000000000, #162 ) ;
#167 = ORIENTED_EDGE ( 'NONE', *, *, #165, .F. ) ;
#168 = ORIENTED_EDGE ( 'NONE', *, *, #146, .T. ) ;
#169 = EDGE_CURVE ( 'NONE', #125, #71, #12, .T. ) ;
#170 = EDGE_LOOP ( 'NONE', ( #132, #18 ) ) ;
#171 = APPROVAL ( #31, 'UNSPECIFIED' ) ;
#172 = FACE_OUTER_BOUND ( 'NONE', #39, .T. ) ;
#173 = VERTEX_POINT ( 'NONE', #59 ) ;
#174 = CARTESIAN_POINT ( 'NONE',  ( -1.232347557333923602E-14, 9.121204216617947879E-29, 18.50000000000085265 ) ) ;
#175 = FACE_OUTER_BOUND ( 'NONE', #11, .T. ) ;
#176 = CARTESIAN_POINT ( 'NONE',  ( 0.000000000000000000, 0.000000000000000000, 0.000000000000000000 ) ) ;
#177 = CARTESIAN_POINT ( 'NONE',  ( 10.50000000000106404, -4.440892098500626162E-13, 1.110223024625156540E-12 ) ) ;
#178 = DIRECTION ( 'NONE',  ( 4.079889994189920431E-30, 1.000000000000000000, 7.321615276582515819E-30 ) ) ;
#179 = ADVANCED_FACE ( 'NONE', ( #136 ), #96, .T. ) ;
#180 = DIRECTION ( 'NONE',  ( 1.000000000000000000, 0.000000000000000000, 0.000000000000000000 ) ) ;
#181 = CC_DESIGN_DATE_AND_TIME_ASSIGNMENT ( #241, #27, ( #30 ) ) ;
#182 = COORDINATED_UNIVERSAL_TIME_OFFSET ( 10, 0, .AHEAD. ) ;
#183 = DATE_AND_TIME ( #140, #215 ) ;
#184 = APPROVAL_DATE_TIME ( #32, #1 ) ;
#185 = AXIS2_PLACEMENT_3D ( 'NONE', #100, #75, #21 ) ;
#186 = PRODUCT_RELATED_PRODUCT_CATEGORY ( 'detail', '', ( #51 ) ) ;
#187 = EDGE_LOOP ( 'NONE', ( #14, #15, #188, #130 ) ) ;
#188 = ORIENTED_EDGE ( 'NONE', *, *, #146, .F. ) ;
#189 = ORIENTED_EDGE ( 'NONE', *, *, #165, .T. ) ;
#190 = DIRECTION ( 'NONE',  ( -6.661338147750631587E-16, 4.930380657631096073E-30, 1.000000000000000000 ) ) ;
#191 = VERTEX_POINT ( 'NONE', #210 ) ;
#192 = AXIS2_PLACEMENT_3D ( 'NONE', #120, #194, #46 ) ;
#193 = CARTESIAN_POINT ( 'NONE',  ( 0.000000000000000000, 0.000000000000000000, 0.000000000000000000 ) ) ;
#194 = DIRECTION ( 'NONE',  ( 4.079889994189920431E-30, 1.000000000000000000, 7.321615276582515819E-30 ) ) ;
#195 = FACE_OUTER_BOUND ( 'NONE', #187, .T. ) ;
#196 =( GEOMETRIC_REPRESENTATION_CONTEXT ( 3 ) GLOBAL_UNCERTAINTY_ASSIGNED_CONTEXT ( ( #48 ) ) GLOBAL_UNIT_ASSIGNED_CONTEXT ( ( #40, #56, #117 ) ) REPRESENTATION_CONTEXT ( 'NONE', 'WORKASPACE' ) );
#197 = DESIGN_CONTEXT ( 'detailed design', #225, 'design' ) ;
#198 = CARTESIAN_POINT ( 'NONE',  ( -2.220446049250313081E-13, -4.000000000000003553, 2.220446049250313081E-13 ) ) ;
#199 = DIRECTION ( 'NONE',  ( 4.079889994189920431E-30, 1.000000000000000000, 7.321615276582515819E-30 ) ) ;
#200 = CALENDAR_DATE ( 2026, 20, 1 ) ;
#201 = PERSON_AND_ORGANIZATION ( #95, #129 ) ;
#202 = PERSON_AND_ORGANIZATION_ROLE ( 'classification_officer' ) ;
#203 = PERSON_AND_ORGANIZATION ( #95, #129 ) ;
#204 = APPROVAL_PERSON_ORGANIZATION ( #201, #171, #84 ) ;
#205 = ORIENTED_EDGE ( 'NONE', *, *, #214, .T. ) ;
#206 = AXIS2_PLACEMENT_3D ( 'NONE', #72, #86, #235 ) ;
#207 = AXIS2_PLACEMENT_3D ( 'NONE', #8, #29, #180 ) ;
#208 = CIRCLE ( 'NONE', #124, 18.50000000000085265 ) ;
#209 = ORIENTED_EDGE ( 'NONE', *, *, #106, .F. ) ;
#210 = CARTESIAN_POINT ( 'NONE',  ( -2.290390099801697943E-13, -4.000000000000003553, 10.50000000000070877 ) ) ;
#211 = ORIENTED_EDGE ( 'NONE', *, *, #106, .T. ) ;
#212 = DIRECTION ( 'NONE',  ( -6.661338147750618768E-16, 0.000000000000000000, 1.000000000000000000 ) ) ;
#213 = CARTESIAN_POINT ( 'NONE',  ( -2.343680804983704952E-13, -4.000000000000003553, 18.50000000000107292 ) ) ;
#214 = EDGE_CURVE ( 'NONE', #110, #149, #45, .T. ) ;
#215 = LOCAL_TIME ( 10, 19, 2.000000000000000000, #52 ) ;
#216 = DIRECTION ( 'NONE',  ( 4.079889994189920431E-30, 1.000000000000000000, 7.321615276582515819E-30 ) ) ;
#217 = DIRECTION ( 'NONE',  ( 4.079889994189920431E-30, 1.000000000000000000, 7.321615276582515819E-30 ) ) ;
#218 = DIRECTION ( 'NONE',  ( -6.661338147750648350E-16, 0.000000000000000000, 1.000000000000000000 ) ) ;
#219 = DIRECTION ( 'NONE',  ( 4.079889994189920431E-30, 1.000000000000000000, 7.321615276582515819E-30 ) ) ;
#220 = CC_DESIGN_APPROVAL ( #70, ( #142 ) ) ;
#221 = CALENDAR_DATE ( 2026, 20, 1 ) ;
#222 = CALENDAR_DATE ( 2026, 20, 1 ) ;
#223 = EDGE_CURVE ( 'NONE', #173, #191, #155, .T. ) ;
#224 = AXIS2_PLACEMENT_3D ( 'NONE', #159, #16, #62 ) ;
#225 = APPLICATION_CONTEXT ( 'configuration controlled 3d designs of mechanical parts and assemblies' ) ;
#226 = ORIENTED_EDGE ( 'NONE', *, *, #223, .F. ) ;
#227 = VERTEX_POINT ( 'NONE', #43 ) ;
#228 = EDGE_CURVE ( 'NONE', #110, #126, #34, .T. ) ;
#229 = AXIS2_PLACEMENT_3D ( 'NONE', #61, #22, #137 ) ;
#230 = ORIENTED_EDGE ( 'NONE', *, *, #169, .T. ) ;
#231 = DIRECTION ( 'NONE',  ( 6.661338147750631587E-16, -4.930380657631096073E-30, -1.000000000000000000 ) ) ;
#232 = CC_DESIGN_PERSON_AND_ORGANIZATION_ASSIGNMENT ( #103, #63, ( #6 ) ) ;
#233 = DIRECTION ( 'NONE',  ( -6.661338147750630601E-16, 4.930380657631095372E-30, 1.000000000000000000 ) ) ;
#234 = FACE_BOUND ( 'NONE', #170, .T. ) ;
#235 = DIRECTION ( 'NONE',  ( -6.661338147750630601E-16, 4.930380657631095372E-30, 1.000000000000000000 ) ) ;
#236 = PERSON_AND_ORGANIZATION ( #95, #129 ) ;
#237 = CC_DESIGN_APPROVAL ( #171, ( #6 ) ) ;
#238 = PERSON_AND_ORGANIZATION ( #95, #129 ) ;
#239 = APPLICATION_PROTOCOL_DEFINITION ( 'international standard', 'config_control_design', 1994, #225 ) ;
#240 = CC_DESIGN_DATE_AND_TIME_ASSIGNMENT ( #9, #163, ( #142 ) ) ;
#241 = DATE_AND_TIME ( #221, #60 ) ;
#242 = AXIS2_PLACEMENT_3D ( 'NONE', #177, #141, #231 ) ;
#243 = PRODUCT_DEFINITION_SHAPE ( 'NONE', 'NONE',  #142 ) ;
#244 = CC_DESIGN_PERSON_AND_ORGANIZATION_ASSIGNMENT ( #54, #47, ( #6 ) ) ;
#245 = AXIS2_PLACEMENT_3D ( 'NONE', #41, #219, #115 ) ;
#246 = ORIENTED_EDGE ( 'NONE', *, *, #138, .T. ) ;
#247 = CC_DESIGN_APPROVAL ( #1, ( #30 ) ) ;
#248 = ORIENTED_EDGE ( 'NONE', *, *, #53, .F. ) ;
#249 = DIRECTION ( 'NONE',  ( 4.079889994189929540E-30, 1.000000000000000000, -4.930380657631093270E-30 ) ) ;
ENDSEC;
END-ISO-10303-21;
