ISO-10303-21;
HEADER;
FILE_DESCRIPTION (( 'STEP AP203' ),
    '1' );
FILE_NAME ('3-4_UNC-AT-85_REV_.step',
    '2026-01-19T23:17:59',
    ( '' ),
    ( '' ),
    'SwSTEP 2.0',
    'SolidWorks 2025',
    '' );
FILE_SCHEMA (( 'CONFIG_CONTROL_DESIGN' ));
ENDSEC;

DATA;
#1 = CARTESIAN_POINT ( 'NONE',  ( -9.550000000000000711, 0.000000000000000000, 83.50000000000001421 ) ) ;
#2 = LOCAL_TIME ( 10, 17, 59.00000000000000000, #94 ) ;
#3 =( NAMED_UNIT ( * ) SI_UNIT ( $, .STERADIAN. ) SOLID_ANGLE_UNIT ( ) );
#4 = CARTESIAN_POINT ( 'NONE',  ( 0.000000000000000000, 0.000000000000000000, 85.00000000000000000 ) ) ;
#5 = VECTOR ( 'NONE', #273, 1000.000000000000000 ) ;
#6 = CARTESIAN_POINT ( 'NONE',  ( -8.050000000000007816, 1.077689183249671197E-15, 0.000000000000000000 ) ) ;
#7 = DIRECTION ( 'NONE',  ( 0.000000000000000000, 0.000000000000000000, -1.000000000000000000 ) ) ;
#8 = APPROVAL_DATE_TIME ( #71, #59 ) ;
#9 = ORIENTED_EDGE ( 'NONE', *, *, #177, .F. ) ;
#10 = AXIS2_PLACEMENT_3D ( 'NONE', #122, #19, #204 ) ;
#11 = APPROVAL_ROLE ( '' ) ;
#12 = PRODUCT_RELATED_PRODUCT_CATEGORY ( 'detail', '', ( #138 ) ) ;
#13 = AXIS2_PLACEMENT_3D ( 'NONE', #102, #211, #208 ) ;
#14 = EDGE_LOOP ( 'NONE', ( #232, #93, #146, #183 ) ) ;
#15 = DIRECTION ( 'NONE',  ( -0.000000000000000000, -0.000000000000000000, 1.000000000000000000 ) ) ;
#16 = ORIENTED_EDGE ( 'NONE', *, *, #80, .T. ) ;
#17 = DIRECTION ( 'NONE',  ( -0.000000000000000000, -0.000000000000000000, 1.000000000000000000 ) ) ;
#18 = CIRCLE ( 'NONE', #49, 8.050000000000014921 ) ;
#19 = DIRECTION ( 'NONE',  ( -0.000000000000000000, -0.000000000000000000, -1.000000000000000000 ) ) ;
#20 = CC_DESIGN_APPROVAL ( #59, ( #78 ) ) ;
#21 = DIRECTION ( 'NONE',  ( 0.000000000000000000, 0.000000000000000000, 1.000000000000000000 ) ) ;
#22 = DIRECTION ( 'NONE',  ( -0.000000000000000000, -0.000000000000000000, 1.000000000000000000 ) ) ;
#23 = CARTESIAN_POINT ( 'NONE',  ( -8.050000000000014921, 0.000000000000000000, 85.00000000000000000 ) ) ;
#24 = VECTOR ( 'NONE', #145, 1000.000000000000000 ) ;
#25 = ADVANCED_FACE ( 'NONE', ( #63 ), #45, .T. ) ;
#26 = LINE ( 'NONE', #23, #51 ) ;
#27 = UNCERTAINTY_MEASURE_WITH_UNIT (LENGTH_MEASURE( 1.000000000000000082E-05 ), #195, 'distance_accuracy_value', 'NONE');
#28 = MECHANICAL_CONTEXT ( 'NONE', #182, 'mechanical' ) ;
#29 = DIRECTION ( 'NONE',  ( -0.7071067811865471286, 0.000000000000000000, -0.7071067811865479058 ) ) ;
#30 = DIRECTION ( 'NONE',  ( -0.000000000000000000, -0.000000000000000000, -1.000000000000000000 ) ) ;
#31 = APPROVAL_DATE_TIME ( #245, #207 ) ;
#32 = SHAPE_DEFINITION_REPRESENTATION ( #83, #271 ) ;
#33 = LOCAL_TIME ( 10, 17, 59.00000000000000000, #90 ) ;
#34 = EDGE_CURVE ( 'NONE', #125, #181, #178, .T. ) ;
#35 = CALENDAR_DATE ( 2026, 20, 1 ) ;
#36 = ADVANCED_FACE ( 'NONE', ( #234 ), #252, .T. ) ;
#37 = ORIENTED_EDGE ( 'NONE', *, *, #173, .T. ) ;
#38 = CARTESIAN_POINT ( 'NONE',  ( 0.000000000000000000, 0.000000000000000000, 85.00000000000000000 ) ) ;
#39 = DIRECTION ( 'NONE',  ( 1.000000000000000000, 0.000000000000000000, 0.000000000000000000 ) ) ;
#40 = ADVANCED_FACE ( 'NONE', ( #166 ), #41, .F. ) ;
#41 = PLANE ( 'NONE',  #82 ) ;
#42 = DIRECTION ( 'NONE',  ( 1.000000000000000000, 0.000000000000000000, 0.000000000000000000 ) ) ;
#43 = CARTESIAN_POINT ( 'NONE',  ( 9.550000000000000711, 1.169537693185722558E-15, 83.50000000000001421 ) ) ;
#44 = DIRECTION ( 'NONE',  ( -1.000000000000000000, 0.000000000000000000, 0.000000000000000000 ) ) ;
#45 = CONICAL_SURFACE ( 'NONE', #58, 8.050000000000014921, 0.7853981633974477239 ) ;
#46 = CARTESIAN_POINT ( 'NONE',  ( 0.000000000000000000, 0.000000000000000000, 83.50000000000001421 ) ) ;
#47 = EDGE_CURVE ( 'NONE', #186, #225, #114, .T. ) ;
#48 = CARTESIAN_POINT ( 'NONE',  ( -9.550000000000000711, 0.000000000000000000, 1.499999999999987566 ) ) ;
#49 = AXIS2_PLACEMENT_3D ( 'NONE', #38, #212, #250 ) ;
#50 = APPROVAL_STATUS ( 'not_yet_approved' ) ;
#51 = VECTOR ( 'NONE', #29, 1000.000000000000000 ) ;
#52 = CC_DESIGN_SECURITY_CLASSIFICATION ( #78, ( #215 ) ) ;
#53 = PERSON_AND_ORGANIZATION_ROLE ( 'creator' ) ;
#54 = EDGE_LOOP ( 'NONE', ( #116, #77, #100, #9 ) ) ;
#55 = CARTESIAN_POINT ( 'NONE',  ( 0.000000000000000000, 0.000000000000000000, 1.499999999999987566 ) ) ;
#56 = DIRECTION ( 'NONE',  ( -0.7071067811865489050, 8.659560562354948882E-17, 0.7071067811865462405 ) ) ;
#57 = CC_DESIGN_PERSON_AND_ORGANIZATION_ASSIGNMENT ( #201, #158, ( #215 ) ) ;
#58 = AXIS2_PLACEMENT_3D ( 'NONE', #84, #127, #60 ) ;
#59 = APPROVAL ( #243, 'UNSPECIFIED' ) ;
#60 = DIRECTION ( 'NONE',  ( -1.000000000000000000, 0.000000000000000000, 0.000000000000000000 ) ) ;
#61 = APPROVAL_PERSON_ORGANIZATION ( #197, #207, #11 ) ;
#62 = EDGE_LOOP ( 'NONE', ( #16, #184 ) ) ;
#63 = FACE_OUTER_BOUND ( 'NONE', #54, .T. ) ;
#64 =( NAMED_UNIT ( * ) PLANE_ANGLE_UNIT ( ) SI_UNIT ( $, .RADIAN. ) );
#65 = APPLICATION_PROTOCOL_DEFINITION ( 'international standard', 'config_control_design', 1994, #182 ) ;
#66 = CIRCLE ( 'NONE', #175, 8.050000000000007816 ) ;
#67 = DIRECTION ( 'NONE',  ( 0.000000000000000000, 0.000000000000000000, -1.000000000000000000 ) ) ;
#68 = EDGE_LOOP ( 'NONE', ( #246, #119, #123, #81 ) ) ;
#69 = CARTESIAN_POINT ( 'NONE',  ( 8.050000000000014921, 1.077689183249671591E-15, 85.00000000000000000 ) ) ;
#70 = DATE_TIME_ROLE ( 'creation_date' ) ;
#71 = DATE_AND_TIME ( #161, #236 ) ;
#72 = APPROVAL_ROLE ( '' ) ;
#73 = AXIS2_PLACEMENT_3D ( 'NONE', #46, #129, #192 ) ;
#74 = SECURITY_CLASSIFICATION_LEVEL ( 'unclassified' ) ;
#75 = EDGE_LOOP ( 'NONE', ( #147, #241, #144, #220 ) ) ;
#76 = CARTESIAN_POINT ( 'NONE',  ( 8.050000000000014921, 9.858406733136210192E-16, 85.00000000000000000 ) ) ;
#77 = ORIENTED_EDGE ( 'NONE', *, *, #80, .F. ) ;
#78 = SECURITY_CLASSIFICATION ( '', '', #74 ) ;
#79 = FACE_OUTER_BOUND ( 'NONE', #168, .T. ) ;
#80 = EDGE_CURVE ( 'NONE', #111, #188, #18, .T. ) ;
#81 = ORIENTED_EDGE ( 'NONE', *, *, #173, .F. ) ;
#82 = AXIS2_PLACEMENT_3D ( 'NONE', #149, #21, #235 ) ;
#83 = PRODUCT_DEFINITION_SHAPE ( 'NONE', 'NONE',  #260 ) ;
#84 = CARTESIAN_POINT ( 'NONE',  ( 0.000000000000000000, 0.000000000000000000, 85.00000000000000000 ) ) ;
#85 = LINE ( 'NONE', #124, #5 ) ;
#86 = DIRECTION ( 'NONE',  ( -1.000000000000000000, 0.000000000000000000, 0.000000000000000000 ) ) ;
#87 = DIRECTION ( 'NONE',  ( -0.000000000000000000, -0.000000000000000000, -1.000000000000000000 ) ) ;
#88 = DIRECTION ( 'NONE',  ( -0.000000000000000000, -0.000000000000000000, -1.000000000000000000 ) ) ;
#89 = CARTESIAN_POINT ( 'NONE',  ( 0.000000000000000000, 0.000000000000000000, 85.00000000000000000 ) ) ;
#90 = COORDINATED_UNIVERSAL_TIME_OFFSET ( 10, 0, .AHEAD. ) ;
#91 = CIRCLE ( 'NONE', #73, 9.550000000000000711 ) ;
#92 = APPLICATION_PROTOCOL_DEFINITION ( 'international standard', 'config_control_design', 1994, #255 ) ;
#93 = ORIENTED_EDGE ( 'NONE', *, *, #177, .T. ) ;
#94 = COORDINATED_UNIVERSAL_TIME_OFFSET ( 10, 0, .AHEAD. ) ;
#95 = AXIS2_PLACEMENT_3D ( 'NONE', #233, #17, #39 ) ;
#96 = EDGE_LOOP ( 'NONE', ( #170, #251 ) ) ;
#97 = CARTESIAN_POINT ( 'NONE',  ( 0.000000000000000000, 0.000000000000000000, 1.499999999999987566 ) ) ;
#98 = ADVANCED_FACE ( 'NONE', ( #205 ), #267, .T. ) ;
#99 = CARTESIAN_POINT ( 'NONE',  ( -8.050000000000014921, 0.000000000000000000, 85.00000000000000000 ) ) ;
#100 = ORIENTED_EDGE ( 'NONE', *, *, #258, .T. ) ;
#101 = VECTOR ( 'NONE', #56, 999.9999999999998863 ) ;
#102 = CARTESIAN_POINT ( 'NONE',  ( 0.000000000000000000, 0.000000000000000000, 85.00000000000000000 ) ) ;
#103 = CLOSED_SHELL ( 'NONE', ( #187, #98, #198, #223, #36, #40, #106, #25 ) ) ;
#104 = DIRECTION ( 'NONE',  ( 1.000000000000000000, 0.000000000000000000, 0.000000000000000000 ) ) ;
#105 = DIRECTION ( 'NONE',  ( 1.000000000000000000, 0.000000000000000000, 0.000000000000000000 ) ) ;
#106 = ADVANCED_FACE ( 'NONE', ( #79 ), #135, .T. ) ;
#107 = CC_DESIGN_PERSON_AND_ORGANIZATION_ASSIGNMENT ( #265, #112, ( #78 ) ) ;
#108 = DIRECTION ( 'NONE',  ( -0.000000000000000000, -0.000000000000000000, -1.000000000000000000 ) ) ;
#109 = LOCAL_TIME ( 10, 17, 59.00000000000000000, #268 ) ;
#110 = CARTESIAN_POINT ( 'NONE',  ( 0.000000000000000000, 0.000000000000000000, 83.50000000000001421 ) ) ;
#111 = VERTEX_POINT ( 'NONE', #99 ) ;
#112 = PERSON_AND_ORGANIZATION_ROLE ( 'classification_officer' ) ;
#113 = PERSON_AND_ORGANIZATION_ROLE ( 'design_supplier' ) ;
#114 = CIRCLE ( 'NONE', #10, 8.050000000000007816 ) ;
#115 = PERSON_AND_ORGANIZATION_ROLE ( 'design_owner' ) ;
#116 = ORIENTED_EDGE ( 'NONE', *, *, #152, .F. ) ;
#117 = PERSON_AND_ORGANIZATION ( #126, #180 ) ;
#118 = EDGE_CURVE ( 'NONE', #151, #181, #85, .T. ) ;
#119 = ORIENTED_EDGE ( 'NONE', *, *, #150, .T. ) ;
#120 = PERSON_AND_ORGANIZATION ( #126, #180 ) ;
#121 = CIRCLE ( 'NONE', #259, 8.050000000000014921 ) ;
#122 = CARTESIAN_POINT ( 'NONE',  ( 0.000000000000000000, 0.000000000000000000, 0.000000000000000000 ) ) ;
#123 = ORIENTED_EDGE ( 'NONE', *, *, #34, .F. ) ;
#124 = CARTESIAN_POINT ( 'NONE',  ( -9.550000000000000711, 0.000000000000000000, 85.00000000000000000 ) ) ;
#125 = VERTEX_POINT ( 'NONE', #189 ) ;
#126 = PERSON ( 'UNSPECIFIED', 'UNSPECIFIED', 'UNSPECIFIED', ('UNSPECIFIED'), ('UNSPECIFIED'), ('UNSPECIFIED') ) ;
#127 = DIRECTION ( 'NONE',  ( 0.000000000000000000, 0.000000000000000000, -1.000000000000000000 ) ) ;
#128 = CC_DESIGN_PERSON_AND_ORGANIZATION_ASSIGNMENT ( #157, #115, ( #138 ) ) ;
#129 = DIRECTION ( 'NONE',  ( 0.000000000000000000, 0.000000000000000000, -1.000000000000000000 ) ) ;
#130 = AXIS2_PLACEMENT_3D ( 'NONE', #110, #67, #105 ) ;
#131 = CC_DESIGN_APPROVAL ( #143, ( #215 ) ) ;
#132 = CC_DESIGN_PERSON_AND_ORGANIZATION_ASSIGNMENT ( #244, #53, ( #260 ) ) ;
#133 = CYLINDRICAL_SURFACE ( 'NONE', #202, 9.550000000000000711 ) ;
#134 = CARTESIAN_POINT ( 'NONE',  ( 0.000000000000000000, 0.000000000000000000, 85.00000000000000000 ) ) ;
#135 = CONICAL_SURFACE ( 'NONE', #274, 9.550000000000000711, 0.7853981633974500554 ) ;
#136 = CARTESIAN_POINT ( 'NONE',  ( 0.000000000000000000, 0.000000000000000000, 0.000000000000000000 ) ) ;
#137 = CALENDAR_DATE ( 2026, 20, 1 ) ;
#138 = PRODUCT ( '3-4_UNC-AT-85_REV_', '3-4_UNC-AT-85_REV_', '', ( #28 ) ) ;
#139 = APPROVAL_ROLE ( '' ) ;
#140 = VECTOR ( 'NONE', #155, 999.9999999999998863 ) ;
#141 = APPROVAL_STATUS ( 'not_yet_approved' ) ;
#142 = COORDINATED_UNIVERSAL_TIME_OFFSET ( 10, 0, .AHEAD. ) ;
#143 = APPROVAL ( #141, 'UNSPECIFIED' ) ;
#144 = ORIENTED_EDGE ( 'NONE', *, *, #230, .F. ) ;
#145 = DIRECTION ( 'NONE',  ( 0.7071067811865471286, 8.659560562354927928E-17, -0.7071067811865479058 ) ) ;
#146 = ORIENTED_EDGE ( 'NONE', *, *, #118, .T. ) ;
#147 = ORIENTED_EDGE ( 'NONE', *, *, #247, .F. ) ;
#148 = ORIENTED_EDGE ( 'NONE', *, *, #167, .F. ) ;
#149 = CARTESIAN_POINT ( 'NONE',  ( 0.000000000000000000, 0.000000000000000000, 0.000000000000000000 ) ) ;
#150 = EDGE_CURVE ( 'NONE', #186, #181, #165, .T. ) ;
#151 = VERTEX_POINT ( 'NONE', #1 ) ;
#152 = EDGE_CURVE ( 'NONE', #188, #269, #253, .T. ) ;
#153 = AXIS2_PLACEMENT_3D ( 'NONE', #185, #156, #261 ) ;
#154 = LINE ( 'NONE', #264, #209 ) ;
#155 = DIRECTION ( 'NONE',  ( 0.7071067811865489050, 0.000000000000000000, 0.7071067811865462405 ) ) ;
#156 = DIRECTION ( 'NONE',  ( -0.000000000000000000, -0.000000000000000000, 1.000000000000000000 ) ) ;
#157 = PERSON_AND_ORGANIZATION ( #126, #180 ) ;
#158 = PERSON_AND_ORGANIZATION_ROLE ( 'creator' ) ;
#159 = CC_DESIGN_DATE_AND_TIME_ASSIGNMENT ( #242, #200, ( #78 ) ) ;
#160 = CC_DESIGN_PERSON_AND_ORGANIZATION_ASSIGNMENT ( #224, #113, ( #215 ) ) ;
#161 = CALENDAR_DATE ( 2026, 20, 1 ) ;
#162 = ORIENTED_EDGE ( 'NONE', *, *, #118, .F. ) ;
#163 = DATE_AND_TIME ( #35, #203 ) ;
#164 = CIRCLE ( 'NONE', #153, 9.550000000000000711 ) ;
#165 = LINE ( 'NONE', #275, #101 ) ;
#166 = FACE_OUTER_BOUND ( 'NONE', #96, .T. ) ;
#167 = EDGE_CURVE ( 'NONE', #181, #125, #164, .T. ) ;
#168 = EDGE_LOOP ( 'NONE', ( #227, #249, #37, #148 ) ) ;
#169 = APPROVAL_PERSON_ORGANIZATION ( #120, #59, #72 ) ;
#170 = ORIENTED_EDGE ( 'NONE', *, *, #196, .T. ) ;
#171 = FACE_OUTER_BOUND ( 'NONE', #210, .T. ) ;
#172 = CARTESIAN_POINT ( 'NONE',  ( 9.550000000000000711, 0.000000000000000000, 1.499999999999987566 ) ) ;
#173 = EDGE_CURVE ( 'NONE', #225, #125, #238, .T. ) ;
#174 = DIRECTION ( 'NONE',  ( 1.000000000000000000, 0.000000000000000000, 0.000000000000000000 ) ) ;
#175 = AXIS2_PLACEMENT_3D ( 'NONE', #263, #87, #256 ) ;
#176 = COORDINATED_UNIVERSAL_TIME_OFFSET ( 10, 0, .AHEAD. ) ;
#177 = EDGE_CURVE ( 'NONE', #269, #151, #91, .T. ) ;
#178 = CIRCLE ( 'NONE', #218, 9.550000000000000711 ) ;
#179 = APPROVAL_DATE_TIME ( #163, #143 ) ;
#180 = ORGANIZATION ( 'UNSPECIFIED', 'UNSPECIFIED', '' ) ;
#181 = VERTEX_POINT ( 'NONE', #48 ) ;
#182 = APPLICATION_CONTEXT ( 'configuration controlled 3d designs of mechanical parts and assemblies' ) ;
#183 = ORIENTED_EDGE ( 'NONE', *, *, #167, .T. ) ;
#184 = ORIENTED_EDGE ( 'NONE', *, *, #247, .T. ) ;
#185 = CARTESIAN_POINT ( 'NONE',  ( 0.000000000000000000, 0.000000000000000000, 1.499999999999987566 ) ) ;
#186 = VERTEX_POINT ( 'NONE', #6 ) ;
#187 = ADVANCED_FACE ( 'NONE', ( #213 ), #190, .T. ) ;
#188 = VERTEX_POINT ( 'NONE', #69 ) ;
#189 = CARTESIAN_POINT ( 'NONE',  ( 9.550000000000000711, 1.169537693185722558E-15, 1.499999999999987566 ) ) ;
#190 = CONICAL_SURFACE ( 'NONE', #248, 8.050000000000014921, 0.7853981633974477239 ) ;
#191 = CC_DESIGN_DATE_AND_TIME_ASSIGNMENT ( #222, #70, ( #260 ) ) ;
#192 = DIRECTION ( 'NONE',  ( 1.000000000000000000, 0.000000000000000000, 0.000000000000000000 ) ) ;
#193 = CYLINDRICAL_SURFACE ( 'NONE', #226, 9.550000000000000711 ) ;
#194 = AXIS2_PLACEMENT_3D ( 'NONE', #136, #221, #257 ) ;
#195 =( LENGTH_UNIT ( ) NAMED_UNIT ( * ) SI_UNIT ( .MILLI., .METRE. ) );
#196 = EDGE_CURVE ( 'NONE', #225, #186, #66, .T. ) ;
#197 = PERSON_AND_ORGANIZATION ( #126, #180 ) ;
#198 = ADVANCED_FACE ( 'NONE', ( #171 ), #193, .T. ) ;
#199 = APPROVAL_PERSON_ORGANIZATION ( #117, #143, #139 ) ;
#200 = DATE_TIME_ROLE ( 'classification_date' ) ;
#201 = PERSON_AND_ORGANIZATION ( #126, #180 ) ;
#202 = AXIS2_PLACEMENT_3D ( 'NONE', #239, #88, #86 ) ;
#203 = LOCAL_TIME ( 10, 17, 59.00000000000000000, #142 ) ;
#204 = DIRECTION ( 'NONE',  ( 1.000000000000000000, 0.000000000000000000, 0.000000000000000000 ) ) ;
#205 = FACE_OUTER_BOUND ( 'NONE', #68, .T. ) ;
#206 = ORIENTED_EDGE ( 'NONE', *, *, #34, .T. ) ;
#207 = APPROVAL ( #50, 'UNSPECIFIED' ) ;
#208 = DIRECTION ( 'NONE',  ( 1.000000000000000000, 0.000000000000000000, -0.000000000000000000 ) ) ;
#209 = VECTOR ( 'NONE', #108, 1000.000000000000000 ) ;
#210 = EDGE_LOOP ( 'NONE', ( #272, #229, #206, #162 ) ) ;
#211 = DIRECTION ( 'NONE',  ( 0.000000000000000000, 0.000000000000000000, 1.000000000000000000 ) ) ;
#212 = DIRECTION ( 'NONE',  ( 0.000000000000000000, 0.000000000000000000, 1.000000000000000000 ) ) ;
#213 = FACE_OUTER_BOUND ( 'NONE', #75, .T. ) ;
#214 = CIRCLE ( 'NONE', #130, 9.550000000000000711 ) ;
#215 = PRODUCT_DEFINITION_FORMATION_WITH_SPECIFIED_SOURCE ( 'ANY', '', #138, .NOT_KNOWN. ) ;
#216 = FACE_OUTER_BOUND ( 'NONE', #14, .T. ) ;
#217 = DIRECTION ( 'NONE',  ( 0.000000000000000000, 0.000000000000000000, 1.000000000000000000 ) ) ;
#218 = AXIS2_PLACEMENT_3D ( 'NONE', #97, #15, #42 ) ;
#219 = CARTESIAN_POINT ( 'NONE',  ( 8.050000000000007816, 0.000000000000000000, 0.000000000000000000 ) ) ;
#220 = ORIENTED_EDGE ( 'NONE', *, *, #258, .F. ) ;
#221 = DIRECTION ( 'NONE',  ( 0.000000000000000000, 0.000000000000000000, 1.000000000000000000 ) ) ;
#222 = DATE_AND_TIME ( #137, #109 ) ;
#223 = ADVANCED_FACE ( 'NONE', ( #216 ), #133, .T. ) ;
#224 = PERSON_AND_ORGANIZATION ( #126, #180 ) ;
#225 = VERTEX_POINT ( 'NONE', #219 ) ;
#226 = AXIS2_PLACEMENT_3D ( 'NONE', #4, #30, #44 ) ;
#227 = ORIENTED_EDGE ( 'NONE', *, *, #150, .F. ) ;
#228 = CALENDAR_DATE ( 2026, 20, 1 ) ;
#229 = ORIENTED_EDGE ( 'NONE', *, *, #266, .T. ) ;
#230 = EDGE_CURVE ( 'NONE', #151, #269, #214, .T. ) ;
#231 = CC_DESIGN_APPROVAL ( #207, ( #260 ) ) ;
#232 = ORIENTED_EDGE ( 'NONE', *, *, #266, .F. ) ;
#233 = CARTESIAN_POINT ( 'NONE',  ( 0.000000000000000000, 0.000000000000000000, 1.499999999999987566 ) ) ;
#234 = FACE_OUTER_BOUND ( 'NONE', #62, .T. ) ;
#235 = DIRECTION ( 'NONE',  ( 1.000000000000000000, 0.000000000000000000, -0.000000000000000000 ) ) ;
#236 = LOCAL_TIME ( 10, 17, 59.00000000000000000, #176 ) ;
#237 = DIRECTION ( 'NONE',  ( -1.000000000000000000, 0.000000000000000000, 0.000000000000000000 ) ) ;
#238 = LINE ( 'NONE', #172, #140 ) ;
#239 = CARTESIAN_POINT ( 'NONE',  ( 0.000000000000000000, 0.000000000000000000, 85.00000000000000000 ) ) ;
#240 =( GEOMETRIC_REPRESENTATION_CONTEXT ( 3 ) GLOBAL_UNCERTAINTY_ASSIGNED_CONTEXT ( ( #27 ) ) GLOBAL_UNIT_ASSIGNED_CONTEXT ( ( #195, #64, #3 ) ) REPRESENTATION_CONTEXT ( 'NONE', 'WORKASPACE' ) );
#241 = ORIENTED_EDGE ( 'NONE', *, *, #152, .T. ) ;
#242 = DATE_AND_TIME ( #270, #33 ) ;
#243 = APPROVAL_STATUS ( 'not_yet_approved' ) ;
#244 = PERSON_AND_ORGANIZATION ( #126, #180 ) ;
#245 = DATE_AND_TIME ( #228, #2 ) ;
#246 = ORIENTED_EDGE ( 'NONE', *, *, #47, .F. ) ;
#247 = EDGE_CURVE ( 'NONE', #188, #111, #121, .T. ) ;
#248 = AXIS2_PLACEMENT_3D ( 'NONE', #134, #7, #237 ) ;
#249 = ORIENTED_EDGE ( 'NONE', *, *, #196, .F. ) ;
#250 = DIRECTION ( 'NONE',  ( 1.000000000000000000, 0.000000000000000000, 0.000000000000000000 ) ) ;
#251 = ORIENTED_EDGE ( 'NONE', *, *, #47, .T. ) ;
#252 = PLANE ( 'NONE',  #13 ) ;
#253 = LINE ( 'NONE', #76, #24 ) ;
#254 = DESIGN_CONTEXT ( 'detailed design', #255, 'design' ) ;
#255 = APPLICATION_CONTEXT ( 'configuration controlled 3d designs of mechanical parts and assemblies' ) ;
#256 = DIRECTION ( 'NONE',  ( 1.000000000000000000, 0.000000000000000000, 0.000000000000000000 ) ) ;
#257 = DIRECTION ( 'NONE',  ( 1.000000000000000000, 0.000000000000000000, 0.000000000000000000 ) ) ;
#258 = EDGE_CURVE ( 'NONE', #111, #151, #26, .T. ) ;
#259 = AXIS2_PLACEMENT_3D ( 'NONE', #89, #217, #174 ) ;
#260 = PRODUCT_DEFINITION ( 'UNKNOWN', '', #215, #254 ) ;
#261 = DIRECTION ( 'NONE',  ( 1.000000000000000000, 0.000000000000000000, 0.000000000000000000 ) ) ;
#262 = MANIFOLD_SOLID_BREP ( 'Chamfer1', #103 ) ;
#263 = CARTESIAN_POINT ( 'NONE',  ( 0.000000000000000000, 0.000000000000000000, 0.000000000000000000 ) ) ;
#264 = CARTESIAN_POINT ( 'NONE',  ( 9.550000000000000711, 1.169537693185722558E-15, 85.00000000000000000 ) ) ;
#265 = PERSON_AND_ORGANIZATION ( #126, #180 ) ;
#266 = EDGE_CURVE ( 'NONE', #269, #125, #154, .T. ) ;
#267 = CONICAL_SURFACE ( 'NONE', #95, 9.550000000000000711, 0.7853981633974500554 ) ;
#268 = COORDINATED_UNIVERSAL_TIME_OFFSET ( 10, 0, .AHEAD. ) ;
#269 = VERTEX_POINT ( 'NONE', #43 ) ;
#270 = CALENDAR_DATE ( 2026, 20, 1 ) ;
#271 = ADVANCED_BREP_SHAPE_REPRESENTATION ( '3-4_UNC-AT-85_REV_', ( #262, #194 ), #240 ) ;
#272 = ORIENTED_EDGE ( 'NONE', *, *, #230, .T. ) ;
#273 = DIRECTION ( 'NONE',  ( -0.000000000000000000, -0.000000000000000000, -1.000000000000000000 ) ) ;
#274 = AXIS2_PLACEMENT_3D ( 'NONE', #55, #22, #104 ) ;
#275 = CARTESIAN_POINT ( 'NONE',  ( -9.550000000000000711, 1.169537693185722361E-15, 1.499999999999987566 ) ) ;
ENDSEC;
END-ISO-10303-21;
