ISO-10303-21;
HEADER;
FILE_DESCRIPTION (( 'STEP AP203' ),
    '1' );
FILE_NAME ('3435-50-011-02_REV_.step',
    '2025-11-20T01:07:20',
    ( '' ),
    ( '' ),
    'SwSTEP 2.0',
    'SolidWorks 2025',
    '' );
FILE_SCHEMA (( 'CONFIG_CONTROL_DESIGN' ));
ENDSEC;

DATA;
#1 = CARTESIAN_POINT ( 'NONE',  ( 91.77222981616702668, 131.0643270862389045, 0.000000000000000000 ) ) ;
#2 = COORDINATED_UNIVERSAL_TIME_OFFSET ( 10, 0, .AHEAD. ) ;
#3 = CARTESIAN_POINT ( 'NONE',  ( 24.69743413531315213, -17.29332955598400545, 0.000000000000000000 ) ) ;
#4 = ORIENTED_EDGE ( 'NONE', *, *, #49, .T. ) ;
#5 = EDGE_LOOP ( 'NONE', ( #226, #90 ) ) ;
#6 = CIRCLE ( 'NONE', #143, 30.15000000000001634 ) ;
#7 = LOCAL_TIME ( 12, 7, 19.00000000000000000, #178 ) ;
#8 = VERTEX_POINT ( 'NONE', #181 ) ;
#9 = ADVANCED_FACE ( 'NONE', ( #305, #373 ), #399, .F. ) ;
#10 = ADVANCED_FACE ( 'NONE', ( #337, #114 ), #244, .T. ) ;
#11 = ORIENTED_EDGE ( 'NONE', *, *, #209, .T. ) ;
#12 = PERSON ( 'UNSPECIFIED', 'UNSPECIFIED', 'UNSPECIFIED', ('UNSPECIFIED'), ('UNSPECIFIED'), ('UNSPECIFIED') ) ;
#13 = FACE_OUTER_BOUND ( 'NONE', #24, .T. ) ;
#14 = EDGE_CURVE ( 'NONE', #72, #388, #57, .T. ) ;
#15 = CARTESIAN_POINT ( 'NONE',  ( 154.1916155909882491, 163.5578026362893809, 26.24999999999999289 ) ) ;
#16 = CC_DESIGN_PERSON_AND_ORGANIZATION_ASSIGNMENT ( #183, #310, ( #36 ) ) ;
#17 = DIRECTION ( 'NONE',  ( -1.000000000000000000, -0.000000000000000000, -0.000000000000000000 ) ) ;
#18 = ADVANCED_FACE ( 'NONE', ( #207 ), #26, .T. ) ;
#19 = CARTESIAN_POINT ( 'NONE',  ( 91.77222981616702668, 131.0643270862389045, 0.000000000000000000 ) ) ;
#20 = CARTESIAN_POINT ( 'NONE',  ( 0.000000000000000000, 0.000000000000000000, 0.000000000000000000 ) ) ;
#21 = AXIS2_PLACEMENT_3D ( 'NONE', #267, #139, #206 ) ;
#22 = LOCAL_TIME ( 12, 7, 19.00000000000000000, #409 ) ;
#23 = ORIENTED_EDGE ( 'NONE', *, *, #148, .F. ) ;
#24 = EDGE_LOOP ( 'NONE', ( #229, #31, #4, #99 ) ) ;
#25 = ADVANCED_FACE ( 'NONE', ( #276 ), #56, .T. ) ;
#26 = CYLINDRICAL_SURFACE ( 'NONE', #295, 30.15000000000001634 ) ;
#27 = ORIENTED_EDGE ( 'NONE', *, *, #260, .F. ) ;
#28 = CALENDAR_DATE ( 2025, 20, 11 ) ;
#29 = VECTOR ( 'NONE', #343, 1000.000000000000000 ) ;
#30 = DIRECTION ( 'NONE',  ( -0.5735764363510439390, -0.8191520442889933529, -0.000000000000000000 ) ) ;
#31 = ORIENTED_EDGE ( 'NONE', *, *, #397, .F. ) ;
#32 = CARTESIAN_POINT ( 'NONE',  ( 704.1916155909883628, 163.5578026362893809, 0.000000000000000000 ) ) ;
#33 = EDGE_CURVE ( 'NONE', #115, #110, #213, .T. ) ;
#34 = LINE ( 'NONE', #379, #232 ) ;
#35 = CIRCLE ( 'NONE', #42, 26.24999999999999289 ) ;
#36 = SECURITY_CLASSIFICATION ( '', '', #215 ) ;
#37 = CARTESIAN_POINT ( 'NONE',  ( 70.26948865358095020, 146.1207085404538191, 3.214697847761801189E-15 ) ) ;
#38 =( LENGTH_UNIT ( ) NAMED_UNIT ( * ) SI_UNIT ( .MILLI., .METRE. ) );
#39 = EDGE_LOOP ( 'NONE', ( #406, #168, #258, #317 ) ) ;
#40 = DATE_AND_TIME ( #225, #113 ) ;
#41 = ORIENTED_EDGE ( 'NONE', *, *, #155, .T. ) ;
#42 = AXIS2_PLACEMENT_3D ( 'NONE', #32, #221, #160 ) ;
#43 = APPROVAL_PERSON_ORGANIZATION ( #120, #140, #367 ) ;
#44 = ORIENTED_EDGE ( 'NONE', *, *, #186, .T. ) ;
#45 = VERTEX_POINT ( 'NONE', #59 ) ;
#46 = DIRECTION ( 'NONE',  ( -0.5735764363510439390, -0.8191520442889933529, -0.000000000000000000 ) ) ;
#47 = CIRCLE ( 'NONE', #246, 26.24999999999999289 ) ;
#48 =( NAMED_UNIT ( * ) PLANE_ANGLE_UNIT ( ) SI_UNIT ( $, .RADIAN. ) );
#49 = EDGE_CURVE ( 'NONE', #8, #147, #395, .T. ) ;
#50 = DIRECTION ( 'NONE',  ( 1.000000000000000000, 0.000000000000000000, 0.000000000000000000 ) ) ;
#51 = ORIENTED_EDGE ( 'NONE', *, *, #49, .F. ) ;
#52 = ORIENTED_EDGE ( 'NONE', *, *, #84, .F. ) ;
#53 = CARTESIAN_POINT ( 'NONE',  ( 704.1916155909883628, 163.5578026362893809, 0.000000000000000000 ) ) ;
#54 = DIRECTION ( 'NONE',  ( 0.5735764363510439390, 0.8191520442889934639, 0.000000000000000000 ) ) ;
#55 = AXIS2_PLACEMENT_3D ( 'NONE', #357, #271, #134 ) ;
#56 = CYLINDRICAL_SURFACE ( 'NONE', #184, 30.15000000000001634 ) ;
#57 = LINE ( 'NONE', #307, #238 ) ;
#58 = ORIENTED_EDGE ( 'NONE', *, *, #14, .F. ) ;
#59 = CARTESIAN_POINT ( 'NONE',  ( 154.1916155909882491, 163.5578026362893809, -30.15000000000001634 ) ) ;
#60 = PERSON_AND_ORGANIZATION ( #12, #296 ) ;
#61 = AXIS2_PLACEMENT_3D ( 'NONE', #347, #197, #254 ) ;
#62 = DIRECTION ( 'NONE',  ( -1.000000000000000000, -0.000000000000000000, -0.000000000000000000 ) ) ;
#63 = CC_DESIGN_SECURITY_CLASSIFICATION ( #36, ( #324 ) ) ;
#64 = FACE_BOUND ( 'NONE', #165, .T. ) ;
#65 = ADVANCED_FACE ( 'NONE', ( #266 ), #102, .F. ) ;
#66 = CARTESIAN_POINT ( 'NONE',  ( 154.1916155909882491, 163.5578026362893809, 0.000000000000000000 ) ) ;
#67 = DIRECTION ( 'NONE',  ( 0.5735764363510439390, 0.8191520442889934639, 0.000000000000000000 ) ) ;
#68 = AXIS2_PLACEMENT_3D ( 'NONE', #313, #162, #314 ) ;
#69 = ORIENTED_EDGE ( 'NONE', *, *, #173, .T. ) ;
#70 = ORIENTED_EDGE ( 'NONE', *, *, #105, .F. ) ;
#71 = AXIS2_PLACEMENT_3D ( 'NONE', #1, #224, #342 ) ;
#72 = VERTEX_POINT ( 'NONE', #142 ) ;
#73 = CC_DESIGN_PERSON_AND_ORGANIZATION_ASSIGNMENT ( #243, #249, ( #199 ) ) ;
#74 = CARTESIAN_POINT ( 'NONE',  ( 154.1916155909882491, 163.5578026362893809, 0.000000000000000000 ) ) ;
#75 = ORIENTED_EDGE ( 'NONE', *, *, #133, .F. ) ;
#76 = DIRECTION ( 'NONE',  ( 0.000000000000000000, 0.000000000000000000, -1.000000000000000000 ) ) ;
#77 = DIRECTION ( 'NONE',  ( 0.000000000000000000, 0.000000000000000000, -1.000000000000000000 ) ) ;
#78 = CARTESIAN_POINT ( 'NONE',  ( 91.77222981616702668, 131.0643270862389045, 0.000000000000000000 ) ) ;
#79 = EDGE_CURVE ( 'NONE', #289, #318, #47, .T. ) ;
#80 = CARTESIAN_POINT ( 'NONE',  ( 704.1916155909883628, 163.5578026362893809, 0.000000000000000000 ) ) ;
#81 = DIRECTION ( 'NONE',  ( 0.000000000000000000, 0.000000000000000000, 1.000000000000000000 ) ) ;
#82 = AXIS2_PLACEMENT_3D ( 'NONE', #329, #300, #203 ) ;
#83 = AXIS2_PLACEMENT_3D ( 'NONE', #154, #81, #306 ) ;
#84 = EDGE_CURVE ( 'NONE', #349, #163, #368, .T. ) ;
#85 = DIRECTION ( 'NONE',  ( 0.000000000000000000, 0.000000000000000000, 1.000000000000000000 ) ) ;
#86 = APPROVAL_DATE_TIME ( #372, #140 ) ;
#87 = CC_DESIGN_PERSON_AND_ORGANIZATION_ASSIGNMENT ( #187, #400, ( #321 ) ) ;
#88 = MANIFOLD_SOLID_BREP ( 'Stainless chs 60.3 X 3.9 CHS(1)[2]', #411 ) ;
#89 = CYLINDRICAL_SURFACE ( 'NONE', #340, 26.24999999999999289 ) ;
#90 = ORIENTED_EDGE ( 'NONE', *, *, #356, .T. ) ;
#91 = DIRECTION ( 'NONE',  ( 0.5735764363510439390, 0.8191520442889934639, 0.000000000000000000 ) ) ;
#92 = DIRECTION ( 'NONE',  ( 0.000000000000000000, 0.000000000000000000, -1.000000000000000000 ) ) ;
#93 = CARTESIAN_POINT ( 'NONE',  ( 91.77222981616702668, 131.0643270862389045, 0.000000000000000000 ) ) ;
#94 = APPROVAL_DATE_TIME ( #256, #336 ) ;
#95 = DIRECTION ( 'NONE',  ( 0.000000000000000000, 0.000000000000000000, -1.000000000000000000 ) ) ;
#96 = VECTOR ( 'NONE', #30, 1000.000000000000114 ) ;
#97 = LOCAL_TIME ( 12, 7, 19.00000000000000000, #335 ) ;
#98 = ORIENTED_EDGE ( 'NONE', *, *, #366, .F. ) ;
#99 = ORIENTED_EDGE ( 'NONE', *, *, #341, .T. ) ;
#100 = ORIENTED_EDGE ( 'NONE', *, *, #362, .T. ) ;
#101 = DIRECTION ( 'NONE',  ( 0.8191520442889934639, -0.5735764363510437169, 0.000000000000000000 ) ) ;
#102 = CYLINDRICAL_SURFACE ( 'NONE', #353, 26.24999999999999289 ) ;
#103 = AXIS2_PLACEMENT_3D ( 'NONE', #125, #91, #123 ) ;
#104 = CARTESIAN_POINT ( 'NONE',  ( 704.1916155909883628, 163.5578026362893809, -30.15000000000001634 ) ) ;
#105 = EDGE_CURVE ( 'NONE', #349, #45, #405, .T. ) ;
#106 = ORIENTED_EDGE ( 'NONE', *, *, #33, .T. ) ;
#107 = DIRECTION ( 'NONE',  ( 1.000000000000000000, 0.000000000000000000, 0.000000000000000000 ) ) ;
#108 = ADVANCED_FACE ( 'NONE', ( #376 ), #89, .F. ) ;
#109 = DIRECTION ( 'NONE',  ( -1.000000000000000000, -0.000000000000000000, -0.000000000000000000 ) ) ;
#110 = VERTEX_POINT ( 'NONE', #158 ) ;
#111 = DATE_TIME_ROLE ( 'creation_date' ) ;
#112 = VECTOR ( 'NONE', #365, 1000.000000000000114 ) ;
#113 = LOCAL_TIME ( 12, 7, 19.00000000000000000, #128 ) ;
#114 = FACE_OUTER_BOUND ( 'NONE', #153, .T. ) ;
#115 = VERTEX_POINT ( 'NONE', #216 ) ;
#116 = EDGE_CURVE ( 'NONE', #293, #45, #6, .T. ) ;
#117 = DATE_AND_TIME ( #312, #7 ) ;
#118 = DIRECTION ( 'NONE',  ( 0.000000000000000000, 0.000000000000000000, -1.000000000000000000 ) ) ;
#119 = ORIENTED_EDGE ( 'NONE', *, *, #341, .F. ) ;
#120 = PERSON_AND_ORGANIZATION ( #12, #296 ) ;
#121 = CARTESIAN_POINT ( 'NONE',  ( 704.1916155909883628, 163.5578026362893809, -30.15000000000001634 ) ) ;
#122 = AXIS2_PLACEMENT_3D ( 'NONE', #272, #402, #240 ) ;
#123 = DIRECTION ( 'NONE',  ( 0.000000000000000000, 0.000000000000000000, -1.000000000000000000 ) ) ;
#124 = CC_DESIGN_APPROVAL ( #336, ( #36 ) ) ;
#125 = CARTESIAN_POINT ( 'NONE',  ( 91.77222981616702668, 131.0643270862389045, 0.000000000000000000 ) ) ;
#126 = CALENDAR_DATE ( 2025, 20, 11 ) ;
#127 = DIRECTION ( 'NONE',  ( -0.5735764363510439390, -0.8191520442889933529, -0.000000000000000000 ) ) ;
#128 = COORDINATED_UNIVERSAL_TIME_OFFSET ( 10, 0, .AHEAD. ) ;
#129 = ADVANCED_FACE ( 'NONE', ( #339 ), #284, .F. ) ;
#130 = AXIS2_PLACEMENT_3D ( 'NONE', #299, #169, #101 ) ;
#131 = ORIENTED_EDGE ( 'NONE', *, *, #209, .F. ) ;
#132 = ORIENTED_EDGE ( 'NONE', *, *, #155, .F. ) ;
#133 = EDGE_CURVE ( 'NONE', #189, #210, #257, .T. ) ;
#134 = DIRECTION ( 'NONE',  ( 0.000000000000000000, 0.000000000000000000, -1.000000000000000000 ) ) ;
#135 = CIRCLE ( 'NONE', #193, 30.15000000000001634 ) ;
#136 = VECTOR ( 'NONE', #17, 1000.000000000000000 ) ;
#137 = APPROVAL_PERSON_ORGANIZATION ( #60, #191, #157 ) ;
#138 = CARTESIAN_POINT ( 'NONE',  ( 91.77222981616702668, 131.0643270862389045, 0.000000000000000000 ) ) ;
#139 = DIRECTION ( 'NONE',  ( -1.000000000000000000, -0.000000000000000000, -0.000000000000000000 ) ) ;
#140 = APPROVAL ( #252, 'UNSPECIFIED' ) ;
#141 = FACE_OUTER_BOUND ( 'NONE', #262, .T. ) ;
#142 = CARTESIAN_POINT ( 'NONE',  ( 704.1916155909883628, 163.5578026362893809, 26.24999999999999289 ) ) ;
#143 = AXIS2_PLACEMENT_3D ( 'NONE', #286, #250, #92 ) ;
#144 = DIRECTION ( 'NONE',  ( 0.5735764363510439390, 0.8191520442889934639, 0.000000000000000000 ) ) ;
#145 = LOCAL_TIME ( 12, 7, 19.00000000000000000, #2 ) ;
#146 = DIRECTION ( 'NONE',  ( 0.000000000000000000, 0.000000000000000000, -1.000000000000000000 ) ) ;
#147 = VERTEX_POINT ( 'NONE', #3 ) ;
#148 = EDGE_CURVE ( 'NONE', #170, #388, #345, .T. ) ;
#149 = DIRECTION ( 'NONE',  ( 0.8191520442889934639, -0.5735764363510437169, 0.000000000000000000 ) ) ;
#150 = CALENDAR_DATE ( 2025, 20, 11 ) ;
#151 = CIRCLE ( 'NONE', #385, 26.24999999999999289 ) ;
#152 = FACE_OUTER_BOUND ( 'NONE', #325, .T. ) ;
#153 = EDGE_LOOP ( 'NONE', ( #354, #352 ) ) ;
#154 = CARTESIAN_POINT ( 'NONE',  ( 0.000000000000000000, 0.000000000000000000, 0.000000000000000000 ) ) ;
#155 = EDGE_CURVE ( 'NONE', #214, #170, #34, .T. ) ;
#156 = DIRECTION ( 'NONE',  ( 0.5735764363510439390, 0.8191520442889934639, 0.000000000000000000 ) ) ;
#157 = APPROVAL_ROLE ( '' ) ;
#158 = CARTESIAN_POINT ( 'NONE',  ( -24.69743413531316634, 17.29332955598397703, 3.692310099429272763E-15 ) ) ;
#159 = AXIS2_PLACEMENT_3D ( 'NONE', #361, #50, #76 ) ;
#160 = DIRECTION ( 'NONE',  ( 0.000000000000000000, 0.000000000000000000, -1.000000000000000000 ) ) ;
#161 = PERSON_AND_ORGANIZATION ( #12, #296 ) ;
#162 = DIRECTION ( 'NONE',  ( 0.5735764363510439390, 0.8191520442889933529, 0.000000000000000000 ) ) ;
#163 = VERTEX_POINT ( 'NONE', #185 ) ;
#164 = EDGE_CURVE ( 'NONE', #318, #289, #401, .T. ) ;
#165 = EDGE_LOOP ( 'NONE', ( #231, #287 ) ) ;
#166 = CIRCLE ( 'NONE', #172, 26.24999999999999289 ) ;
#167 = APPROVAL_STATUS ( 'not_yet_approved' ) ;
#168 = ORIENTED_EDGE ( 'NONE', *, *, #79, .T. ) ;
#169 = DIRECTION ( 'NONE',  ( -0.5735764363510439390, -0.8191520442889934639, -0.000000000000000000 ) ) ;
#170 = VERTEX_POINT ( 'NONE', #255 ) ;
#171 = CARTESIAN_POINT ( 'NONE',  ( 154.1916155909882491, 163.5578026362893809, 30.15000000000001634 ) ) ;
#172 = AXIS2_PLACEMENT_3D ( 'NONE', #66, #190, #220 ) ;
#173 = EDGE_CURVE ( 'NONE', #115, #8, #322, .T. ) ;
#174 = FACE_OUTER_BOUND ( 'NONE', #348, .T. ) ;
#175 = PRODUCT_RELATED_PRODUCT_CATEGORY ( 'detail', '', ( #321 ) ) ;
#176 = CARTESIAN_POINT ( 'NONE',  ( 113.2749709787530890, 116.0079456320240183, 0.000000000000000000 ) ) ;
#177 = DIRECTION ( 'NONE',  ( 0.000000000000000000, 0.000000000000000000, -1.000000000000000000 ) ) ;
#178 = COORDINATED_UNIVERSAL_TIME_OFFSET ( 10, 0, .AHEAD. ) ;
#179 =( GEOMETRIC_REPRESENTATION_CONTEXT ( 3 ) GLOBAL_UNCERTAINTY_ASSIGNED_CONTEXT ( ( #236 ) ) GLOBAL_UNIT_ASSIGNED_CONTEXT ( ( #38, #48, #297 ) ) REPRESENTATION_CONTEXT ( 'NONE', 'WORKASPACE' ) );
#180 = PERSON_AND_ORGANIZATION ( #12, #296 ) ;
#181 = CARTESIAN_POINT ( 'NONE',  ( 116.4696639514801859, 113.7709975302549310, 0.000000000000000000 ) ) ;
#182 = ORIENTED_EDGE ( 'NONE', *, *, #148, .T. ) ;
#183 = PERSON_AND_ORGANIZATION ( #12, #296 ) ;
#184 = AXIS2_PLACEMENT_3D ( 'NONE', #268, #242, #85 ) ;
#185 = CARTESIAN_POINT ( 'NONE',  ( 704.1916155909883628, 163.5578026362893809, 30.15000000000001634 ) ) ;
#186 = EDGE_CURVE ( 'NONE', #388, #170, #166, .T. ) ;
#187 = PERSON_AND_ORGANIZATION ( #12, #296 ) ;
#188 = PLANE ( 'NONE',  #68 ) ;
#189 = VERTEX_POINT ( 'NONE', #381 ) ;
#190 = DIRECTION ( 'NONE',  ( 1.000000000000000000, 0.000000000000000000, 0.000000000000000000 ) ) ;
#191 = APPROVAL ( #273, 'UNSPECIFIED' ) ;
#192 = DATE_TIME_ROLE ( 'classification_date' ) ;
#193 = AXIS2_PLACEMENT_3D ( 'NONE', #20, #144, #235 ) ;
#194 = CARTESIAN_POINT ( 'NONE',  ( 704.1916155909883628, 163.5578026362893809, -26.24999999999999289 ) ) ;
#195 = APPROVAL_PERSON_ORGANIZATION ( #161, #336, #290 ) ;
#196 = CC_DESIGN_DATE_AND_TIME_ASSIGNMENT ( #40, #192, ( #36 ) ) ;
#197 = DIRECTION ( 'NONE',  ( 1.000000000000000000, 0.000000000000000000, 0.000000000000000000 ) ) ;
#198 = EDGE_LOOP ( 'NONE', ( #119, #202 ) ) ;
#199 = PRODUCT_DEFINITION ( 'UNKNOWN', '', #324, #408 ) ;
#200 = EDGE_LOOP ( 'NONE', ( #131, #387 ) ) ;
#201 = CIRCLE ( 'NONE', #159, 30.15000000000001634 ) ;
#202 = ORIENTED_EDGE ( 'NONE', *, *, #375, .F. ) ;
#203 = DIRECTION ( 'NONE',  ( 0.000000000000000000, 0.000000000000000000, -1.000000000000000000 ) ) ;
#204 = ADVANCED_FACE ( 'NONE', ( #64, #222 ), #188, .T. ) ;
#205 = CIRCLE ( 'NONE', #55, 30.15000000000001634 ) ;
#206 = DIRECTION ( 'NONE',  ( 0.000000000000000000, 0.000000000000000000, 1.000000000000000000 ) ) ;
#207 = FACE_OUTER_BOUND ( 'NONE', #369, .T. ) ;
#208 = CYLINDRICAL_SURFACE ( 'NONE', #211, 30.15000000000001634 ) ;
#209 = EDGE_CURVE ( 'NONE', #72, #214, #35, .T. ) ;
#210 = VERTEX_POINT ( 'NONE', #285 ) ;
#211 = AXIS2_PLACEMENT_3D ( 'NONE', #138, #327, #393 ) ;
#212 = DIRECTION ( 'NONE',  ( 1.000000000000000000, 0.000000000000000000, 0.000000000000000000 ) ) ;
#213 = LINE ( 'NONE', #392, #112 ) ;
#214 = VERTEX_POINT ( 'NONE', #194 ) ;
#215 = SECURITY_CLASSIFICATION_LEVEL ( 'unclassified' ) ;
#216 = CARTESIAN_POINT ( 'NONE',  ( 67.07479568085385324, 148.3576566422228780, 3.692310099429272763E-15 ) ) ;
#217 = EDGE_LOOP ( 'NONE', ( #132, #274, #251, #23 ) ) ;
#218 = MECHANICAL_CONTEXT ( 'NONE', #245, 'mechanical' ) ;
#219 = AXIS2_PLACEMENT_3D ( 'NONE', #93, #156, #410 ) ;
#220 = DIRECTION ( 'NONE',  ( 0.000000000000000000, 0.000000000000000000, -1.000000000000000000 ) ) ;
#221 = DIRECTION ( 'NONE',  ( 1.000000000000000000, 0.000000000000000000, 0.000000000000000000 ) ) ;
#222 = FACE_OUTER_BOUND ( 'NONE', #248, .T. ) ;
#223 = SHAPE_DEFINITION_REPRESENTATION ( #261, #320 ) ;
#224 = DIRECTION ( 'NONE',  ( -0.5735764363510439390, -0.8191520442889934639, -0.000000000000000000 ) ) ;
#225 = CALENDAR_DATE ( 2025, 20, 11 ) ;
#226 = ORIENTED_EDGE ( 'NONE', *, *, #133, .T. ) ;
#227 = EDGE_CURVE ( 'NONE', #289, #210, #315, .T. ) ;
#228 = MANIFOLD_SOLID_BREP ( 'Stainless chs 60.3 X 3.9 CHS(1)[1]', #253 ) ;
#229 = ORIENTED_EDGE ( 'NONE', *, *, #33, .F. ) ;
#230 = ADVANCED_FACE ( 'NONE', ( #316, #152 ), #280, .F. ) ;
#231 = ORIENTED_EDGE ( 'NONE', *, *, #164, .F. ) ;
#232 = VECTOR ( 'NONE', #62, 1000.000000000000000 ) ;
#233 = DIRECTION ( 'NONE',  ( 1.000000000000000000, 0.000000000000000000, 0.000000000000000000 ) ) ;
#234 = CC_DESIGN_PERSON_AND_ORGANIZATION_ASSIGNMENT ( #404, #374, ( #324 ) ) ;
#235 = DIRECTION ( 'NONE',  ( 0.000000000000000000, 0.000000000000000000, -1.000000000000000000 ) ) ;
#236 = UNCERTAINTY_MEASURE_WITH_UNIT (LENGTH_MEASURE( 1.000000000000000082E-05 ), #38, 'distance_accuracy_value', 'NONE');
#237 = CARTESIAN_POINT ( 'NONE',  ( 704.1916155909883628, 163.5578026362893809, 0.000000000000000000 ) ) ;
#238 = VECTOR ( 'NONE', #109, 1000.000000000000000 ) ;
#239 = LINE ( 'NONE', #176, #370 ) ;
#240 = DIRECTION ( 'NONE',  ( 0.000000000000000000, 0.000000000000000000, -1.000000000000000000 ) ) ;
#241 = DIRECTION ( 'NONE',  ( 0.000000000000000000, 0.000000000000000000, -1.000000000000000000 ) ) ;
#242 = DIRECTION ( 'NONE',  ( -1.000000000000000000, -0.000000000000000000, -0.000000000000000000 ) ) ;
#243 = PERSON_AND_ORGANIZATION ( #12, #296 ) ;
#244 = PLANE ( 'NONE',  #328 ) ;
#245 = APPLICATION_CONTEXT ( 'configuration controlled 3d designs of mechanical parts and assemblies' ) ;
#246 = AXIS2_PLACEMENT_3D ( 'NONE', #78, #54, #177 ) ;
#247 = DIRECTION ( 'NONE',  ( -0.5735764363510439390, -0.8191520442889934639, -0.000000000000000000 ) ) ;
#248 = EDGE_LOOP ( 'NONE', ( #377, #69 ) ) ;
#249 = PERSON_AND_ORGANIZATION_ROLE ( 'creator' ) ;
#250 = DIRECTION ( 'NONE',  ( 1.000000000000000000, 0.000000000000000000, 0.000000000000000000 ) ) ;
#251 = ORIENTED_EDGE ( 'NONE', *, *, #14, .T. ) ;
#252 = APPROVAL_STATUS ( 'not_yet_approved' ) ;
#253 = CLOSED_SHELL ( 'NONE', ( #25, #65, #108, #298, #10, #230 ) ) ;
#254 = DIRECTION ( 'NONE',  ( 0.000000000000000000, 0.000000000000000000, -1.000000000000000000 ) ) ;
#255 = CARTESIAN_POINT ( 'NONE',  ( 154.1916155909882491, 163.5578026362893809, -26.24999999999999289 ) ) ;
#256 = DATE_AND_TIME ( #126, #145 ) ;
#257 = CIRCLE ( 'NONE', #303, 26.24999999999999289 ) ;
#258 = ORIENTED_EDGE ( 'NONE', *, *, #366, .T. ) ;
#259 = ORIENTED_EDGE ( 'NONE', *, *, #164, .T. ) ;
#260 = EDGE_CURVE ( 'NONE', #163, #349, #201, .T. ) ;
#261 = PRODUCT_DEFINITION_SHAPE ( 'NONE', 'NONE',  #199 ) ;
#262 = EDGE_LOOP ( 'NONE', ( #70, #27, #100, #378 ) ) ;
#263 = DIRECTION ( 'NONE',  ( 0.000000000000000000, 0.000000000000000000, -1.000000000000000000 ) ) ;
#264 = CIRCLE ( 'NONE', #82, 26.24999999999999289 ) ;
#265 = CARTESIAN_POINT ( 'NONE',  ( 91.77222981616702668, 131.0643270862389045, 0.000000000000000000 ) ) ;
#266 = FACE_OUTER_BOUND ( 'NONE', #333, .T. ) ;
#267 = CARTESIAN_POINT ( 'NONE',  ( 704.1916155909883628, 163.5578026362893809, 0.000000000000000000 ) ) ;
#268 = CARTESIAN_POINT ( 'NONE',  ( 704.1916155909883628, 163.5578026362893809, 0.000000000000000000 ) ) ;
#269 = AXIS2_PLACEMENT_3D ( 'NONE', #74, #233, #263 ) ;
#270 = CIRCLE ( 'NONE', #277, 30.15000000000001634 ) ;
#271 = DIRECTION ( 'NONE',  ( 0.5735764363510439390, 0.8191520442889934639, 0.000000000000000000 ) ) ;
#272 = CARTESIAN_POINT ( 'NONE',  ( 0.000000000000000000, 0.000000000000000000, 0.000000000000000000 ) ) ;
#273 = APPROVAL_STATUS ( 'not_yet_approved' ) ;
#274 = ORIENTED_EDGE ( 'NONE', *, *, #278, .T. ) ;
#275 = APPLICATION_PROTOCOL_DEFINITION ( 'international standard', 'config_control_design', 1994, #245 ) ;
#276 = FACE_OUTER_BOUND ( 'NONE', #302, .T. ) ;
#277 = AXIS2_PLACEMENT_3D ( 'NONE', #265, #364, #391 ) ;
#278 = EDGE_CURVE ( 'NONE', #214, #72, #151, .T. ) ;
#279 = PERSON_AND_ORGANIZATION_ROLE ( 'creator' ) ;
#280 = PLANE ( 'NONE',  #269 ) ;
#281 = ORIENTED_EDGE ( 'NONE', *, *, #383, .T. ) ;
#282 = APPROVAL_DATE_TIME ( #398, #191 ) ;
#283 = CARTESIAN_POINT ( 'NONE',  ( 704.1916155909883628, 163.5578026362893809, 0.000000000000000000 ) ) ;
#284 = CYLINDRICAL_SURFACE ( 'NONE', #71, 26.24999999999999645 ) ;
#285 = CARTESIAN_POINT ( 'NONE',  ( -21.50274116258607648, 15.05638145421489504, 3.214697847761801189E-15 ) ) ;
#286 = CARTESIAN_POINT ( 'NONE',  ( 154.1916155909882491, 163.5578026362893809, 0.000000000000000000 ) ) ;
#287 = ORIENTED_EDGE ( 'NONE', *, *, #79, .F. ) ;
#288 = ORIENTED_EDGE ( 'NONE', *, *, #375, .T. ) ;
#289 = VERTEX_POINT ( 'NONE', #355 ) ;
#290 = APPROVAL_ROLE ( '' ) ;
#291 = EDGE_LOOP ( 'NONE', ( #44, #182 ) ) ;
#292 = DIRECTION ( 'NONE',  ( 1.000000000000000000, 0.000000000000000000, 0.000000000000000000 ) ) ;
#293 = VERTEX_POINT ( 'NONE', #171 ) ;
#294 = CARTESIAN_POINT ( 'NONE',  ( 113.2749709787530890, 116.0079456320240183, 0.000000000000000000 ) ) ;
#295 = AXIS2_PLACEMENT_3D ( 'NONE', #19, #247, #149 ) ;
#296 = ORGANIZATION ( 'UNSPECIFIED', 'UNSPECIFIED', '' ) ;
#297 =( NAMED_UNIT ( * ) SI_UNIT ( $, .STERADIAN. ) SOLID_ANGLE_UNIT ( ) );
#298 = ADVANCED_FACE ( 'NONE', ( #141 ), #331, .T. ) ;
#299 = CARTESIAN_POINT ( 'NONE',  ( 91.77222981616702668, 131.0643270862389045, 0.000000000000000000 ) ) ;
#300 = DIRECTION ( 'NONE',  ( 0.5735764363510439390, 0.8191520442889934639, 0.000000000000000000 ) ) ;
#301 = CARTESIAN_POINT ( 'NONE',  ( 704.1916155909883628, 163.5578026362893809, 0.000000000000000000 ) ) ;
#302 = EDGE_LOOP ( 'NONE', ( #52, #332, #281, #351 ) ) ;
#303 = AXIS2_PLACEMENT_3D ( 'NONE', #311, #67, #118 ) ;
#304 = CIRCLE ( 'NONE', #371, 30.15000000000001634 ) ;
#305 = FACE_BOUND ( 'NONE', #5, .T. ) ;
#306 = DIRECTION ( 'NONE',  ( 1.000000000000000000, 0.000000000000000000, 0.000000000000000000 ) ) ;
#307 = CARTESIAN_POINT ( 'NONE',  ( 704.1916155909883628, 163.5578026362893809, 26.24999999999999289 ) ) ;
#308 = CARTESIAN_POINT ( 'NONE',  ( 116.4696639514801859, 113.7709975302549310, 0.000000000000000000 ) ) ;
#309 = ORIENTED_EDGE ( 'NONE', *, *, #383, .F. ) ;
#310 = PERSON_AND_ORGANIZATION_ROLE ( 'classification_officer' ) ;
#311 = CARTESIAN_POINT ( 'NONE',  ( 0.000000000000000000, 0.000000000000000000, 0.000000000000000000 ) ) ;
#312 = CALENDAR_DATE ( 2025, 20, 11 ) ;
#313 = CARTESIAN_POINT ( 'NONE',  ( 91.77222981616702668, 131.0643270862389045, 0.000000000000000000 ) ) ;
#314 = DIRECTION ( 'NONE',  ( 0.000000000000000000, 0.000000000000000000, -1.000000000000000000 ) ) ;
#315 = LINE ( 'NONE', #37, #390 ) ;
#316 = FACE_BOUND ( 'NONE', #291, .T. ) ;
#317 = ORIENTED_EDGE ( 'NONE', *, *, #356, .F. ) ;
#318 = VERTEX_POINT ( 'NONE', #294 ) ;
#319 = APPLICATION_CONTEXT ( 'configuration controlled 3d designs of mechanical parts and assemblies' ) ;
#320 = ADVANCED_BREP_SHAPE_REPRESENTATION ( '3435-50-011-02_REV_', ( #228, #88, #83 ), #179 ) ;
#321 = PRODUCT ( '3435-50-011-02_REV_', '3435-50-011-02_REV_', '', ( #218 ) ) ;
#322 = CIRCLE ( 'NONE', #103, 30.15000000000001634 ) ;
#323 = ORIENTED_EDGE ( 'NONE', *, *, #173, .F. ) ;
#324 = PRODUCT_DEFINITION_FORMATION_WITH_SPECIFIED_SOURCE ( 'ANY', '', #321, .NOT_KNOWN. ) ;
#325 = EDGE_LOOP ( 'NONE', ( #386, #309 ) ) ;
#326 = LINE ( 'NONE', #359, #136 ) ;
#327 = DIRECTION ( 'NONE',  ( -0.5735764363510439390, -0.8191520442889934639, -0.000000000000000000 ) ) ;
#328 = AXIS2_PLACEMENT_3D ( 'NONE', #237, #212, #146 ) ;
#329 = CARTESIAN_POINT ( 'NONE',  ( 0.000000000000000000, 0.000000000000000000, 0.000000000000000000 ) ) ;
#330 = ORIENTED_EDGE ( 'NONE', *, *, #227, .T. ) ;
#331 = CYLINDRICAL_SURFACE ( 'NONE', #21, 30.15000000000001634 ) ;
#332 = ORIENTED_EDGE ( 'NONE', *, *, #105, .T. ) ;
#333 = EDGE_LOOP ( 'NONE', ( #11, #41, #403, #58 ) ) ;
#334 = CC_DESIGN_APPROVAL ( #191, ( #199 ) ) ;
#335 = COORDINATED_UNIVERSAL_TIME_OFFSET ( 10, 0, .AHEAD. ) ;
#336 = APPROVAL ( #167, 'UNSPECIFIED' ) ;
#337 = FACE_BOUND ( 'NONE', #200, .T. ) ;
#338 = APPLICATION_PROTOCOL_DEFINITION ( 'international standard', 'config_control_design', 1994, #319 ) ;
#339 = FACE_OUTER_BOUND ( 'NONE', #39, .T. ) ;
#340 = AXIS2_PLACEMENT_3D ( 'NONE', #283, #407, #344 ) ;
#341 = EDGE_CURVE ( 'NONE', #147, #110, #205, .T. ) ;
#342 = DIRECTION ( 'NONE',  ( 0.8191520442889934639, -0.5735764363510437169, 0.000000000000000000 ) ) ;
#343 = DIRECTION ( 'NONE',  ( -1.000000000000000000, -0.000000000000000000, -0.000000000000000000 ) ) ;
#344 = DIRECTION ( 'NONE',  ( 0.000000000000000000, 0.000000000000000000, 1.000000000000000000 ) ) ;
#345 = CIRCLE ( 'NONE', #61, 26.24999999999999289 ) ;
#346 = ADVANCED_FACE ( 'NONE', ( #13 ), #208, .T. ) ;
#347 = CARTESIAN_POINT ( 'NONE',  ( 154.1916155909882491, 163.5578026362893809, 0.000000000000000000 ) ) ;
#348 = EDGE_LOOP ( 'NONE', ( #259, #330, #75, #98 ) ) ;
#349 = VERTEX_POINT ( 'NONE', #104 ) ;
#350 = ADVANCED_FACE ( 'NONE', ( #174 ), #389, .F. ) ;
#351 = ORIENTED_EDGE ( 'NONE', *, *, #362, .F. ) ;
#352 = ORIENTED_EDGE ( 'NONE', *, *, #84, .T. ) ;
#353 = AXIS2_PLACEMENT_3D ( 'NONE', #80, #360, #363 ) ;
#354 = ORIENTED_EDGE ( 'NONE', *, *, #260, .T. ) ;
#355 = CARTESIAN_POINT ( 'NONE',  ( 70.26948865358095020, 146.1207085404538191, 3.214697847761801189E-15 ) ) ;
#356 = EDGE_CURVE ( 'NONE', #210, #189, #264, .T. ) ;
#357 = CARTESIAN_POINT ( 'NONE',  ( 0.000000000000000000, 0.000000000000000000, 0.000000000000000000 ) ) ;
#358 = CC_DESIGN_DATE_AND_TIME_ASSIGNMENT ( #117, #111, ( #199 ) ) ;
#359 = CARTESIAN_POINT ( 'NONE',  ( 704.1916155909883628, 163.5578026362893809, 30.15000000000001634 ) ) ;
#360 = DIRECTION ( 'NONE',  ( -1.000000000000000000, -0.000000000000000000, -0.000000000000000000 ) ) ;
#361 = CARTESIAN_POINT ( 'NONE',  ( 704.1916155909883628, 163.5578026362893809, 0.000000000000000000 ) ) ;
#362 = EDGE_CURVE ( 'NONE', #163, #293, #326, .T. ) ;
#363 = DIRECTION ( 'NONE',  ( 0.000000000000000000, 0.000000000000000000, 1.000000000000000000 ) ) ;
#364 = DIRECTION ( 'NONE',  ( 0.5735764363510439390, 0.8191520442889934639, 0.000000000000000000 ) ) ;
#365 = DIRECTION ( 'NONE',  ( -0.5735764363510439390, -0.8191520442889933529, -0.000000000000000000 ) ) ;
#366 = EDGE_CURVE ( 'NONE', #318, #189, #239, .T. ) ;
#367 = APPROVAL_ROLE ( '' ) ;
#368 = CIRCLE ( 'NONE', #380, 30.15000000000001634 ) ;
#369 = EDGE_LOOP ( 'NONE', ( #323, #106, #288, #51 ) ) ;
#370 = VECTOR ( 'NONE', #46, 1000.000000000000114 ) ;
#371 = AXIS2_PLACEMENT_3D ( 'NONE', #396, #107, #241 ) ;
#372 = DATE_AND_TIME ( #150, #97 ) ;
#373 = FACE_OUTER_BOUND ( 'NONE', #198, .T. ) ;
#374 = PERSON_AND_ORGANIZATION_ROLE ( 'design_supplier' ) ;
#375 = EDGE_CURVE ( 'NONE', #110, #147, #135, .T. ) ;
#376 = FACE_OUTER_BOUND ( 'NONE', #217, .T. ) ;
#377 = ORIENTED_EDGE ( 'NONE', *, *, #397, .T. ) ;
#378 = ORIENTED_EDGE ( 'NONE', *, *, #116, .T. ) ;
#379 = CARTESIAN_POINT ( 'NONE',  ( 704.1916155909883628, 163.5578026362893809, -26.24999999999999289 ) ) ;
#380 = AXIS2_PLACEMENT_3D ( 'NONE', #301, #384, #95 ) ;
#381 = CARTESIAN_POINT ( 'NONE',  ( 21.50274116258606227, -15.05638145421492347, 0.000000000000000000 ) ) ;
#382 = CC_DESIGN_PERSON_AND_ORGANIZATION_ASSIGNMENT ( #180, #279, ( #324 ) ) ;
#383 = EDGE_CURVE ( 'NONE', #45, #293, #304, .T. ) ;
#384 = DIRECTION ( 'NONE',  ( 1.000000000000000000, 0.000000000000000000, 0.000000000000000000 ) ) ;
#385 = AXIS2_PLACEMENT_3D ( 'NONE', #53, #292, #77 ) ;
#386 = ORIENTED_EDGE ( 'NONE', *, *, #116, .F. ) ;
#387 = ORIENTED_EDGE ( 'NONE', *, *, #278, .F. ) ;
#388 = VERTEX_POINT ( 'NONE', #15 ) ;
#389 = CYLINDRICAL_SURFACE ( 'NONE', #130, 26.24999999999999645 ) ;
#390 = VECTOR ( 'NONE', #127, 1000.000000000000114 ) ;
#391 = DIRECTION ( 'NONE',  ( 0.000000000000000000, 0.000000000000000000, -1.000000000000000000 ) ) ;
#392 = CARTESIAN_POINT ( 'NONE',  ( 67.07479568085385324, 148.3576566422228780, 3.692310099429272763E-15 ) ) ;
#393 = DIRECTION ( 'NONE',  ( 0.8191520442889934639, -0.5735764363510437169, 0.000000000000000000 ) ) ;
#394 = CC_DESIGN_APPROVAL ( #140, ( #324 ) ) ;
#395 = LINE ( 'NONE', #308, #96 ) ;
#396 = CARTESIAN_POINT ( 'NONE',  ( 154.1916155909882491, 163.5578026362893809, 0.000000000000000000 ) ) ;
#397 = EDGE_CURVE ( 'NONE', #8, #115, #270, .T. ) ;
#398 = DATE_AND_TIME ( #28, #22 ) ;
#399 = PLANE ( 'NONE',  #122 ) ;
#400 = PERSON_AND_ORGANIZATION_ROLE ( 'design_owner' ) ;
#401 = CIRCLE ( 'NONE', #219, 26.24999999999999289 ) ;
#402 = DIRECTION ( 'NONE',  ( 0.5735764363510439390, 0.8191520442889933529, 0.000000000000000000 ) ) ;
#403 = ORIENTED_EDGE ( 'NONE', *, *, #186, .F. ) ;
#404 = PERSON_AND_ORGANIZATION ( #12, #296 ) ;
#405 = LINE ( 'NONE', #121, #29 ) ;
#406 = ORIENTED_EDGE ( 'NONE', *, *, #227, .F. ) ;
#407 = DIRECTION ( 'NONE',  ( -1.000000000000000000, -0.000000000000000000, -0.000000000000000000 ) ) ;
#408 = DESIGN_CONTEXT ( 'detailed design', #319, 'design' ) ;
#409 = COORDINATED_UNIVERSAL_TIME_OFFSET ( 10, 0, .AHEAD. ) ;
#410 = DIRECTION ( 'NONE',  ( 0.000000000000000000, 0.000000000000000000, -1.000000000000000000 ) ) ;
#411 = CLOSED_SHELL ( 'NONE', ( #18, #350, #129, #346, #204, #9 ) ) ;
ENDSEC;
END-ISO-10303-21;
