ISO-10303-21;
HEADER;
FILE_DESCRIPTION (( 'STEP AP203' ),
    '1' );
FILE_NAME ('3435-50-012-02_REV_.step',
    '2025-11-20T01:06:05',
    ( '' ),
    ( '' ),
    'SwSTEP 2.0',
    'SolidWorks 2025',
    '' );
FILE_SCHEMA (( 'CONFIG_CONTROL_DESIGN' ));
ENDSEC;

DATA;
#1 = COORDINATED_UNIVERSAL_TIME_OFFSET ( 10, 0, .AHEAD. ) ;
#2 = CARTESIAN_POINT ( 'NONE',  ( 104.9999999999999858, 0.000000000000000000, 21.37999999999999901 ) ) ;
#3 = ADVANCED_FACE ( 'NONE', ( #12 ), #393, .T. ) ;
#4 = ORIENTED_EDGE ( 'NONE', *, *, #163, .T. ) ;
#5 = CARTESIAN_POINT ( 'NONE',  ( 21.37999999999999901, -73.00000000000001421, 2.618294856577041128E-15 ) ) ;
#6 = ADVANCED_FACE ( 'NONE', ( #78, #211 ), #331, .F. ) ;
#7 = AXIS2_PLACEMENT_3D ( 'NONE', #55, #246, #31 ) ;
#8 = LOCAL_TIME ( 12, 6, 5.000000000000000000, #89 ) ;
#9 = ORIENTED_EDGE ( 'NONE', *, *, #242, .T. ) ;
#10 = DIRECTION ( 'NONE',  ( 1.000000000000000000, 5.831651424511230767E-18, 0.000000000000000000 ) ) ;
#11 = CC_DESIGN_DATE_AND_TIME_ASSIGNMENT ( #184, #213, ( #318 ) ) ;
#12 = FACE_OUTER_BOUND ( 'NONE', #245, .T. ) ;
#13 = EDGE_CURVE ( 'NONE', #378, #205, #62, .T. ) ;
#14 = ORIENTED_EDGE ( 'NONE', *, *, #112, .F. ) ;
#15 = DIRECTION ( 'NONE',  ( -1.000000000000000000, -0.000000000000000000, -0.000000000000000000 ) ) ;
#16 = CC_DESIGN_APPROVAL ( #35, ( #334 ) ) ;
#17 = ORIENTED_EDGE ( 'NONE', *, *, #106, .T. ) ;
#18 = DIRECTION ( 'NONE',  ( 5.831651424511230767E-18, -1.000000000000000000, 0.000000000000000000 ) ) ;
#19 = ORIENTED_EDGE ( 'NONE', *, *, #276, .T. ) ;
#20 = CALENDAR_DATE ( 2025, 20, 11 ) ;
#21 = CARTESIAN_POINT ( 'NONE',  ( 25.00000000000000000, 0.000000000000000000, 0.000000000000000000 ) ) ;
#22 = DIRECTION ( 'NONE',  ( 0.000000000000000000, 1.000000000000000000, 0.000000000000000000 ) ) ;
#23 = CC_DESIGN_DATE_AND_TIME_ASSIGNMENT ( #41, #177, ( #334 ) ) ;
#24 = CARTESIAN_POINT ( 'NONE',  ( -4.814824860968089633E-32, -115.0000000000000000, 0.000000000000000000 ) ) ;
#25 = DIRECTION ( 'NONE',  ( 0.000000000000000000, 1.000000000000000000, 0.000000000000000000 ) ) ;
#26 = DIRECTION ( 'NONE',  ( 1.000000000000000000, 0.000000000000000000, 0.000000000000000000 ) ) ;
#27 = APPROVAL_DATE_TIME ( #408, #375 ) ;
#28 = CC_DESIGN_PERSON_AND_ORGANIZATION_ASSIGNMENT ( #123, #336, ( #136 ) ) ;
#29 =( LENGTH_UNIT ( ) NAMED_UNIT ( * ) SI_UNIT ( .MILLI., .METRE. ) );
#30 = FACE_OUTER_BOUND ( 'NONE', #44, .T. ) ;
#31 = DIRECTION ( 'NONE',  ( 0.000000000000000000, 1.000000000000000000, 0.000000000000000000 ) ) ;
#32 = CALENDAR_DATE ( 2025, 20, 11 ) ;
#33 = AXIS2_PLACEMENT_3D ( 'NONE', #127, #88, #65 ) ;
#34 = ORIENTED_EDGE ( 'NONE', *, *, #242, .F. ) ;
#35 = APPROVAL ( #295, 'UNSPECIFIED' ) ;
#36 = ORIENTED_EDGE ( 'NONE', *, *, #71, .T. ) ;
#37 = CARTESIAN_POINT ( 'NONE',  ( -24.14999999999999858, -73.00000000000001421, 0.000000000000000000 ) ) ;
#38 = DIRECTION ( 'NONE',  ( 1.000000000000000000, 0.000000000000000000, 0.000000000000000000 ) ) ;
#39 = ORIENTED_EDGE ( 'NONE', *, *, #13, .T. ) ;
#40 = ADVANCED_FACE ( 'NONE', ( #338 ), #217, .F. ) ;
#41 = DATE_AND_TIME ( #357, #162 ) ;
#42 = EDGE_CURVE ( 'NONE', #335, #69, #95, .T. ) ;
#43 = AXIS2_PLACEMENT_3D ( 'NONE', #277, #250, #364 ) ;
#44 = EDGE_LOOP ( 'NONE', ( #319, #388, #265, #333 ) ) ;
#45 = DIRECTION ( 'NONE',  ( -1.000000000000000000, -0.000000000000000000, -0.000000000000000000 ) ) ;
#46 = ORIENTED_EDGE ( 'NONE', *, *, #13, .F. ) ;
#47 = CARTESIAN_POINT ( 'NONE',  ( 104.9999999999999858, 0.000000000000000000, 0.000000000000000000 ) ) ;
#48 = ORIENTED_EDGE ( 'NONE', *, *, #81, .T. ) ;
#49 = EDGE_LOOP ( 'NONE', ( #83, #297, #107, #51 ) ) ;
#50 = CC_DESIGN_APPROVAL ( #307, ( #318 ) ) ;
#51 = ORIENTED_EDGE ( 'NONE', *, *, #345, .F. ) ;
#52 = PERSON_AND_ORGANIZATION ( #373, #240 ) ;
#53 = CARTESIAN_POINT ( 'NONE',  ( 25.00000000000000000, 0.000000000000000000, 24.14999999999999858 ) ) ;
#54 = APPLICATION_CONTEXT ( 'configuration controlled 3d designs of mechanical parts and assemblies' ) ;
#55 = CARTESIAN_POINT ( 'NONE',  ( 25.00000000000000000, 0.000000000000000000, 0.000000000000000000 ) ) ;
#56 = FACE_OUTER_BOUND ( 'NONE', #167, .T. ) ;
#57 = DIRECTION ( 'NONE',  ( -5.831651424511230767E-18, 1.000000000000000000, -0.000000000000000000 ) ) ;
#58 = AXIS2_PLACEMENT_3D ( 'NONE', #21, #26, #156 ) ;
#59 = LOCAL_TIME ( 12, 6, 5.000000000000000000, #151 ) ;
#60 = DIRECTION ( 'NONE',  ( -1.000000000000000000, 0.000000000000000000, 0.000000000000000000 ) ) ;
#61 = CARTESIAN_POINT ( 'NONE',  ( -4.814824860968089633E-32, -115.0000000000000000, 0.000000000000000000 ) ) ;
#62 = CIRCLE ( 'NONE', #63, 24.14999999999999858 ) ;
#63 = AXIS2_PLACEMENT_3D ( 'NONE', #287, #341, #87 ) ;
#64 = AXIS2_PLACEMENT_3D ( 'NONE', #101, #38, #353 ) ;
#65 = DIRECTION ( 'NONE',  ( 0.000000000000000000, 0.000000000000000000, 1.000000000000000000 ) ) ;
#66 = EDGE_CURVE ( 'NONE', #116, #238, #327, .T. ) ;
#67 = DIRECTION ( 'NONE',  ( 1.000000000000000000, 0.000000000000000000, 0.000000000000000000 ) ) ;
#68 = COORDINATED_UNIVERSAL_TIME_OFFSET ( 10, 0, .AHEAD. ) ;
#69 = VERTEX_POINT ( 'NONE', #135 ) ;
#70 = CARTESIAN_POINT ( 'NONE',  ( -4.814824860968089633E-32, -115.0000000000000000, 0.000000000000000000 ) ) ;
#71 = EDGE_CURVE ( 'NONE', #238, #116, #376, .T. ) ;
#72 = EDGE_LOOP ( 'NONE', ( #150, #354 ) ) ;
#73 = LINE ( 'NONE', #2, #148 ) ;
#74 = AXIS2_PLACEMENT_3D ( 'NONE', #61, #57, #342 ) ;
#75 = AXIS2_PLACEMENT_3D ( 'NONE', #272, #18, #279 ) ;
#76 = ORIENTED_EDGE ( 'NONE', *, *, #66, .T. ) ;
#77 = DIRECTION ( 'NONE',  ( 1.000000000000000000, 0.000000000000000000, 0.000000000000000000 ) ) ;
#78 = FACE_BOUND ( 'NONE', #306, .T. ) ;
#79 = CARTESIAN_POINT ( 'NONE',  ( -4.814824860968089633E-32, -115.0000000000000000, 0.000000000000000000 ) ) ;
#80 = ORIENTED_EDGE ( 'NONE', *, *, #404, .F. ) ;
#81 = EDGE_CURVE ( 'NONE', #358, #273, #131, .T. ) ;
#82 = MECHANICAL_CONTEXT ( 'NONE', #390, 'mechanical' ) ;
#83 = ORIENTED_EDGE ( 'NONE', *, *, #71, .F. ) ;
#84 = CIRCLE ( 'NONE', #377, 21.37999999999999901 ) ;
#85 = DIRECTION ( 'NONE',  ( -1.000000000000000000, 0.000000000000000000, 0.000000000000000000 ) ) ;
#86 = CC_DESIGN_PERSON_AND_ORGANIZATION_ASSIGNMENT ( #352, #204, ( #285 ) ) ;
#87 = DIRECTION ( 'NONE',  ( 0.000000000000000000, 1.000000000000000000, 0.000000000000000000 ) ) ;
#88 = DIRECTION ( 'NONE',  ( -1.000000000000000000, -0.000000000000000000, -0.000000000000000000 ) ) ;
#89 = COORDINATED_UNIVERSAL_TIME_OFFSET ( 10, 0, .AHEAD. ) ;
#90 = CIRCLE ( 'NONE', #58, 21.37999999999999901 ) ;
#91 = VECTOR ( 'NONE', #45, 1000.000000000000000 ) ;
#92 = DIRECTION ( 'NONE',  ( 5.831651424511230767E-18, -1.000000000000000000, 0.000000000000000000 ) ) ;
#93 = MANIFOLD_SOLID_BREP ( 'Stainless chs 48.3 X 2.7 CHS(1)[2]', #290 ) ;
#94 = CARTESIAN_POINT ( 'NONE',  ( 104.9999999999999858, 2.618294856577041128E-15, -21.37999999999999901 ) ) ;
#95 = CIRCLE ( 'NONE', #294, 24.14999999999999858 ) ;
#96 = AXIS2_PLACEMENT_3D ( 'NONE', #113, #264, #233 ) ;
#97 = CARTESIAN_POINT ( 'NONE',  ( -24.14999999999999858, -115.0000000000000000, 0.000000000000000000 ) ) ;
#98 = DIRECTION ( 'NONE',  ( 5.831651424511230767E-18, -1.000000000000000000, 0.000000000000000000 ) ) ;
#99 = ADVANCED_FACE ( 'NONE', ( #337, #185 ), #312, .T. ) ;
#100 = ORIENTED_EDGE ( 'NONE', *, *, #276, .F. ) ;
#101 = CARTESIAN_POINT ( 'NONE',  ( 25.00000000000000000, 0.000000000000000000, 0.000000000000000000 ) ) ;
#102 = APPROVAL_ROLE ( '' ) ;
#103 = EDGE_LOOP ( 'NONE', ( #76, #36 ) ) ;
#104 = DIRECTION ( 'NONE',  ( 1.000000000000000000, 0.000000000000000000, 0.000000000000000000 ) ) ;
#105 = LOCAL_TIME ( 12, 6, 5.000000000000000000, #381 ) ;
#106 = EDGE_CURVE ( 'NONE', #149, #292, #239, .T. ) ;
#107 = ORIENTED_EDGE ( 'NONE', *, *, #236, .T. ) ;
#108 = DIRECTION ( 'NONE',  ( -5.831651424511230767E-18, 1.000000000000000000, -0.000000000000000000 ) ) ;
#109 = DIRECTION ( 'NONE',  ( 5.831651424511230767E-18, -1.000000000000000000, 0.000000000000000000 ) ) ;
#110 = DIRECTION ( 'NONE',  ( 0.000000000000000000, 1.000000000000000000, 0.000000000000000000 ) ) ;
#111 = ORIENTED_EDGE ( 'NONE', *, *, #269, .F. ) ;
#112 = EDGE_CURVE ( 'NONE', #321, #360, #90, .T. ) ;
#113 = CARTESIAN_POINT ( 'NONE',  ( 104.9999999999999858, 0.000000000000000000, 0.000000000000000000 ) ) ;
#114 = CIRCLE ( 'NONE', #223, 24.14999999999999858 ) ;
#115 = DIRECTION ( 'NONE',  ( -1.000000000000000000, 0.000000000000000000, 0.000000000000000000 ) ) ;
#116 = VERTEX_POINT ( 'NONE', #278 ) ;
#117 = PERSON_AND_ORGANIZATION ( #373, #240 ) ;
#118 = ORIENTED_EDGE ( 'NONE', *, *, #42, .T. ) ;
#119 = VECTOR ( 'NONE', #282, 1000.000000000000000 ) ;
#120 = EDGE_CURVE ( 'NONE', #286, #273, #402, .T. ) ;
#121 = CARTESIAN_POINT ( 'NONE',  ( -2.449293598294716768E-16, -73.00000000000001421, 0.000000000000000000 ) ) ;
#122 = CARTESIAN_POINT ( 'NONE',  ( 21.37999999999999901, -115.0000000000000000, 2.618294856577041128E-15 ) ) ;
#123 = PERSON_AND_ORGANIZATION ( #373, #240 ) ;
#124 = CALENDAR_DATE ( 2025, 20, 11 ) ;
#125 = VECTOR ( 'NONE', #372, 1000.000000000000000 ) ;
#126 = CC_DESIGN_SECURITY_CLASSIFICATION ( #334, ( #285 ) ) ;
#127 = CARTESIAN_POINT ( 'NONE',  ( 104.9999999999999858, 0.000000000000000000, 0.000000000000000000 ) ) ;
#128 = APPROVAL_ROLE ( '' ) ;
#129 = APPLICATION_PROTOCOL_DEFINITION ( 'international standard', 'config_control_design', 1994, #390 ) ;
#130 = ORIENTED_EDGE ( 'NONE', *, *, #152, .T. ) ;
#131 = CIRCLE ( 'NONE', #187, 21.37999999999999901 ) ;
#132 = CC_DESIGN_PERSON_AND_ORGANIZATION_ASSIGNMENT ( #161, #251, ( #285 ) ) ;
#133 = VECTOR ( 'NONE', #15, 1000.000000000000000 ) ;
#134 = APPROVAL_STATUS ( 'not_yet_approved' ) ;
#135 = CARTESIAN_POINT ( 'NONE',  ( 24.14999999999999858, -73.00000000000001421, 2.957522019940857930E-15 ) ) ;
#136 = PRODUCT ( '3435-50-012-02_REV_', '3435-50-012-02_REV_', '', ( #82 ) ) ;
#137 = ORIENTED_EDGE ( 'NONE', *, *, #345, .T. ) ;
#138 = FACE_OUTER_BOUND ( 'NONE', #49, .T. ) ;
#139 = LINE ( 'NONE', #300, #133 ) ;
#140 = ADVANCED_BREP_SHAPE_REPRESENTATION ( '3435-50-012-02_REV_', ( #224, #93, #252 ), #192 ) ;
#141 = FACE_BOUND ( 'NONE', #326, .T. ) ;
#142 = FACE_BOUND ( 'NONE', #72, .T. ) ;
#143 = CIRCLE ( 'NONE', #406, 21.37999999999999901 ) ;
#144 = CARTESIAN_POINT ( 'NONE',  ( 25.00000000000000000, 0.000000000000000000, 0.000000000000000000 ) ) ;
#145 = SHAPE_DEFINITION_REPRESENTATION ( #201, #140 ) ;
#146 = ORIENTED_EDGE ( 'NONE', *, *, #303, .T. ) ;
#147 = CARTESIAN_POINT ( 'NONE',  ( 24.14999999999999858, -115.0000000000000000, 2.957522019940857930E-15 ) ) ;
#148 = VECTOR ( 'NONE', #237, 1000.000000000000000 ) ;
#149 = VERTEX_POINT ( 'NONE', #405 ) ;
#150 = ORIENTED_EDGE ( 'NONE', *, *, #314, .F. ) ;
#151 = COORDINATED_UNIVERSAL_TIME_OFFSET ( 10, 0, .AHEAD. ) ;
#152 = EDGE_CURVE ( 'NONE', #273, #358, #169, .T. ) ;
#153 = EDGE_LOOP ( 'NONE', ( #180, #363, #19, #39 ) ) ;
#154 = DATE_AND_TIME ( #20, #8 ) ;
#155 = AXIS2_PLACEMENT_3D ( 'NONE', #380, #311, #400 ) ;
#156 = DIRECTION ( 'NONE',  ( 0.000000000000000000, 1.000000000000000000, 0.000000000000000000 ) ) ;
#157 = VECTOR ( 'NONE', #247, 1000.000000000000000 ) ;
#158 = CARTESIAN_POINT ( 'NONE',  ( 104.9999999999999858, 0.000000000000000000, 0.000000000000000000 ) ) ;
#159 = DIRECTION ( 'NONE',  ( 1.000000000000000000, 0.000000000000000000, 0.000000000000000000 ) ) ;
#160 = CARTESIAN_POINT ( 'NONE',  ( 104.9999999999999858, 2.957522019940857930E-15, -24.14999999999999858 ) ) ;
#161 = PERSON_AND_ORGANIZATION ( #373, #240 ) ;
#162 = LOCAL_TIME ( 12, 6, 5.000000000000000000, #68 ) ;
#163 = EDGE_CURVE ( 'NONE', #149, #205, #316, .T. ) ;
#164 = EDGE_LOOP ( 'NONE', ( #268, #383 ) ) ;
#165 = CARTESIAN_POINT ( 'NONE',  ( -4.814824860968089633E-32, -115.0000000000000000, 0.000000000000000000 ) ) ;
#166 = LINE ( 'NONE', #284, #125 ) ;
#167 = EDGE_LOOP ( 'NONE', ( #196, #146, #178, #111 ) ) ;
#168 = CARTESIAN_POINT ( 'NONE',  ( -21.37999999999999901, -73.00000000000001421, 0.000000000000000000 ) ) ;
#169 = CIRCLE ( 'NONE', #411, 21.37999999999999901 ) ;
#170 = ADVANCED_FACE ( 'NONE', ( #407 ), #366, .F. ) ;
#171 = DIRECTION ( 'NONE',  ( 5.831651424511230767E-18, -1.000000000000000000, 0.000000000000000000 ) ) ;
#172 = EDGE_LOOP ( 'NONE', ( #305, #361, #317, #14 ) ) ;
#173 = CYLINDRICAL_SURFACE ( 'NONE', #271, 24.14999999999999858 ) ;
#174 = ORIENTED_EDGE ( 'NONE', *, *, #186, .T. ) ;
#175 = AXIS2_PLACEMENT_3D ( 'NONE', #79, #108, #85 ) ;
#176 = CARTESIAN_POINT ( 'NONE',  ( 104.9999999999999858, 0.000000000000000000, 0.000000000000000000 ) ) ;
#177 = DATE_TIME_ROLE ( 'classification_date' ) ;
#178 = ORIENTED_EDGE ( 'NONE', *, *, #229, .F. ) ;
#179 = DIRECTION ( 'NONE',  ( 1.000000000000000000, 0.000000000000000000, 0.000000000000000000 ) ) ;
#180 = ORIENTED_EDGE ( 'NONE', *, *, #163, .F. ) ;
#181 = DIRECTION ( 'NONE',  ( -1.000000000000000000, -0.000000000000000000, -0.000000000000000000 ) ) ;
#182 = APPROVAL_ROLE ( '' ) ;
#183 = CARTESIAN_POINT ( 'NONE',  ( 104.9999999999999858, 0.000000000000000000, 0.000000000000000000 ) ) ;
#184 = DATE_AND_TIME ( #339, #59 ) ;
#185 = FACE_OUTER_BOUND ( 'NONE', #215, .T. ) ;
#186 = EDGE_CURVE ( 'NONE', #258, #358, #320, .T. ) ;
#187 = AXIS2_PLACEMENT_3D ( 'NONE', #121, #226, #371 ) ;
#188 =( NAMED_UNIT ( * ) SI_UNIT ( $, .STERADIAN. ) SOLID_ANGLE_UNIT ( ) );
#189 = CLOSED_SHELL ( 'NONE', ( #374, #370, #40, #3, #208, #365 ) ) ;
#190 = DIRECTION ( 'NONE',  ( 1.000000000000000000, 0.000000000000000000, 0.000000000000000000 ) ) ;
#191 = PERSON_AND_ORGANIZATION ( #373, #240 ) ;
#192 =( GEOMETRIC_REPRESENTATION_CONTEXT ( 3 ) GLOBAL_UNCERTAINTY_ASSIGNED_CONTEXT ( ( #296 ) ) GLOBAL_UNIT_ASSIGNED_CONTEXT ( ( #29, #343, #188 ) ) REPRESENTATION_CONTEXT ( 'NONE', 'WORKASPACE' ) );
#193 = ADVANCED_FACE ( 'NONE', ( #291 ), #382, .T. ) ;
#194 = DIRECTION ( 'NONE',  ( -5.831651424511230767E-18, 1.000000000000000000, -0.000000000000000000 ) ) ;
#195 = PERSON_AND_ORGANIZATION ( #373, #240 ) ;
#196 = ORIENTED_EDGE ( 'NONE', *, *, #281, .T. ) ;
#197 = AXIS2_PLACEMENT_3D ( 'NONE', #389, #289, #198 ) ;
#198 = DIRECTION ( 'NONE',  ( 1.000000000000000000, 0.000000000000000000, 0.000000000000000000 ) ) ;
#199 = CARTESIAN_POINT ( 'NONE',  ( 25.00000000000000000, 0.000000000000000000, 21.37999999999999901 ) ) ;
#200 = DIRECTION ( 'NONE',  ( 5.831651424511230767E-18, -1.000000000000000000, 0.000000000000000000 ) ) ;
#201 = PRODUCT_DEFINITION_SHAPE ( 'NONE', 'NONE',  #318 ) ;
#202 = ORIENTED_EDGE ( 'NONE', *, *, #120, .F. ) ;
#203 = DIRECTION ( 'NONE',  ( 1.000000000000000000, 0.000000000000000000, 0.000000000000000000 ) ) ;
#204 = PERSON_AND_ORGANIZATION_ROLE ( 'design_supplier' ) ;
#205 = VERTEX_POINT ( 'NONE', #241 ) ;
#206 = PRODUCT_RELATED_PRODUCT_CATEGORY ( 'detail', '', ( #136 ) ) ;
#207 = LINE ( 'NONE', #351, #91 ) ;
#208 = ADVANCED_FACE ( 'NONE', ( #142, #356 ), #260, .T. ) ;
#209 = DIRECTION ( 'NONE',  ( -5.831651424511230767E-18, 1.000000000000000000, -0.000000000000000000 ) ) ;
#210 = CARTESIAN_POINT ( 'NONE',  ( -2.449293598294716768E-16, -73.00000000000001421, 0.000000000000000000 ) ) ;
#211 = FACE_OUTER_BOUND ( 'NONE', #263, .T. ) ;
#212 = ORIENTED_EDGE ( 'NONE', *, *, #112, .T. ) ;
#213 = DATE_TIME_ROLE ( 'creation_date' ) ;
#214 = CIRCLE ( 'NONE', #344, 24.14999999999999858 ) ;
#215 = EDGE_LOOP ( 'NONE', ( #288, #17 ) ) ;
#216 = DIRECTION ( 'NONE',  ( 1.000000000000000000, 0.000000000000000000, 0.000000000000000000 ) ) ;
#217 = CYLINDRICAL_SURFACE ( 'NONE', #74, 21.37999999999999901 ) ;
#218 = EDGE_CURVE ( 'NONE', #286, #258, #259, .T. ) ;
#219 = DIRECTION ( 'NONE',  ( 1.000000000000000000, 0.000000000000000000, 0.000000000000000000 ) ) ;
#220 = CIRCLE ( 'NONE', #64, 24.14999999999999858 ) ;
#221 = APPLICATION_PROTOCOL_DEFINITION ( 'international standard', 'config_control_design', 1994, #54 ) ;
#222 = EDGE_CURVE ( 'NONE', #292, #149, #114, .T. ) ;
#223 = AXIS2_PLACEMENT_3D ( 'NONE', #176, #203, #329 ) ;
#224 = MANIFOLD_SOLID_BREP ( 'Stainless chs 48.3 X 2.7 CHS(1)[1]', #189 ) ;
#225 = CARTESIAN_POINT ( 'NONE',  ( 0.000000000000000000, 0.000000000000000000, 0.000000000000000000 ) ) ;
#226 = DIRECTION ( 'NONE',  ( 5.831651424511230767E-18, -1.000000000000000000, 0.000000000000000000 ) ) ;
#227 = DIRECTION ( 'NONE',  ( 0.000000000000000000, 0.000000000000000000, 1.000000000000000000 ) ) ;
#228 = SECURITY_CLASSIFICATION_LEVEL ( 'unclassified' ) ;
#229 = EDGE_CURVE ( 'NONE', #360, #321, #84, .T. ) ;
#230 = ORIENTED_EDGE ( 'NONE', *, *, #218, .T. ) ;
#231 = CARTESIAN_POINT ( 'NONE',  ( -21.37999999999999901, -115.0000000000000000, 0.000000000000000000 ) ) ;
#232 = ORIENTED_EDGE ( 'NONE', *, *, #152, .F. ) ;
#233 = DIRECTION ( 'NONE',  ( 0.000000000000000000, 0.000000000000000000, 1.000000000000000000 ) ) ;
#234 = DATE_AND_TIME ( #32, #399 ) ;
#235 = CC_DESIGN_PERSON_AND_ORGANIZATION_ASSIGNMENT ( #195, #325, ( #334 ) ) ;
#236 = EDGE_CURVE ( 'NONE', #69, #335, #214, .T. ) ;
#237 = DIRECTION ( 'NONE',  ( -1.000000000000000000, -0.000000000000000000, -0.000000000000000000 ) ) ;
#238 = VERTEX_POINT ( 'NONE', #147 ) ;
#239 = CIRCLE ( 'NONE', #270, 24.14999999999999858 ) ;
#240 = ORGANIZATION ( 'UNSPECIFIED', 'UNSPECIFIED', '' ) ;
#241 = CARTESIAN_POINT ( 'NONE',  ( 25.00000000000000000, 2.957522019940857930E-15, -24.14999999999999858 ) ) ;
#242 = EDGE_CURVE ( 'NONE', #205, #378, #220, .T. ) ;
#243 = AXIS2_PLACEMENT_3D ( 'NONE', #391, #209, #115 ) ;
#244 = AXIS2_PLACEMENT_3D ( 'NONE', #183, #315, #25 ) ;
#245 = EDGE_LOOP ( 'NONE', ( #80, #256, #137, #118 ) ) ;
#246 = DIRECTION ( 'NONE',  ( 1.000000000000000000, 0.000000000000000000, 0.000000000000000000 ) ) ;
#247 = DIRECTION ( 'NONE',  ( -5.831651424511230767E-18, 1.000000000000000000, -0.000000000000000000 ) ) ;
#248 = PERSON_AND_ORGANIZATION_ROLE ( 'creator' ) ;
#249 = CARTESIAN_POINT ( 'NONE',  ( -2.449293598294716768E-16, -73.00000000000001421, 0.000000000000000000 ) ) ;
#250 = DIRECTION ( 'NONE',  ( -1.000000000000000000, -0.000000000000000000, -0.000000000000000000 ) ) ;
#251 = PERSON_AND_ORGANIZATION_ROLE ( 'creator' ) ;
#252 = AXIS2_PLACEMENT_3D ( 'NONE', #225, #368, #396 ) ;
#253 = ORIENTED_EDGE ( 'NONE', *, *, #229, .T. ) ;
#254 = CARTESIAN_POINT ( 'NONE',  ( -2.449293598294716768E-16, -73.00000000000001421, 0.000000000000000000 ) ) ;
#255 = ADVANCED_FACE ( 'NONE', ( #330 ), #173, .T. ) ;
#256 = ORIENTED_EDGE ( 'NONE', *, *, #66, .F. ) ;
#257 = CARTESIAN_POINT ( 'NONE',  ( 104.9999999999999858, 0.000000000000000000, 24.14999999999999858 ) ) ;
#258 = VERTEX_POINT ( 'NONE', #231 ) ;
#259 = CIRCLE ( 'NONE', #197, 21.37999999999999901 ) ;
#260 = PLANE ( 'NONE',  #328 ) ;
#261 = PERSON_AND_ORGANIZATION ( #373, #240 ) ;
#262 = DESIGN_CONTEXT ( 'detailed design', #54, 'design' ) ;
#263 = EDGE_LOOP ( 'NONE', ( #46, #34 ) ) ;
#264 = DIRECTION ( 'NONE',  ( -1.000000000000000000, -0.000000000000000000, -0.000000000000000000 ) ) ;
#265 = ORIENTED_EDGE ( 'NONE', *, *, #81, .F. ) ;
#266 = CYLINDRICAL_SURFACE ( 'NONE', #175, 24.14999999999999858 ) ;
#267 = DIRECTION ( 'NONE',  ( -5.831651424511230767E-18, 1.000000000000000000, -0.000000000000000000 ) ) ;
#268 = ORIENTED_EDGE ( 'NONE', *, *, #42, .F. ) ;
#269 = EDGE_CURVE ( 'NONE', #301, #360, #73, .T. ) ;
#270 = AXIS2_PLACEMENT_3D ( 'NONE', #158, #346, #308 ) ;
#271 = AXIS2_PLACEMENT_3D ( 'NONE', #47, #181, #227 ) ;
#272 = CARTESIAN_POINT ( 'NONE',  ( -2.449293598294716768E-16, -73.00000000000001421, 0.000000000000000000 ) ) ;
#273 = VERTEX_POINT ( 'NONE', #5 ) ;
#274 = ORIENTED_EDGE ( 'NONE', *, *, #281, .F. ) ;
#275 = DIRECTION ( 'NONE',  ( 5.831651424511230767E-18, -1.000000000000000000, 0.000000000000000000 ) ) ;
#276 = EDGE_CURVE ( 'NONE', #292, #378, #139, .T. ) ;
#277 = CARTESIAN_POINT ( 'NONE',  ( 104.9999999999999858, 0.000000000000000000, 0.000000000000000000 ) ) ;
#278 = CARTESIAN_POINT ( 'NONE',  ( -24.14999999999999858, -115.0000000000000000, 0.000000000000000000 ) ) ;
#279 = DIRECTION ( 'NONE',  ( 1.000000000000000000, 5.831651424511230767E-18, 0.000000000000000000 ) ) ;
#280 = CARTESIAN_POINT ( 'NONE',  ( 104.9999999999999858, 0.000000000000000000, 0.000000000000000000 ) ) ;
#281 = EDGE_CURVE ( 'NONE', #301, #350, #143, .T. ) ;
#282 = DIRECTION ( 'NONE',  ( -1.000000000000000000, -0.000000000000000000, -0.000000000000000000 ) ) ;
#283 = APPROVAL_PERSON_ORGANIZATION ( #117, #375, #128 ) ;
#284 = CARTESIAN_POINT ( 'NONE',  ( 24.14999999999999858, -115.0000000000000000, 2.957522019940857930E-15 ) ) ;
#285 = PRODUCT_DEFINITION_FORMATION_WITH_SPECIFIED_SOURCE ( 'ANY', '', #136, .NOT_KNOWN. ) ;
#286 = VERTEX_POINT ( 'NONE', #322 ) ;
#287 = CARTESIAN_POINT ( 'NONE',  ( 25.00000000000000000, 0.000000000000000000, 0.000000000000000000 ) ) ;
#288 = ORIENTED_EDGE ( 'NONE', *, *, #222, .T. ) ;
#289 = DIRECTION ( 'NONE',  ( 5.831651424511230767E-18, -1.000000000000000000, 0.000000000000000000 ) ) ;
#290 = CLOSED_SHELL ( 'NONE', ( #193, #332, #170, #255, #99, #6 ) ) ;
#291 = FACE_OUTER_BOUND ( 'NONE', #397, .T. ) ;
#292 = VERTEX_POINT ( 'NONE', #257 ) ;
#293 = FACE_OUTER_BOUND ( 'NONE', #164, .T. ) ;
#294 = AXIS2_PLACEMENT_3D ( 'NONE', #254, #275, #219 ) ;
#295 = APPROVAL_STATUS ( 'not_yet_approved' ) ;
#296 = UNCERTAINTY_MEASURE_WITH_UNIT (LENGTH_MEASURE( 1.000000000000000082E-05 ), #29, 'distance_accuracy_value', 'NONE');
#297 = ORIENTED_EDGE ( 'NONE', *, *, #404, .T. ) ;
#298 = CARTESIAN_POINT ( 'NONE',  ( 25.00000000000000000, 2.618294856577041128E-15, -21.37999999999999901 ) ) ;
#299 = ORIENTED_EDGE ( 'NONE', *, *, #106, .F. ) ;
#300 = CARTESIAN_POINT ( 'NONE',  ( 104.9999999999999858, 0.000000000000000000, 24.14999999999999858 ) ) ;
#301 = VERTEX_POINT ( 'NONE', #384 ) ;
#302 = PLANE ( 'NONE',  #75 ) ;
#303 = EDGE_CURVE ( 'NONE', #350, #321, #207, .T. ) ;
#304 = CIRCLE ( 'NONE', #244, 21.37999999999999901 ) ;
#305 = ORIENTED_EDGE ( 'NONE', *, *, #303, .F. ) ;
#306 = EDGE_LOOP ( 'NONE', ( #253, #212 ) ) ;
#307 = APPROVAL ( #367, 'UNSPECIFIED' ) ;
#308 = DIRECTION ( 'NONE',  ( 0.000000000000000000, 1.000000000000000000, 0.000000000000000000 ) ) ;
#309 = AXIS2_PLACEMENT_3D ( 'NONE', #24, #98, #159 ) ;
#310 = CIRCLE ( 'NONE', #355, 21.37999999999999901 ) ;
#311 = DIRECTION ( 'NONE',  ( 5.831651424511230767E-18, -1.000000000000000000, 0.000000000000000000 ) ) ;
#312 = PLANE ( 'NONE',  #410 ) ;
#313 = APPROVAL_DATE_TIME ( #154, #307 ) ;
#314 = EDGE_CURVE ( 'NONE', #258, #286, #310, .T. ) ;
#315 = DIRECTION ( 'NONE',  ( 1.000000000000000000, 0.000000000000000000, 0.000000000000000000 ) ) ;
#316 = LINE ( 'NONE', #160, #119 ) ;
#317 = ORIENTED_EDGE ( 'NONE', *, *, #269, .T. ) ;
#318 = PRODUCT_DEFINITION ( 'UNKNOWN', '', #285, #262 ) ;
#319 = ORIENTED_EDGE ( 'NONE', *, *, #314, .T. ) ;
#320 = LINE ( 'NONE', #392, #369 ) ;
#321 = VERTEX_POINT ( 'NONE', #298 ) ;
#322 = CARTESIAN_POINT ( 'NONE',  ( 21.37999999999999901, -115.0000000000000000, 2.618294856577041128E-15 ) ) ;
#323 = EDGE_LOOP ( 'NONE', ( #274, #386 ) ) ;
#324 = CARTESIAN_POINT ( 'NONE',  ( -4.814824860968089633E-32, -115.0000000000000000, 0.000000000000000000 ) ) ;
#325 = PERSON_AND_ORGANIZATION_ROLE ( 'classification_officer' ) ;
#326 = EDGE_LOOP ( 'NONE', ( #48, #130 ) ) ;
#327 = CIRCLE ( 'NONE', #155, 24.14999999999999858 ) ;
#328 = AXIS2_PLACEMENT_3D ( 'NONE', #324, #171, #10 ) ;
#329 = DIRECTION ( 'NONE',  ( 0.000000000000000000, 1.000000000000000000, 0.000000000000000000 ) ) ;
#330 = FACE_OUTER_BOUND ( 'NONE', #153, .T. ) ;
#331 = PLANE ( 'NONE',  #7 ) ;
#332 = ADVANCED_FACE ( 'NONE', ( #56 ), #359, .F. ) ;
#333 = ORIENTED_EDGE ( 'NONE', *, *, #186, .F. ) ;
#334 = SECURITY_CLASSIFICATION ( '', '', #228 ) ;
#335 = VERTEX_POINT ( 'NONE', #37 ) ;
#336 = PERSON_AND_ORGANIZATION_ROLE ( 'design_owner' ) ;
#337 = FACE_BOUND ( 'NONE', #323, .T. ) ;
#338 = FACE_OUTER_BOUND ( 'NONE', #398, .T. ) ;
#339 = CALENDAR_DATE ( 2025, 20, 11 ) ;
#340 = CC_DESIGN_APPROVAL ( #375, ( #285 ) ) ;
#341 = DIRECTION ( 'NONE',  ( 1.000000000000000000, 0.000000000000000000, 0.000000000000000000 ) ) ;
#342 = DIRECTION ( 'NONE',  ( -1.000000000000000000, 0.000000000000000000, 0.000000000000000000 ) ) ;
#343 =( NAMED_UNIT ( * ) PLANE_ANGLE_UNIT ( ) SI_UNIT ( $, .RADIAN. ) );
#344 = AXIS2_PLACEMENT_3D ( 'NONE', #210, #200, #104 ) ;
#345 = EDGE_CURVE ( 'NONE', #116, #335, #395, .T. ) ;
#346 = DIRECTION ( 'NONE',  ( 1.000000000000000000, 0.000000000000000000, 0.000000000000000000 ) ) ;
#347 = CARTESIAN_POINT ( 'NONE',  ( 104.9999999999999858, 0.000000000000000000, 0.000000000000000000 ) ) ;
#348 = APPROVAL_DATE_TIME ( #234, #35 ) ;
#349 = APPROVAL_PERSON_ORGANIZATION ( #52, #307, #182 ) ;
#350 = VERTEX_POINT ( 'NONE', #94 ) ;
#351 = CARTESIAN_POINT ( 'NONE',  ( 104.9999999999999858, 2.618294856577041128E-15, -21.37999999999999901 ) ) ;
#352 = PERSON_AND_ORGANIZATION ( #373, #240 ) ;
#353 = DIRECTION ( 'NONE',  ( 0.000000000000000000, 1.000000000000000000, 0.000000000000000000 ) ) ;
#354 = ORIENTED_EDGE ( 'NONE', *, *, #218, .F. ) ;
#355 = AXIS2_PLACEMENT_3D ( 'NONE', #70, #109, #179 ) ;
#356 = FACE_OUTER_BOUND ( 'NONE', #103, .T. ) ;
#357 = CALENDAR_DATE ( 2025, 20, 11 ) ;
#358 = VERTEX_POINT ( 'NONE', #168 ) ;
#359 = CYLINDRICAL_SURFACE ( 'NONE', #43, 21.37999999999999901 ) ;
#360 = VERTEX_POINT ( 'NONE', #199 ) ;
#361 = ORIENTED_EDGE ( 'NONE', *, *, #401, .T. ) ;
#362 = VECTOR ( 'NONE', #194, 1000.000000000000000 ) ;
#363 = ORIENTED_EDGE ( 'NONE', *, *, #222, .F. ) ;
#364 = DIRECTION ( 'NONE',  ( 0.000000000000000000, 0.000000000000000000, 1.000000000000000000 ) ) ;
#365 = ADVANCED_FACE ( 'NONE', ( #141, #293 ), #302, .F. ) ;
#366 = CYLINDRICAL_SURFACE ( 'NONE', #33, 21.37999999999999901 ) ;
#367 = APPROVAL_STATUS ( 'not_yet_approved' ) ;
#368 = DIRECTION ( 'NONE',  ( 0.000000000000000000, 0.000000000000000000, 1.000000000000000000 ) ) ;
#369 = VECTOR ( 'NONE', #267, 1000.000000000000000 ) ;
#370 = ADVANCED_FACE ( 'NONE', ( #30 ), #403, .F. ) ;
#371 = DIRECTION ( 'NONE',  ( 1.000000000000000000, 0.000000000000000000, 0.000000000000000000 ) ) ;
#372 = DIRECTION ( 'NONE',  ( -5.831651424511230767E-18, 1.000000000000000000, -0.000000000000000000 ) ) ;
#373 = PERSON ( 'UNSPECIFIED', 'UNSPECIFIED', 'UNSPECIFIED', ('UNSPECIFIED'), ('UNSPECIFIED'), ('UNSPECIFIED') ) ;
#374 = ADVANCED_FACE ( 'NONE', ( #138 ), #266, .T. ) ;
#375 = APPROVAL ( #134, 'UNSPECIFIED' ) ;
#376 = CIRCLE ( 'NONE', #309, 24.14999999999999858 ) ;
#377 = AXIS2_PLACEMENT_3D ( 'NONE', #144, #77, #110 ) ;
#378 = VERTEX_POINT ( 'NONE', #53 ) ;
#379 = DIRECTION ( 'NONE',  ( -5.831651424511230767E-18, 1.000000000000000000, -0.000000000000000000 ) ) ;
#380 = CARTESIAN_POINT ( 'NONE',  ( -4.814824860968089633E-32, -115.0000000000000000, 0.000000000000000000 ) ) ;
#381 = COORDINATED_UNIVERSAL_TIME_OFFSET ( 10, 0, .AHEAD. ) ;
#382 = CYLINDRICAL_SURFACE ( 'NONE', #96, 24.14999999999999858 ) ;
#383 = ORIENTED_EDGE ( 'NONE', *, *, #236, .F. ) ;
#384 = CARTESIAN_POINT ( 'NONE',  ( 104.9999999999999858, 0.000000000000000000, 21.37999999999999901 ) ) ;
#385 = APPROVAL_PERSON_ORGANIZATION ( #261, #35, #102 ) ;
#386 = ORIENTED_EDGE ( 'NONE', *, *, #401, .F. ) ;
#387 = DIRECTION ( 'NONE',  ( 0.000000000000000000, 1.000000000000000000, 0.000000000000000000 ) ) ;
#388 = ORIENTED_EDGE ( 'NONE', *, *, #120, .T. ) ;
#389 = CARTESIAN_POINT ( 'NONE',  ( -4.814824860968089633E-32, -115.0000000000000000, 0.000000000000000000 ) ) ;
#390 = APPLICATION_CONTEXT ( 'configuration controlled 3d designs of mechanical parts and assemblies' ) ;
#391 = CARTESIAN_POINT ( 'NONE',  ( -4.814824860968089633E-32, -115.0000000000000000, 0.000000000000000000 ) ) ;
#392 = CARTESIAN_POINT ( 'NONE',  ( -21.37999999999999901, -115.0000000000000000, 0.000000000000000000 ) ) ;
#393 = CYLINDRICAL_SURFACE ( 'NONE', #243, 24.14999999999999858 ) ;
#394 = AXIS2_PLACEMENT_3D ( 'NONE', #165, #379, #60 ) ;
#395 = LINE ( 'NONE', #97, #362 ) ;
#396 = DIRECTION ( 'NONE',  ( 1.000000000000000000, 0.000000000000000000, 0.000000000000000000 ) ) ;
#397 = EDGE_LOOP ( 'NONE', ( #299, #4, #9, #100 ) ) ;
#398 = EDGE_LOOP ( 'NONE', ( #202, #230, #174, #232 ) ) ;
#399 = LOCAL_TIME ( 12, 6, 5.000000000000000000, #1 ) ;
#400 = DIRECTION ( 'NONE',  ( 1.000000000000000000, 0.000000000000000000, 0.000000000000000000 ) ) ;
#401 = EDGE_CURVE ( 'NONE', #350, #301, #304, .T. ) ;
#402 = LINE ( 'NONE', #122, #157 ) ;
#403 = CYLINDRICAL_SURFACE ( 'NONE', #394, 21.37999999999999901 ) ;
#404 = EDGE_CURVE ( 'NONE', #238, #69, #166, .T. ) ;
#405 = CARTESIAN_POINT ( 'NONE',  ( 104.9999999999999858, 2.957522019940857930E-15, -24.14999999999999858 ) ) ;
#406 = AXIS2_PLACEMENT_3D ( 'NONE', #347, #67, #387 ) ;
#407 = FACE_OUTER_BOUND ( 'NONE', #172, .T. ) ;
#408 = DATE_AND_TIME ( #124, #105 ) ;
#409 = CC_DESIGN_PERSON_AND_ORGANIZATION_ASSIGNMENT ( #191, #248, ( #318 ) ) ;
#410 = AXIS2_PLACEMENT_3D ( 'NONE', #280, #216, #22 ) ;
#411 = AXIS2_PLACEMENT_3D ( 'NONE', #249, #92, #190 ) ;
ENDSEC;
END-ISO-10303-21;
