ISO-10303-21;
HEADER;
FILE_DESCRIPTION (( 'STEP AP203' ),
    '1' );
FILE_NAME ('3435-50-012-03_REV_.step',
    '2025-11-20T01:06:30',
    ( '' ),
    ( '' ),
    'SwSTEP 2.0',
    'SolidWorks 2025',
    '' );
FILE_SCHEMA (( 'CONFIG_CONTROL_DESIGN' ));
ENDSEC;

DATA;
#1 = EDGE_CURVE ( 'NONE', #50, #67, #28, .T. ) ;
#2 = DIRECTION ( 'NONE',  ( 1.000000000000000000, 0.000000000000000000, 0.000000000000000000 ) ) ;
#3 = AXIS2_PLACEMENT_3D ( 'NONE', #89, #180, #280 ) ;
#4 = DIRECTION ( 'NONE',  ( 0.000000000000000000, 0.000000000000000000, -1.000000000000000000 ) ) ;
#5 = CARTESIAN_POINT ( 'NONE',  ( 466.3146997001211957, 102.7088642316260660, 26.24999999999999289 ) ) ;
#6 = VERTEX_POINT ( 'NONE', #22 ) ;
#7 = FACE_OUTER_BOUND ( 'NONE', #383, .T. ) ;
#8 = VECTOR ( 'NONE', #218, 1000.000000000000000 ) ;
#9 = PERSON_AND_ORGANIZATION_ROLE ( 'creator' ) ;
#10 = DIRECTION ( 'NONE',  ( 0.8660254037844378194, 0.5000000000000013323, 0.000000000000000000 ) ) ;
#11 = DIRECTION ( 'NONE',  ( 1.000000000000000000, 0.000000000000000000, 0.000000000000000000 ) ) ;
#12 = ORIENTED_EDGE ( 'NONE', *, *, #154, .F. ) ;
#13 = AXIS2_PLACEMENT_3D ( 'NONE', #217, #372, #161 ) ;
#14 = CIRCLE ( 'NONE', #160, 30.15000000000001634 ) ;
#15 = ORIENTED_EDGE ( 'NONE', *, *, #368, .T. ) ;
#16 = MECHANICAL_CONTEXT ( 'NONE', #286, 'mechanical' ) ;
#17 = ORIENTED_EDGE ( 'NONE', *, *, #179, .T. ) ;
#18 = ORIENTED_EDGE ( 'NONE', *, *, #276, .F. ) ;
#19 = EDGE_CURVE ( 'NONE', #395, #232, #377, .T. ) ;
#20 = DATE_AND_TIME ( #339, #269 ) ;
#21 = CIRCLE ( 'NONE', #29, 30.15000000000001634 ) ;
#22 = CARTESIAN_POINT ( 'NONE',  ( 198.3146997001211389, 102.7088642316260660, 30.15000000000001634 ) ) ;
#23 = DIRECTION ( 'NONE',  ( 0.000000000000000000, 0.000000000000000000, -1.000000000000000000 ) ) ;
#24 = DIRECTION ( 'NONE',  ( 1.000000000000000000, 0.000000000000000000, 0.000000000000000000 ) ) ;
#25 = CALENDAR_DATE ( 2025, 20, 11 ) ;
#26 = CC_DESIGN_SECURITY_CLASSIFICATION ( #391, ( #360 ) ) ;
#27 = ADVANCED_FACE ( 'NONE', ( #55, #159 ), #340, .F. ) ;
#28 = CIRCLE ( 'NONE', #156, 26.24999999999999289 ) ;
#29 = AXIS2_PLACEMENT_3D ( 'NONE', #208, #151, #211 ) ;
#30 = ADVANCED_BREP_SHAPE_REPRESENTATION ( '3435-50-012-03_REV_', ( #374, #113, #222 ), #305 ) ;
#31 = LINE ( 'NONE', #302, #334 ) ;
#32 = EDGE_CURVE ( 'NONE', #43, #6, #31, .T. ) ;
#33 = LINE ( 'NONE', #5, #233 ) ;
#34 = ORIENTED_EDGE ( 'NONE', *, *, #59, .F. ) ;
#35 = CARTESIAN_POINT ( 'NONE',  ( 466.3146997001211957, 102.7088642316260660, 0.000000000000000000 ) ) ;
#36 = CARTESIAN_POINT ( 'NONE',  ( 198.3146997001211389, 102.7088642316260660, 0.000000000000000000 ) ) ;
#37 = VERTEX_POINT ( 'NONE', #186 ) ;
#38 = PRODUCT_DEFINITION_SHAPE ( 'NONE', 'NONE',  #104 ) ;
#39 = DIRECTION ( 'NONE',  ( 0.000000000000000000, 0.000000000000000000, -1.000000000000000000 ) ) ;
#40 = ORIENTED_EDGE ( 'NONE', *, *, #32, .T. ) ;
#41 = DIRECTION ( 'NONE',  ( 0.8660254037844379305, 0.5000000000000014433, 0.000000000000000000 ) ) ;
#42 = DIRECTION ( 'NONE',  ( 0.000000000000000000, 0.000000000000000000, -1.000000000000000000 ) ) ;
#43 = VERTEX_POINT ( 'NONE', #303 ) ;
#44 = CARTESIAN_POINT ( 'NONE',  ( 466.3146997001211957, 102.7088642316260660, -30.15000000000001634 ) ) ;
#45 = ORIENTED_EDGE ( 'NONE', *, *, #331, .F. ) ;
#46 =( NAMED_UNIT ( * ) SI_UNIT ( $, .STERADIAN. ) SOLID_ANGLE_UNIT ( ) );
#47 = ORIENTED_EDGE ( 'NONE', *, *, #255, .F. ) ;
#48 = AXIS2_PLACEMENT_3D ( 'NONE', #411, #314, #221 ) ;
#49 = CALENDAR_DATE ( 2025, 20, 11 ) ;
#50 = VERTEX_POINT ( 'NONE', #95 ) ;
#51 = ORIENTED_EDGE ( 'NONE', *, *, #331, .T. ) ;
#52 = DIRECTION ( 'NONE',  ( -1.000000000000000000, -0.000000000000000000, -0.000000000000000000 ) ) ;
#53 = SHAPE_DEFINITION_REPRESENTATION ( #38, #30 ) ;
#54 = AXIS2_PLACEMENT_3D ( 'NONE', #260, #173, #42 ) ;
#55 = FACE_BOUND ( 'NONE', #381, .T. ) ;
#56 = APPROVAL_STATUS ( 'not_yet_approved' ) ;
#57 = CARTESIAN_POINT ( 'NONE',  ( 145.1396997001209570, 118.6106659241010846, 3.692310099429272763E-15 ) ) ;
#58 = DATE_AND_TIME ( #25, #369 ) ;
#59 = EDGE_CURVE ( 'NONE', #329, #118, #83, .T. ) ;
#60 = DIRECTION ( 'NONE',  ( 0.5000000000000011102, -0.8660254037844379305, 0.000000000000000000 ) ) ;
#61 = DIRECTION ( 'NONE',  ( -0.8660254037844378194, -0.5000000000000013323, -0.000000000000000000 ) ) ;
#62 = PLANE ( 'NONE',  #363 ) ;
#63 = ADVANCED_FACE ( 'NONE', ( #246 ), #406, .F. ) ;
#64 = ORIENTED_EDGE ( 'NONE', *, *, #403, .T. ) ;
#65 = ADVANCED_FACE ( 'NONE', ( #96 ), #410, .F. ) ;
#66 = FACE_OUTER_BOUND ( 'NONE', #312, .T. ) ;
#67 = VERTEX_POINT ( 'NONE', #97 ) ;
#68 = DIRECTION ( 'NONE',  ( 0.000000000000000000, 0.000000000000000000, 1.000000000000000000 ) ) ;
#69 = AXIS2_PLACEMENT_3D ( 'NONE', #405, #300, #275 ) ;
#70 = AXIS2_PLACEMENT_3D ( 'NONE', #216, #192, #23 ) ;
#71 = DIRECTION ( 'NONE',  ( 1.000000000000000000, 0.000000000000000000, 0.000000000000000000 ) ) ;
#72 = ORIENTED_EDGE ( 'NONE', *, *, #19, .F. ) ;
#73 = FACE_OUTER_BOUND ( 'NONE', #176, .T. ) ;
#74 = DIRECTION ( 'NONE',  ( 0.000000000000000000, 0.000000000000000000, -1.000000000000000000 ) ) ;
#75 = EDGE_LOOP ( 'NONE', ( #388, #322 ) ) ;
#76 = LOCAL_TIME ( 12, 6, 30.00000000000000000, #234 ) ;
#77 = CIRCLE ( 'NONE', #316, 30.15000000000001634 ) ;
#78 = VERTEX_POINT ( 'NONE', #341 ) ;
#79 = DIRECTION ( 'NONE',  ( 1.000000000000000000, 0.000000000000000000, 0.000000000000000000 ) ) ;
#80 = ORIENTED_EDGE ( 'NONE', *, *, #32, .F. ) ;
#81 = CC_DESIGN_APPROVAL ( #92, ( #391 ) ) ;
#82 = CC_DESIGN_PERSON_AND_ORGANIZATION_ASSIGNMENT ( #241, #157, ( #360 ) ) ;
#83 = CIRCLE ( 'NONE', #69, 26.24999999999999289 ) ;
#84 = AXIS2_PLACEMENT_3D ( 'NONE', #147, #79, #120 ) ;
#85 = DIRECTION ( 'NONE',  ( 0.5000000000000014433, -0.8660254037844378194, 0.000000000000000000 ) ) ;
#86 = EDGE_CURVE ( 'NONE', #232, #78, #408, .T. ) ;
#87 = ORIENTED_EDGE ( 'NONE', *, *, #368, .F. ) ;
#88 = DATE_TIME_ROLE ( 'creation_date' ) ;
#89 = CARTESIAN_POINT ( 'NONE',  ( 466.3146997001211957, 102.7088642316260660, 0.000000000000000000 ) ) ;
#90 = COORDINATED_UNIVERSAL_TIME_OFFSET ( 10, 0, .AHEAD. ) ;
#91 = CYLINDRICAL_SURFACE ( 'NONE', #130, 30.15000000000003411 ) ;
#92 = APPROVAL ( #56, 'UNSPECIFIED' ) ;
#93 = COORDINATED_UNIVERSAL_TIME_OFFSET ( 10, 0, .AHEAD. ) ;
#94 = CIRCLE ( 'NONE', #184, 30.15000000000001634 ) ;
#95 = CARTESIAN_POINT ( 'NONE',  ( 173.3396997001210309, 69.76683315065876911, 0.000000000000000000 ) ) ;
#96 = FACE_OUTER_BOUND ( 'NONE', #107, .T. ) ;
#97 = CARTESIAN_POINT ( 'NONE',  ( 147.0896997001209741, 115.2331668493417283, 3.214697847761801978E-15 ) ) ;
#98 = LOCAL_TIME ( 12, 6, 30.00000000000000000, #93 ) ;
#99 = ADVANCED_FACE ( 'NONE', ( #370 ), #91, .T. ) ;
#100 = CARTESIAN_POINT ( 'NONE',  ( 175.2896997001210764, 66.38933407589942703, 0.000000000000000000 ) ) ;
#101 = VECTOR ( 'NONE', #325, 1000.000000000000227 ) ;
#102 = PLANE ( 'NONE',  #310 ) ;
#103 = CARTESIAN_POINT ( 'NONE',  ( 145.1396997001209570, 118.6106659241010846, 3.692310099429272763E-15 ) ) ;
#104 = PRODUCT_DEFINITION ( 'UNKNOWN', '', #360, #349 ) ;
#105 = DIRECTION ( 'NONE',  ( 1.000000000000000000, 0.000000000000000000, 0.000000000000000000 ) ) ;
#106 = APPROVAL_PERSON_ORGANIZATION ( #123, #182, #128 ) ;
#107 = EDGE_LOOP ( 'NONE', ( #210, #318, #15, #34 ) ) ;
#108 = CYLINDRICAL_SURFACE ( 'NONE', #384, 26.24999999999999289 ) ;
#109 = EDGE_LOOP ( 'NONE', ( #148, #264, #64, #111 ) ) ;
#110 = CALENDAR_DATE ( 2025, 20, 11 ) ;
#111 = ORIENTED_EDGE ( 'NONE', *, *, #387, .T. ) ;
#112 = ORIENTED_EDGE ( 'NONE', *, *, #179, .F. ) ;
#113 = MANIFOLD_SOLID_BREP ( 'Stainless chs 60.3 X 3.9 CHS(1)[2]', #315 ) ;
#114 = CLOSED_SHELL ( 'NONE', ( #247, #207, #320, #190, #237, #27 ) ) ;
#115 = VECTOR ( 'NONE', #256, 1000.000000000000000 ) ;
#116 = PERSON_AND_ORGANIZATION_ROLE ( 'design_owner' ) ;
#117 = CARTESIAN_POINT ( 'NONE',  ( 175.2896997001210764, 66.38933407589942703, 0.000000000000000000 ) ) ;
#118 = VERTEX_POINT ( 'NONE', #333 ) ;
#119 = EDGE_CURVE ( 'NONE', #150, #236, #14, .T. ) ;
#120 = DIRECTION ( 'NONE',  ( 0.000000000000000000, 0.000000000000000000, -1.000000000000000000 ) ) ;
#121 = EDGE_LOOP ( 'NONE', ( #291, #202, #17, #265 ) ) ;
#122 = CC_DESIGN_APPROVAL ( #182, ( #360 ) ) ;
#123 = PERSON_AND_ORGANIZATION ( #178, #181 ) ;
#124 = FACE_OUTER_BOUND ( 'NONE', #326, .T. ) ;
#125 = CC_DESIGN_DATE_AND_TIME_ASSIGNMENT ( #239, #88, ( #104 ) ) ;
#126 = EDGE_CURVE ( 'NONE', #236, #150, #149, .T. ) ;
#127 = DIRECTION ( 'NONE',  ( 0.000000000000000000, 0.000000000000000000, -1.000000000000000000 ) ) ;
#128 = APPROVAL_ROLE ( '' ) ;
#129 = DIRECTION ( 'NONE',  ( 0.000000000000000000, 0.000000000000000000, -1.000000000000000000 ) ) ;
#130 = AXIS2_PLACEMENT_3D ( 'NONE', #304, #61, #240 ) ;
#131 = DIRECTION ( 'NONE',  ( 0.8660254037844378194, 0.5000000000000013323, 0.000000000000000000 ) ) ;
#132 = DIRECTION ( 'NONE',  ( 0.5000000000000011102, -0.8660254037844379305, 0.000000000000000000 ) ) ;
#133 = EDGE_CURVE ( 'NONE', #67, #329, #306, .T. ) ;
#134 = DIRECTION ( 'NONE',  ( 0.000000000000000000, 0.000000000000000000, -1.000000000000000000 ) ) ;
#135 = CARTESIAN_POINT ( 'NONE',  ( 0.000000000000000000, 0.000000000000000000, 0.000000000000000000 ) ) ;
#136 = AXIS2_PLACEMENT_3D ( 'NONE', #231, #10, #389 ) ;
#137 = DIRECTION ( 'NONE',  ( 0.000000000000000000, 0.000000000000000000, -1.000000000000000000 ) ) ;
#138 = CARTESIAN_POINT ( 'NONE',  ( 198.3146997001211389, 102.7088642316260660, -30.15000000000001634 ) ) ;
#139 = ORIENTED_EDGE ( 'NONE', *, *, #1, .T. ) ;
#140 = ADVANCED_FACE ( 'NONE', ( #402, #124 ), #238, .T. ) ;
#141 = CARTESIAN_POINT ( 'NONE',  ( 198.3146997001211389, 102.7088642316260660, 0.000000000000000000 ) ) ;
#142 = CC_DESIGN_APPROVAL ( #273, ( #104 ) ) ;
#143 = AXIS2_PLACEMENT_3D ( 'NONE', #278, #188, #60 ) ;
#144 = AXIS2_PLACEMENT_3D ( 'NONE', #196, #307, #379 ) ;
#145 = COORDINATED_UNIVERSAL_TIME_OFFSET ( 10, 0, .AHEAD. ) ;
#146 = FACE_OUTER_BOUND ( 'NONE', #109, .T. ) ;
#147 = CARTESIAN_POINT ( 'NONE',  ( 198.3146997001211389, 102.7088642316260660, 0.000000000000000000 ) ) ;
#148 = ORIENTED_EDGE ( 'NONE', *, *, #309, .F. ) ;
#149 = CIRCLE ( 'NONE', #70, 30.15000000000001634 ) ;
#150 = VERTEX_POINT ( 'NONE', #57 ) ;
#151 = DIRECTION ( 'NONE',  ( 1.000000000000000000, 0.000000000000000000, 0.000000000000000000 ) ) ;
#152 = APPLICATION_CONTEXT ( 'configuration controlled 3d designs of mechanical parts and assemblies' ) ;
#153 = ORIENTED_EDGE ( 'NONE', *, *, #126, .T. ) ;
#154 = EDGE_CURVE ( 'NONE', #359, #43, #203, .T. ) ;
#155 = ORIENTED_EDGE ( 'NONE', *, *, #162, .T. ) ;
#156 = AXIS2_PLACEMENT_3D ( 'NONE', #158, #272, #129 ) ;
#157 = PERSON_AND_ORGANIZATION_ROLE ( 'creator' ) ;
#158 = CARTESIAN_POINT ( 'NONE',  ( 160.2146997001210025, 92.50000000000025580, 0.000000000000000000 ) ) ;
#159 = FACE_OUTER_BOUND ( 'NONE', #390, .T. ) ;
#160 = AXIS2_PLACEMENT_3D ( 'NONE', #330, #131, #127 ) ;
#161 = DIRECTION ( 'NONE',  ( 0.000000000000000000, 0.000000000000000000, -1.000000000000000000 ) ) ;
#162 = EDGE_CURVE ( 'NONE', #78, #292, #409, .T. ) ;
#163 = CARTESIAN_POINT ( 'NONE',  ( 147.0896997001209741, 115.2331668493417283, 3.214697847761801978E-15 ) ) ;
#164 = DIRECTION ( 'NONE',  ( -1.000000000000000000, -0.000000000000000000, -0.000000000000000000 ) ) ;
#165 = FACE_BOUND ( 'NONE', #323, .T. ) ;
#166 = AXIS2_PLACEMENT_3D ( 'NONE', #317, #294, #85 ) ;
#167 = CYLINDRICAL_SURFACE ( 'NONE', #144, 26.24999999999999289 ) ;
#168 = CARTESIAN_POINT ( 'NONE',  ( 466.3146997001211957, 102.7088642316260660, 0.000000000000000000 ) ) ;
#169 = CARTESIAN_POINT ( 'NONE',  ( 466.3146997001211957, 102.7088642316260660, 26.24999999999999289 ) ) ;
#170 = ORIENTED_EDGE ( 'NONE', *, *, #154, .T. ) ;
#171 = LINE ( 'NONE', #397, #101 ) ;
#172 = ORIENTED_EDGE ( 'NONE', *, *, #351, .F. ) ;
#173 = DIRECTION ( 'NONE',  ( 0.8660254037844378194, 0.5000000000000013323, 0.000000000000000000 ) ) ;
#174 = EDGE_LOOP ( 'NONE', ( #296, #261 ) ) ;
#175 = APPROVAL_DATE_TIME ( #355, #273 ) ;
#176 = EDGE_LOOP ( 'NONE', ( #259, #170 ) ) ;
#177 = ORIENTED_EDGE ( 'NONE', *, *, #1, .F. ) ;
#178 = PERSON ( 'UNSPECIFIED', 'UNSPECIFIED', 'UNSPECIFIED', ('UNSPECIFIED'), ('UNSPECIFIED'), ('UNSPECIFIED') ) ;
#179 = EDGE_CURVE ( 'NONE', #395, #292, #33, .T. ) ;
#180 = DIRECTION ( 'NONE',  ( 1.000000000000000000, 0.000000000000000000, 0.000000000000000000 ) ) ;
#181 = ORGANIZATION ( 'UNSPECIFIED', 'UNSPECIFIED', '' ) ;
#182 = APPROVAL ( #401, 'UNSPECIFIED' ) ;
#183 = LOCAL_TIME ( 12, 6, 30.00000000000000000, #145 ) ;
#184 = AXIS2_PLACEMENT_3D ( 'NONE', #135, #279, #134 ) ;
#185 = SECURITY_CLASSIFICATION_LEVEL ( 'unclassified' ) ;
#186 = CARTESIAN_POINT ( 'NONE',  ( -15.07500000000005969, 26.11066592410082876, 3.692310099429272763E-15 ) ) ;
#187 = PERSON_AND_ORGANIZATION ( #178, #181 ) ;
#188 = DIRECTION ( 'NONE',  ( -0.8660254037844378194, -0.5000000000000013323, -0.000000000000000000 ) ) ;
#189 = PERSON_AND_ORGANIZATION ( #178, #181 ) ;
#190 = ADVANCED_FACE ( 'NONE', ( #7 ), #283, .T. ) ;
#191 = CARTESIAN_POINT ( 'NONE',  ( 466.3146997001211957, 102.7088642316260660, -26.24999999999999289 ) ) ;
#192 = DIRECTION ( 'NONE',  ( 0.8660254037844378194, 0.5000000000000013323, 0.000000000000000000 ) ) ;
#193 = CARTESIAN_POINT ( 'NONE',  ( 466.3146997001211957, 102.7088642316260660, -30.15000000000001634 ) ) ;
#194 = ORIENTED_EDGE ( 'NONE', *, *, #19, .T. ) ;
#195 = EDGE_CURVE ( 'NONE', #37, #270, #94, .T. ) ;
#196 = CARTESIAN_POINT ( 'NONE',  ( 466.3146997001211957, 102.7088642316260660, 0.000000000000000000 ) ) ;
#197 = CARTESIAN_POINT ( 'NONE',  ( -13.12500000000002487, 22.73316684934147247, 3.214697847761801978E-15 ) ) ;
#198 = AXIS2_PLACEMENT_3D ( 'NONE', #311, #2, #39 ) ;
#199 = CARTESIAN_POINT ( 'NONE',  ( 0.000000000000000000, 0.000000000000000000, 0.000000000000000000 ) ) ;
#200 = CYLINDRICAL_SURFACE ( 'NONE', #48, 30.15000000000001634 ) ;
#201 = CYLINDRICAL_SURFACE ( 'NONE', #166, 30.15000000000003411 ) ;
#202 = ORIENTED_EDGE ( 'NONE', *, *, #250, .T. ) ;
#203 = CIRCLE ( 'NONE', #3, 30.15000000000001634 ) ;
#204 = ORIENTED_EDGE ( 'NONE', *, *, #404, .F. ) ;
#205 = LINE ( 'NONE', #117, #378 ) ;
#206 = ORIENTED_EDGE ( 'NONE', *, *, #133, .T. ) ;
#207 = ADVANCED_FACE ( 'NONE', ( #66 ), #167, .F. ) ;
#208 = CARTESIAN_POINT ( 'NONE',  ( 466.3146997001211957, 102.7088642316260660, 0.000000000000000000 ) ) ;
#209 = APPROVAL_PERSON_ORGANIZATION ( #399, #273, #393 ) ;
#210 = ORIENTED_EDGE ( 'NONE', *, *, #133, .F. ) ;
#211 = DIRECTION ( 'NONE',  ( 0.000000000000000000, 0.000000000000000000, -1.000000000000000000 ) ) ;
#212 = EDGE_LOOP ( 'NONE', ( #235, #230, #284, #289 ) ) ;
#213 = DIRECTION ( 'NONE',  ( 0.000000000000000000, 0.000000000000000000, -1.000000000000000000 ) ) ;
#214 = APPROVAL_DATE_TIME ( #245, #92 ) ;
#215 = EDGE_LOOP ( 'NONE', ( #177, #204 ) ) ;
#216 = CARTESIAN_POINT ( 'NONE',  ( 160.2146997001210025, 92.50000000000025580, 0.000000000000000000 ) ) ;
#217 = CARTESIAN_POINT ( 'NONE',  ( 466.3146997001211957, 102.7088642316260660, 0.000000000000000000 ) ) ;
#218 = DIRECTION ( 'NONE',  ( -1.000000000000000000, -0.000000000000000000, -0.000000000000000000 ) ) ;
#219 = DIRECTION ( 'NONE',  ( 0.000000000000000000, 0.000000000000000000, -1.000000000000000000 ) ) ;
#220 = CARTESIAN_POINT ( 'NONE',  ( 0.000000000000000000, 0.000000000000000000, 0.000000000000000000 ) ) ;
#221 = DIRECTION ( 'NONE',  ( 0.000000000000000000, 0.000000000000000000, 1.000000000000000000 ) ) ;
#222 = AXIS2_PLACEMENT_3D ( 'NONE', #321, #266, #11 ) ;
#223 = PRODUCT ( '3435-50-012-03_REV_', '3435-50-012-03_REV_', '', ( #16 ) ) ;
#224 = FACE_OUTER_BOUND ( 'NONE', #75, .T. ) ;
#225 = AXIS2_PLACEMENT_3D ( 'NONE', #382, #105, #285 ) ;
#226 = VERTEX_POINT ( 'NONE', #138 ) ;
#227 = ADVANCED_FACE ( 'NONE', ( #313, #224 ), #102, .F. ) ;
#228 = CARTESIAN_POINT ( 'NONE',  ( 466.3146997001211957, 102.7088642316260660, 0.000000000000000000 ) ) ;
#229 = APPROVAL_STATUS ( 'not_yet_approved' ) ;
#230 = ORIENTED_EDGE ( 'NONE', *, *, #309, .T. ) ;
#231 = CARTESIAN_POINT ( 'NONE',  ( 160.2146997001210025, 92.50000000000025580, 0.000000000000000000 ) ) ;
#232 = VERTEX_POINT ( 'NONE', #308 ) ;
#233 = VECTOR ( 'NONE', #164, 1000.000000000000000 ) ;
#234 = COORDINATED_UNIVERSAL_TIME_OFFSET ( 10, 0, .AHEAD. ) ;
#235 = ORIENTED_EDGE ( 'NONE', *, *, #119, .F. ) ;
#236 = VERTEX_POINT ( 'NONE', #100 ) ;
#237 = ADVANCED_FACE ( 'NONE', ( #165, #73 ), #62, .T. ) ;
#238 = PLANE ( 'NONE',  #353 ) ;
#239 = DATE_AND_TIME ( #110, #183 ) ;
#240 = DIRECTION ( 'NONE',  ( 0.5000000000000014433, -0.8660254037844378194, 0.000000000000000000 ) ) ;
#241 = PERSON_AND_ORGANIZATION ( #178, #181 ) ;
#242 = DIRECTION ( 'NONE',  ( -0.8660254037844378194, -0.5000000000000013323, -0.000000000000000000 ) ) ;
#243 = AXIS2_PLACEMENT_3D ( 'NONE', #375, #24, #274 ) ;
#244 = DIRECTION ( 'NONE',  ( -0.8660254037844378194, -0.5000000000000013323, -0.000000000000000000 ) ) ;
#245 = DATE_AND_TIME ( #271, #98 ) ;
#246 = FACE_OUTER_BOUND ( 'NONE', #297, .T. ) ;
#247 = ADVANCED_FACE ( 'NONE', ( #253 ), #200, .T. ) ;
#248 = FACE_OUTER_BOUND ( 'NONE', #121, .T. ) ;
#249 = CIRCLE ( 'NONE', #54, 30.15000000000001634 ) ;
#250 = EDGE_CURVE ( 'NONE', #232, #395, #335, .T. ) ;
#251 = DIRECTION ( 'NONE',  ( -1.000000000000000000, -0.000000000000000000, -0.000000000000000000 ) ) ;
#252 = LINE ( 'NONE', #193, #115 ) ;
#253 = FACE_OUTER_BOUND ( 'NONE', #354, .T. ) ;
#254 = ORIENTED_EDGE ( 'NONE', *, *, #336, .F. ) ;
#255 = EDGE_CURVE ( 'NONE', #6, #226, #77, .T. ) ;
#256 = DIRECTION ( 'NONE',  ( -1.000000000000000000, -0.000000000000000000, -0.000000000000000000 ) ) ;
#257 = CIRCLE ( 'NONE', #84, 30.15000000000001634 ) ;
#258 = APPLICATION_PROTOCOL_DEFINITION ( 'international standard', 'config_control_design', 1994, #152 ) ;
#259 = ORIENTED_EDGE ( 'NONE', *, *, #336, .T. ) ;
#260 = CARTESIAN_POINT ( 'NONE',  ( 0.000000000000000000, 0.000000000000000000, 0.000000000000000000 ) ) ;
#261 = ORIENTED_EDGE ( 'NONE', *, *, #59, .T. ) ;
#262 = PERSON_AND_ORGANIZATION ( #178, #181 ) ;
#263 = EDGE_CURVE ( 'NONE', #118, #329, #293, .T. ) ;
#264 = ORIENTED_EDGE ( 'NONE', *, *, #126, .F. ) ;
#265 = ORIENTED_EDGE ( 'NONE', *, *, #162, .F. ) ;
#266 = DIRECTION ( 'NONE',  ( 0.000000000000000000, 0.000000000000000000, 1.000000000000000000 ) ) ;
#267 = ORIENTED_EDGE ( 'NONE', *, *, #263, .F. ) ;
#268 = DATE_TIME_ROLE ( 'classification_date' ) ;
#269 = LOCAL_TIME ( 12, 6, 30.00000000000000000, #90 ) ;
#270 = VERTEX_POINT ( 'NONE', #343 ) ;
#271 = CALENDAR_DATE ( 2025, 20, 11 ) ;
#272 = DIRECTION ( 'NONE',  ( 0.8660254037844378194, 0.5000000000000013323, 0.000000000000000000 ) ) ;
#273 = APPROVAL ( #229, 'UNSPECIFIED' ) ;
#274 = DIRECTION ( 'NONE',  ( 0.000000000000000000, 0.000000000000000000, -1.000000000000000000 ) ) ;
#275 = DIRECTION ( 'NONE',  ( 0.000000000000000000, 0.000000000000000000, -1.000000000000000000 ) ) ;
#276 = EDGE_CURVE ( 'NONE', #359, #226, #252, .T. ) ;
#277 = VECTOR ( 'NONE', #345, 1000.000000000000227 ) ;
#278 = CARTESIAN_POINT ( 'NONE',  ( 160.2146997001210025, 92.50000000000025580, 0.000000000000000000 ) ) ;
#279 = DIRECTION ( 'NONE',  ( 0.8660254037844378194, 0.5000000000000013323, 0.000000000000000000 ) ) ;
#280 = DIRECTION ( 'NONE',  ( 0.000000000000000000, 0.000000000000000000, -1.000000000000000000 ) ) ;
#281 = CIRCLE ( 'NONE', #327, 26.24999999999999289 ) ;
#282 = DIRECTION ( 'NONE',  ( 1.000000000000000000, 0.000000000000000000, 0.000000000000000000 ) ) ;
#283 = CYLINDRICAL_SURFACE ( 'NONE', #346, 30.15000000000001634 ) ;
#284 = ORIENTED_EDGE ( 'NONE', *, *, #195, .T. ) ;
#285 = DIRECTION ( 'NONE',  ( 0.000000000000000000, 0.000000000000000000, -1.000000000000000000 ) ) ;
#286 = APPLICATION_CONTEXT ( 'configuration controlled 3d designs of mechanical parts and assemblies' ) ;
#287 = AXIS2_PLACEMENT_3D ( 'NONE', #367, #242, #132 ) ;
#288 = DIRECTION ( 'NONE',  ( -0.8660254037844378194, -0.5000000000000013323, -0.000000000000000000 ) ) ;
#289 = ORIENTED_EDGE ( 'NONE', *, *, #403, .F. ) ;
#290 = DIRECTION ( 'NONE',  ( 1.000000000000000000, 0.000000000000000000, 0.000000000000000000 ) ) ;
#291 = ORIENTED_EDGE ( 'NONE', *, *, #86, .F. ) ;
#292 = VERTEX_POINT ( 'NONE', #380 ) ;
#293 = CIRCLE ( 'NONE', #392, 26.24999999999999289 ) ;
#294 = DIRECTION ( 'NONE',  ( -0.8660254037844378194, -0.5000000000000013323, -0.000000000000000000 ) ) ;
#295 = CC_DESIGN_PERSON_AND_ORGANIZATION_ASSIGNMENT ( #262, #116, ( #223 ) ) ;
#296 = ORIENTED_EDGE ( 'NONE', *, *, #263, .T. ) ;
#297 = EDGE_LOOP ( 'NONE', ( #139, #206, #267, #87 ) ) ;
#298 = PERSON_AND_ORGANIZATION_ROLE ( 'design_supplier' ) ;
#299 = APPROVAL_PERSON_ORGANIZATION ( #332, #92, #364 ) ;
#300 = DIRECTION ( 'NONE',  ( 0.8660254037844378194, 0.5000000000000013323, 0.000000000000000000 ) ) ;
#301 = CIRCLE ( 'NONE', #136, 26.24999999999999289 ) ;
#302 = CARTESIAN_POINT ( 'NONE',  ( 466.3146997001211957, 102.7088642316260660, 30.15000000000001634 ) ) ;
#303 = CARTESIAN_POINT ( 'NONE',  ( 466.3146997001211957, 102.7088642316260660, 30.15000000000001634 ) ) ;
#304 = CARTESIAN_POINT ( 'NONE',  ( 160.2146997001210025, 92.50000000000025580, 0.000000000000000000 ) ) ;
#305 =( GEOMETRIC_REPRESENTATION_CONTEXT ( 3 ) GLOBAL_UNCERTAINTY_ASSIGNED_CONTEXT ( ( #396 ) ) GLOBAL_UNIT_ASSIGNED_CONTEXT ( ( #350, #328, #46 ) ) REPRESENTATION_CONTEXT ( 'NONE', 'WORKASPACE' ) );
#306 = LINE ( 'NONE', #163, #371 ) ;
#307 = DIRECTION ( 'NONE',  ( -1.000000000000000000, -0.000000000000000000, -0.000000000000000000 ) ) ;
#308 = CARTESIAN_POINT ( 'NONE',  ( 466.3146997001211957, 102.7088642316260660, -26.24999999999999289 ) ) ;
#309 = EDGE_CURVE ( 'NONE', #150, #37, #385, .T. ) ;
#310 = AXIS2_PLACEMENT_3D ( 'NONE', #199, #41, #342 ) ;
#311 = CARTESIAN_POINT ( 'NONE',  ( 198.3146997001211389, 102.7088642316260660, 0.000000000000000000 ) ) ;
#312 = EDGE_LOOP ( 'NONE', ( #194, #352, #45, #112 ) ) ;
#313 = FACE_BOUND ( 'NONE', #174, .T. ) ;
#314 = DIRECTION ( 'NONE',  ( -1.000000000000000000, -0.000000000000000000, -0.000000000000000000 ) ) ;
#315 = CLOSED_SHELL ( 'NONE', ( #99, #63, #65, #357, #140, #227 ) ) ;
#316 = AXIS2_PLACEMENT_3D ( 'NONE', #141, #282, #137 ) ;
#317 = CARTESIAN_POINT ( 'NONE',  ( 160.2146997001210025, 92.50000000000025580, 0.000000000000000000 ) ) ;
#318 = ORIENTED_EDGE ( 'NONE', *, *, #404, .T. ) ;
#319 = PRODUCT_RELATED_PRODUCT_CATEGORY ( 'detail', '', ( #223 ) ) ;
#320 = ADVANCED_FACE ( 'NONE', ( #248 ), #108, .F. ) ;
#321 = CARTESIAN_POINT ( 'NONE',  ( 0.000000000000000000, 0.000000000000000000, 0.000000000000000000 ) ) ;
#322 = ORIENTED_EDGE ( 'NONE', *, *, #195, .F. ) ;
#323 = EDGE_LOOP ( 'NONE', ( #72, #398 ) ) ;
#324 = CC_DESIGN_PERSON_AND_ORGANIZATION_ASSIGNMENT ( #189, #407, ( #391 ) ) ;
#325 = DIRECTION ( 'NONE',  ( -0.8660254037844378194, -0.5000000000000013323, -0.000000000000000000 ) ) ;
#326 = EDGE_LOOP ( 'NONE', ( #153, #344 ) ) ;
#327 = AXIS2_PLACEMENT_3D ( 'NONE', #36, #290, #74 ) ;
#328 =( NAMED_UNIT ( * ) PLANE_ANGLE_UNIT ( ) SI_UNIT ( $, .RADIAN. ) );
#329 = VERTEX_POINT ( 'NONE', #197 ) ;
#330 = CARTESIAN_POINT ( 'NONE',  ( 160.2146997001210025, 92.50000000000025580, 0.000000000000000000 ) ) ;
#331 = EDGE_CURVE ( 'NONE', #292, #78, #281, .T. ) ;
#332 = PERSON_AND_ORGANIZATION ( #178, #181 ) ;
#333 = CARTESIAN_POINT ( 'NONE',  ( 13.12500000000002487, -22.73316684934148668, 0.000000000000000000 ) ) ;
#334 = VECTOR ( 'NONE', #52, 1000.000000000000000 ) ;
#335 = CIRCLE ( 'NONE', #225, 26.24999999999999289 ) ;
#336 = EDGE_CURVE ( 'NONE', #43, #359, #21, .T. ) ;
#337 = COORDINATED_UNIVERSAL_TIME_OFFSET ( 10, 0, .AHEAD. ) ;
#338 = CARTESIAN_POINT ( 'NONE',  ( 160.2146997001210025, 92.50000000000025580, 0.000000000000000000 ) ) ;
#339 = CALENDAR_DATE ( 2025, 20, 11 ) ;
#340 = PLANE ( 'NONE',  #243 ) ;
#341 = CARTESIAN_POINT ( 'NONE',  ( 198.3146997001211389, 102.7088642316260660, -26.24999999999999289 ) ) ;
#342 = DIRECTION ( 'NONE',  ( 0.000000000000000000, 0.000000000000000000, -1.000000000000000000 ) ) ;
#343 = CARTESIAN_POINT ( 'NONE',  ( 15.07500000000005969, -26.11066592410084297, 0.000000000000000000 ) ) ;
#344 = ORIENTED_EDGE ( 'NONE', *, *, #119, .T. ) ;
#345 = DIRECTION ( 'NONE',  ( -0.8660254037844378194, -0.5000000000000013323, -0.000000000000000000 ) ) ;
#346 = AXIS2_PLACEMENT_3D ( 'NONE', #35, #251, #348 ) ;
#347 = DIRECTION ( 'NONE',  ( 0.8660254037844378194, 0.5000000000000013323, 0.000000000000000000 ) ) ;
#348 = DIRECTION ( 'NONE',  ( 0.000000000000000000, 0.000000000000000000, 1.000000000000000000 ) ) ;
#349 = DESIGN_CONTEXT ( 'detailed design', #152, 'design' ) ;
#350 =( LENGTH_UNIT ( ) NAMED_UNIT ( * ) SI_UNIT ( .MILLI., .METRE. ) );
#351 = EDGE_CURVE ( 'NONE', #226, #6, #257, .T. ) ;
#352 = ORIENTED_EDGE ( 'NONE', *, *, #86, .T. ) ;
#353 = AXIS2_PLACEMENT_3D ( 'NONE', #338, #365, #213 ) ;
#354 = EDGE_LOOP ( 'NONE', ( #12, #362, #400, #80 ) ) ;
#355 = DATE_AND_TIME ( #49, #76 ) ;
#356 = ORIENTED_EDGE ( 'NONE', *, *, #255, .T. ) ;
#357 = ADVANCED_FACE ( 'NONE', ( #146 ), #201, .T. ) ;
#358 = APPLICATION_PROTOCOL_DEFINITION ( 'international standard', 'config_control_design', 1994, #286 ) ;
#359 = VERTEX_POINT ( 'NONE', #44 ) ;
#360 = PRODUCT_DEFINITION_FORMATION_WITH_SPECIFIED_SOURCE ( 'ANY', '', #223, .NOT_KNOWN. ) ;
#361 = PERSON_AND_ORGANIZATION ( #178, #181 ) ;
#362 = ORIENTED_EDGE ( 'NONE', *, *, #276, .T. ) ;
#363 = AXIS2_PLACEMENT_3D ( 'NONE', #168, #71, #219 ) ;
#364 = APPROVAL_ROLE ( '' ) ;
#365 = DIRECTION ( 'NONE',  ( 0.8660254037844379305, 0.5000000000000014433, 0.000000000000000000 ) ) ;
#366 = APPROVAL_DATE_TIME ( #58, #182 ) ;
#367 = CARTESIAN_POINT ( 'NONE',  ( 160.2146997001210025, 92.50000000000025580, 0.000000000000000000 ) ) ;
#368 = EDGE_CURVE ( 'NONE', #50, #118, #171, .T. ) ;
#369 = LOCAL_TIME ( 12, 6, 30.00000000000000000, #337 ) ;
#370 = FACE_OUTER_BOUND ( 'NONE', #212, .T. ) ;
#371 = VECTOR ( 'NONE', #244, 1000.000000000000227 ) ;
#372 = DIRECTION ( 'NONE',  ( 1.000000000000000000, 0.000000000000000000, 0.000000000000000000 ) ) ;
#373 = CC_DESIGN_PERSON_AND_ORGANIZATION_ASSIGNMENT ( #361, #9, ( #104 ) ) ;
#374 = MANIFOLD_SOLID_BREP ( 'Stainless chs 60.3 X 3.9 CHS(1)[1]', #114 ) ;
#375 = CARTESIAN_POINT ( 'NONE',  ( 198.3146997001211389, 102.7088642316260660, 0.000000000000000000 ) ) ;
#376 = DIRECTION ( 'NONE',  ( -1.000000000000000000, -0.000000000000000000, -0.000000000000000000 ) ) ;
#377 = CIRCLE ( 'NONE', #13, 26.24999999999999289 ) ;
#378 = VECTOR ( 'NONE', #288, 1000.000000000000227 ) ;
#379 = DIRECTION ( 'NONE',  ( 0.000000000000000000, 0.000000000000000000, 1.000000000000000000 ) ) ;
#380 = CARTESIAN_POINT ( 'NONE',  ( 198.3146997001211389, 102.7088642316260660, 26.24999999999999289 ) ) ;
#381 = EDGE_LOOP ( 'NONE', ( #51, #155 ) ) ;
#382 = CARTESIAN_POINT ( 'NONE',  ( 466.3146997001211957, 102.7088642316260660, 0.000000000000000000 ) ) ;
#383 = EDGE_LOOP ( 'NONE', ( #18, #254, #40, #356 ) ) ;
#384 = AXIS2_PLACEMENT_3D ( 'NONE', #228, #376, #68 ) ;
#385 = LINE ( 'NONE', #103, #277 ) ;
#386 = CC_DESIGN_PERSON_AND_ORGANIZATION_ASSIGNMENT ( #187, #298, ( #360 ) ) ;
#387 = EDGE_CURVE ( 'NONE', #270, #37, #249, .T. ) ;
#388 = ORIENTED_EDGE ( 'NONE', *, *, #387, .F. ) ;
#389 = DIRECTION ( 'NONE',  ( 0.000000000000000000, 0.000000000000000000, -1.000000000000000000 ) ) ;
#390 = EDGE_LOOP ( 'NONE', ( #47, #172 ) ) ;
#391 = SECURITY_CLASSIFICATION ( '', '', #185 ) ;
#392 = AXIS2_PLACEMENT_3D ( 'NONE', #220, #347, #4 ) ;
#393 = APPROVAL_ROLE ( '' ) ;
#394 = CC_DESIGN_DATE_AND_TIME_ASSIGNMENT ( #20, #268, ( #391 ) ) ;
#395 = VERTEX_POINT ( 'NONE', #169 ) ;
#396 = UNCERTAINTY_MEASURE_WITH_UNIT (LENGTH_MEASURE( 1.000000000000000082E-05 ), #350, 'distance_accuracy_value', 'NONE');
#397 = CARTESIAN_POINT ( 'NONE',  ( 173.3396997001210309, 69.76683315065876911, 0.000000000000000000 ) ) ;
#398 = ORIENTED_EDGE ( 'NONE', *, *, #250, .F. ) ;
#399 = PERSON_AND_ORGANIZATION ( #178, #181 ) ;
#400 = ORIENTED_EDGE ( 'NONE', *, *, #351, .T. ) ;
#401 = APPROVAL_STATUS ( 'not_yet_approved' ) ;
#402 = FACE_BOUND ( 'NONE', #215, .T. ) ;
#403 = EDGE_CURVE ( 'NONE', #236, #270, #205, .T. ) ;
#404 = EDGE_CURVE ( 'NONE', #67, #50, #301, .T. ) ;
#405 = CARTESIAN_POINT ( 'NONE',  ( 0.000000000000000000, 0.000000000000000000, 0.000000000000000000 ) ) ;
#406 = CYLINDRICAL_SURFACE ( 'NONE', #143, 26.24999999999998934 ) ;
#407 = PERSON_AND_ORGANIZATION_ROLE ( 'classification_officer' ) ;
#408 = LINE ( 'NONE', #191, #8 ) ;
#409 = CIRCLE ( 'NONE', #198, 26.24999999999999289 ) ;
#410 = CYLINDRICAL_SURFACE ( 'NONE', #287, 26.24999999999998934 ) ;
#411 = CARTESIAN_POINT ( 'NONE',  ( 466.3146997001211957, 102.7088642316260660, 0.000000000000000000 ) ) ;
ENDSEC;
END-ISO-10303-21;
