ISO-10303-21;
HEADER;
FILE_DESCRIPTION (( 'STEP AP203' ),
    '1' );
FILE_NAME ('3435-50-012-04_REV_.step',
    '2025-11-20T01:06:24',
    ( '' ),
    ( '' ),
    'SwSTEP 2.0',
    'SolidWorks 2025',
    '' );
FILE_SCHEMA (( 'CONFIG_CONTROL_DESIGN' ));
ENDSEC;

DATA;
#1 = EDGE_LOOP ( 'NONE', ( #165, #92 ) ) ;
#2 = ORIENTED_EDGE ( 'NONE', *, *, #34, .F. ) ;
#3 = AXIS2_PLACEMENT_3D ( 'NONE', #75, #96, #204 ) ;
#4 = CC_DESIGN_SECURITY_CLASSIFICATION ( #160, ( #249 ) ) ;
#5 = EDGE_LOOP ( 'NONE', ( #2, #184 ) ) ;
#6 = ORIENTED_EDGE ( 'NONE', *, *, #176, .F. ) ;
#7 = APPLICATION_PROTOCOL_DEFINITION ( 'international standard', 'config_control_design', 1994, #128 ) ;
#8 = AXIS2_PLACEMENT_3D ( 'NONE', #242, #198, #44 ) ;
#9 = CC_DESIGN_APPROVAL ( #90, ( #125 ) ) ;
#10 = DIRECTION ( 'NONE',  ( -1.000000000000000000, -3.061616997868382648E-16, 0.000000000000000000 ) ) ;
#11 = FACE_BOUND ( 'NONE', #203, .T. ) ;
#12 = FACE_OUTER_BOUND ( 'NONE', #110, .T. ) ;
#13 = EDGE_CURVE ( 'NONE', #132, #237, #241, .T. ) ;
#14 = CIRCLE ( 'NONE', #127, 30.14999999999999858 ) ;
#15 = CARTESIAN_POINT ( 'NONE',  ( 20.00000000000000000, 4.959819536546780600E-15, 0.000000000000000000 ) ) ;
#16 = ADVANCED_FACE ( 'NONE', ( #209 ), #42, .F. ) ;
#17 = DIRECTION ( 'NONE',  ( 1.000000000000000000, 3.061616997868382648E-16, -0.000000000000000000 ) ) ;
#18 = CARTESIAN_POINT ( 'NONE',  ( -20.00000000000001066, 30.14999999999999147, 0.000000000000000000 ) ) ;
#19 = DATE_AND_TIME ( #212, #113 ) ;
#20 = DIRECTION ( 'NONE',  ( 1.000000000000000000, 3.061616997868382648E-16, -0.000000000000000000 ) ) ;
#21 = AXIS2_PLACEMENT_3D ( 'NONE', #117, #208, #145 ) ;
#22 = SECURITY_CLASSIFICATION_LEVEL ( 'unclassified' ) ;
#23 = EDGE_CURVE ( 'NONE', #109, #217, #82, .T. ) ;
#24 = UNCERTAINTY_MEASURE_WITH_UNIT (LENGTH_MEASURE( 1.000000000000000082E-05 ), #202, 'distance_accuracy_value', 'NONE');
#25 = AXIS2_PLACEMENT_3D ( 'NONE', #191, #181, #155 ) ;
#26 = ORIENTED_EDGE ( 'NONE', *, *, #236, .T. ) ;
#27 = CYLINDRICAL_SURFACE ( 'NONE', #3, 30.14999999999999858 ) ;
#28 = PRODUCT ( '3435-50-012-04_REV_', '3435-50-012-04_REV_', '', ( #239 ) ) ;
#29 = AXIS2_PLACEMENT_3D ( 'NONE', #227, #61, #174 ) ;
#30 = ORIENTED_EDGE ( 'NONE', *, *, #213, .F. ) ;
#31 = ORIENTED_EDGE ( 'NONE', *, *, #99, .T. ) ;
#32 = CARTESIAN_POINT ( 'NONE',  ( 20.00000000000000711, -26.24999999999999645, 3.214697847761801978E-15 ) ) ;
#33 = APPROVAL_DATE_TIME ( #116, #90 ) ;
#34 = EDGE_CURVE ( 'NONE', #232, #91, #14, .T. ) ;
#35 = COORDINATED_UNIVERSAL_TIME_OFFSET ( 10, 0, .AHEAD. ) ;
#36 = ADVANCED_FACE ( 'NONE', ( #120 ), #180, .F. ) ;
#37 = CALENDAR_DATE ( 2025, 20, 11 ) ;
#38 = CARTESIAN_POINT ( 'NONE',  ( -20.00000000000000711, 26.24999999999999289, 0.000000000000000000 ) ) ;
#39 = DIRECTION ( 'NONE',  ( -1.000000000000000000, -3.061616997868382648E-16, 0.000000000000000000 ) ) ;
#40 = LOCAL_TIME ( 12, 6, 24.00000000000000000, #59 ) ;
#41 = PERSON_AND_ORGANIZATION ( #187, #142 ) ;
#42 = CYLINDRICAL_SURFACE ( 'NONE', #21, 26.25000000000000000 ) ;
#43 = PERSON_AND_ORGANIZATION_ROLE ( 'classification_officer' ) ;
#44 = DIRECTION ( 'NONE',  ( 3.061616997868382648E-16, -1.000000000000000000, 0.000000000000000000 ) ) ;
#45 = APPROVAL_DATE_TIME ( #79, #115 ) ;
#46 = CC_DESIGN_PERSON_AND_ORGANIZATION_ASSIGNMENT ( #146, #43, ( #160 ) ) ;
#47 = ORIENTED_EDGE ( 'NONE', *, *, #84, .T. ) ;
#48 = CARTESIAN_POINT ( 'NONE',  ( -20.00000000000000000, -7.286648454926750781E-15, 0.000000000000000000 ) ) ;
#49 = ORIENTED_EDGE ( 'NONE', *, *, #131, .T. ) ;
#50 = EDGE_LOOP ( 'NONE', ( #219, #86, #67, #168 ) ) ;
#51 = AXIS2_PLACEMENT_3D ( 'NONE', #161, #104, #179 ) ;
#52 = EDGE_LOOP ( 'NONE', ( #26, #108 ) ) ;
#53 = CARTESIAN_POINT ( 'NONE',  ( 0.000000000000000000, 0.000000000000000000, 0.000000000000000000 ) ) ;
#54 = DIRECTION ( 'NONE',  ( 1.000000000000000000, 0.000000000000000000, 0.000000000000000000 ) ) ;
#55 = AXIS2_PLACEMENT_3D ( 'NONE', #173, #69, #129 ) ;
#56 = CARTESIAN_POINT ( 'NONE',  ( 19.99999999999998934, 30.15000000000000213, 0.000000000000000000 ) ) ;
#57 = FACE_OUTER_BOUND ( 'NONE', #1, .T. ) ;
#58 = CARTESIAN_POINT ( 'NONE',  ( -20.00000000000000711, 26.24999999999999645, 0.000000000000000000 ) ) ;
#59 = COORDINATED_UNIVERSAL_TIME_OFFSET ( 10, 0, .AHEAD. ) ;
#60 = VECTOR ( 'NONE', #211, 1000.000000000000000 ) ;
#61 = DIRECTION ( 'NONE',  ( -1.000000000000000000, -3.061616997868382648E-16, 0.000000000000000000 ) ) ;
#62 = PERSON_AND_ORGANIZATION ( #187, #142 ) ;
#63 = DIRECTION ( 'NONE',  ( 1.000000000000000000, 3.061616997868382648E-16, -0.000000000000000000 ) ) ;
#64 = APPROVAL_DATE_TIME ( #83, #222 ) ;
#65 = SHAPE_DEFINITION_REPRESENTATION ( #68, #71 ) ;
#66 = CC_DESIGN_DATE_AND_TIME_ASSIGNMENT ( #240, #148, ( #125 ) ) ;
#67 = ORIENTED_EDGE ( 'NONE', *, *, #13, .T. ) ;
#68 = PRODUCT_DEFINITION_SHAPE ( 'NONE', 'NONE',  #125 ) ;
#69 = DIRECTION ( 'NONE',  ( -1.000000000000000000, -3.061616997868382648E-16, 0.000000000000000000 ) ) ;
#70 = AXIS2_PLACEMENT_3D ( 'NONE', #78, #156, #229 ) ;
#71 = ADVANCED_BREP_SHAPE_REPRESENTATION ( '3435-50-012-04_REV_', ( #153, #74 ), #136 ) ;
#72 = EDGE_LOOP ( 'NONE', ( #149, #151, #188, #167 ) ) ;
#73 = VECTOR ( 'NONE', #17, 1000.000000000000000 ) ;
#74 = AXIS2_PLACEMENT_3D ( 'NONE', #53, #207, #54 ) ;
#75 = CARTESIAN_POINT ( 'NONE',  ( -20.00000000000000000, -7.286648454926750781E-15, 0.000000000000000000 ) ) ;
#76 = CC_DESIGN_PERSON_AND_ORGANIZATION_ASSIGNMENT ( #62, #247, ( #249 ) ) ;
#77 = CARTESIAN_POINT ( 'NONE',  ( -20.00000000000000000, -7.286648454926750781E-15, 0.000000000000000000 ) ) ;
#78 = CARTESIAN_POINT ( 'NONE',  ( -20.00000000000000000, -7.286648454926750781E-15, 0.000000000000000000 ) ) ;
#79 = DATE_AND_TIME ( #163, #40 ) ;
#80 = FACE_OUTER_BOUND ( 'NONE', #5, .T. ) ;
#81 = VECTOR ( 'NONE', #214, 1000.000000000000000 ) ;
#82 = LINE ( 'NONE', #195, #215 ) ;
#83 = DATE_AND_TIME ( #105, #245 ) ;
#84 = EDGE_CURVE ( 'NONE', #186, #232, #100, .T. ) ;
#85 = ADVANCED_FACE ( 'NONE', ( #244 ), #143, .T. ) ;
#86 = ORIENTED_EDGE ( 'NONE', *, *, #176, .T. ) ;
#87 = ORIENTED_EDGE ( 'NONE', *, *, #34, .T. ) ;
#88 = COORDINATED_UNIVERSAL_TIME_OFFSET ( 10, 0, .AHEAD. ) ;
#89 = EDGE_LOOP ( 'NONE', ( #30, #49, #31, #201 ) ) ;
#90 = APPROVAL ( #183, 'UNSPECIFIED' ) ;
#91 = VERTEX_POINT ( 'NONE', #193 ) ;
#92 = ORIENTED_EDGE ( 'NONE', *, *, #213, .T. ) ;
#93 = AXIS2_PLACEMENT_3D ( 'NONE', #137, #166, #133 ) ;
#94 = DIRECTION ( 'NONE',  ( 2.643388153869420311E-16, -1.000000000000000000, 0.000000000000000000 ) ) ;
#95 = DIRECTION ( 'NONE',  ( -1.000000000000000000, -3.061616997868382648E-16, 0.000000000000000000 ) ) ;
#96 = DIRECTION ( 'NONE',  ( 1.000000000000000000, 3.061616997868382648E-16, -0.000000000000000000 ) ) ;
#97 = DIRECTION ( 'NONE',  ( -1.000000000000000000, -3.061616997868382648E-16, 0.000000000000000000 ) ) ;
#98 = APPROVAL_ROLE ( '' ) ;
#99 = EDGE_CURVE ( 'NONE', #91, #232, #140, .T. ) ;
#100 = LINE ( 'NONE', #18, #81 ) ;
#101 = CARTESIAN_POINT ( 'NONE',  ( -19.99999999999998934, -30.15000000000000924, 3.692310099429271186E-15 ) ) ;
#102 = ADVANCED_FACE ( 'NONE', ( #11, #57 ), #122, .T. ) ;
#103 = PERSON_AND_ORGANIZATION ( #187, #142 ) ;
#104 = DIRECTION ( 'NONE',  ( 1.000000000000000000, 3.061616997868382648E-16, -0.000000000000000000 ) ) ;
#105 = CALENDAR_DATE ( 2025, 20, 11 ) ;
#106 = DATE_TIME_ROLE ( 'classification_date' ) ;
#107 = EDGE_CURVE ( 'NONE', #186, #170, #194, .T. ) ;
#108 = ORIENTED_EDGE ( 'NONE', *, *, #169, .T. ) ;
#109 = VERTEX_POINT ( 'NONE', #225 ) ;
#110 = EDGE_LOOP ( 'NONE', ( #111, #130, #47, #87 ) ) ;
#111 = ORIENTED_EDGE ( 'NONE', *, *, #131, .F. ) ;
#112 = PERSON_AND_ORGANIZATION_ROLE ( 'design_owner' ) ;
#113 = LOCAL_TIME ( 12, 6, 24.00000000000000000, #162 ) ;
#114 = PERSON_AND_ORGANIZATION ( #187, #142 ) ;
#115 = APPROVAL ( #230, 'UNSPECIFIED' ) ;
#116 = DATE_AND_TIME ( #37, #231 ) ;
#117 = CARTESIAN_POINT ( 'NONE',  ( -20.00000000000000000, -7.286648454926750781E-15, 0.000000000000000000 ) ) ;
#118 = AXIS2_PLACEMENT_3D ( 'NONE', #48, #95, #94 ) ;
#119 = DIRECTION ( 'NONE',  ( 2.643388153869420311E-16, -1.000000000000000000, 0.000000000000000000 ) ) ;
#120 = FACE_OUTER_BOUND ( 'NONE', #50, .T. ) ;
#121 = APPROVAL_STATUS ( 'not_yet_approved' ) ;
#122 = PLANE ( 'NONE',  #8 ) ;
#123 = CIRCLE ( 'NONE', #93, 26.25000000000000000 ) ;
#124 = LOCAL_TIME ( 12, 6, 24.00000000000000000, #35 ) ;
#125 = PRODUCT_DEFINITION ( 'UNKNOWN', '', #249, #126 ) ;
#126 = DESIGN_CONTEXT ( 'detailed design', #128, 'design' ) ;
#127 = AXIS2_PLACEMENT_3D ( 'NONE', #15, #97, #177 ) ;
#128 = APPLICATION_CONTEXT ( 'configuration controlled 3d designs of mechanical parts and assemblies' ) ;
#129 = DIRECTION ( 'NONE',  ( 2.643388153869420311E-16, -1.000000000000000000, 0.000000000000000000 ) ) ;
#130 = ORIENTED_EDGE ( 'NONE', *, *, #107, .F. ) ;
#131 = EDGE_CURVE ( 'NONE', #170, #91, #138, .T. ) ;
#132 = VERTEX_POINT ( 'NONE', #58 ) ;
#133 = DIRECTION ( 'NONE',  ( 2.643388153869420311E-16, -1.000000000000000000, 0.000000000000000000 ) ) ;
#134 = APPROVAL_ROLE ( '' ) ;
#135 = CLOSED_SHELL ( 'NONE', ( #85, #16, #36, #220, #102, #172 ) ) ;
#136 =( GEOMETRIC_REPRESENTATION_CONTEXT ( 3 ) GLOBAL_UNCERTAINTY_ASSIGNED_CONTEXT ( ( #24 ) ) GLOBAL_UNIT_ASSIGNED_CONTEXT ( ( #202, #234, #150 ) ) REPRESENTATION_CONTEXT ( 'NONE', 'WORKASPACE' ) );
#137 = CARTESIAN_POINT ( 'NONE',  ( 20.00000000000000000, 4.959819536546780600E-15, 0.000000000000000000 ) ) ;
#138 = LINE ( 'NONE', #226, #60 ) ;
#139 = CARTESIAN_POINT ( 'NONE',  ( 20.00000000000000000, 4.959819536546780600E-15, 0.000000000000000000 ) ) ;
#140 = CIRCLE ( 'NONE', #25, 30.14999999999999858 ) ;
#141 = PRODUCT_RELATED_PRODUCT_CATEGORY ( 'detail', '', ( #28 ) ) ;
#142 = ORGANIZATION ( 'UNSPECIFIED', 'UNSPECIFIED', '' ) ;
#143 = CYLINDRICAL_SURFACE ( 'NONE', #51, 30.14999999999999858 ) ;
#144 = COORDINATED_UNIVERSAL_TIME_OFFSET ( 10, 0, .AHEAD. ) ;
#145 = DIRECTION ( 'NONE',  ( -2.643388153869420311E-16, 1.000000000000000000, 0.000000000000000000 ) ) ;
#146 = PERSON_AND_ORGANIZATION ( #187, #142 ) ;
#147 = CC_DESIGN_PERSON_AND_ORGANIZATION_ASSIGNMENT ( #114, #192, ( #125 ) ) ;
#148 = DATE_TIME_ROLE ( 'creation_date' ) ;
#149 = ORIENTED_EDGE ( 'NONE', *, *, #175, .T. ) ;
#150 =( NAMED_UNIT ( * ) SI_UNIT ( $, .STERADIAN. ) SOLID_ANGLE_UNIT ( ) );
#151 = ORIENTED_EDGE ( 'NONE', *, *, #23, .T. ) ;
#152 = PERSON_AND_ORGANIZATION ( #187, #142 ) ;
#153 = MANIFOLD_SOLID_BREP ( 'Stainless chs 60.3 X 3.9 CHS(1)', #135 ) ;
#154 = PERSON_AND_ORGANIZATION ( #187, #142 ) ;
#155 = DIRECTION ( 'NONE',  ( 3.452186021844392414E-16, -1.000000000000000000, 0.000000000000000000 ) ) ;
#156 = DIRECTION ( 'NONE',  ( -1.000000000000000000, -3.061616997868382648E-16, 0.000000000000000000 ) ) ;
#157 = APPLICATION_CONTEXT ( 'configuration controlled 3d designs of mechanical parts and assemblies' ) ;
#158 = PLANE ( 'NONE',  #29 ) ;
#159 = AXIS2_PLACEMENT_3D ( 'NONE', #139, #39, #119 ) ;
#160 = SECURITY_CLASSIFICATION ( '', '', #22 ) ;
#161 = CARTESIAN_POINT ( 'NONE',  ( -20.00000000000000000, -7.286648454926750781E-15, 0.000000000000000000 ) ) ;
#162 = COORDINATED_UNIVERSAL_TIME_OFFSET ( 10, 0, .AHEAD. ) ;
#163 = CALENDAR_DATE ( 2025, 20, 11 ) ;
#164 = CC_DESIGN_PERSON_AND_ORGANIZATION_ASSIGNMENT ( #103, #228, ( #249 ) ) ;
#165 = ORIENTED_EDGE ( 'NONE', *, *, #107, .T. ) ;
#166 = DIRECTION ( 'NONE',  ( -1.000000000000000000, -3.061616997868382648E-16, 0.000000000000000000 ) ) ;
#167 = ORIENTED_EDGE ( 'NONE', *, *, #13, .F. ) ;
#168 = ORIENTED_EDGE ( 'NONE', *, *, #169, .F. ) ;
#169 = EDGE_CURVE ( 'NONE', #217, #237, #205, .T. ) ;
#170 = VERTEX_POINT ( 'NONE', #101 ) ;
#171 = CARTESIAN_POINT ( 'NONE',  ( -20.00000000000000000, -7.286648454926750781E-15, 0.000000000000000000 ) ) ;
#172 = ADVANCED_FACE ( 'NONE', ( #243, #80 ), #158, .F. ) ;
#173 = CARTESIAN_POINT ( 'NONE',  ( -20.00000000000000000, -7.286648454926750781E-15, 0.000000000000000000 ) ) ;
#174 = DIRECTION ( 'NONE',  ( 3.061616997868382648E-16, -1.000000000000000000, 0.000000000000000000 ) ) ;
#175 = EDGE_CURVE ( 'NONE', #132, #109, #178, .T. ) ;
#176 = EDGE_CURVE ( 'NONE', #109, #132, #248, .T. ) ;
#177 = DIRECTION ( 'NONE',  ( 3.452186021844392414E-16, -1.000000000000000000, 0.000000000000000000 ) ) ;
#178 = CIRCLE ( 'NONE', #118, 26.25000000000000000 ) ;
#179 = DIRECTION ( 'NONE',  ( -3.452186021844392414E-16, 1.000000000000000000, 0.000000000000000000 ) ) ;
#180 = CYLINDRICAL_SURFACE ( 'NONE', #210, 26.25000000000000000 ) ;
#181 = DIRECTION ( 'NONE',  ( -1.000000000000000000, -3.061616997868382648E-16, 0.000000000000000000 ) ) ;
#182 = CC_DESIGN_DATE_AND_TIME_ASSIGNMENT ( #19, #106, ( #160 ) ) ;
#183 = APPROVAL_STATUS ( 'not_yet_approved' ) ;
#184 = ORIENTED_EDGE ( 'NONE', *, *, #99, .F. ) ;
#185 = APPROVAL_PERSON_ORGANIZATION ( #154, #90, #134 ) ;
#186 = VERTEX_POINT ( 'NONE', #216 ) ;
#187 = PERSON ( 'UNSPECIFIED', 'UNSPECIFIED', 'UNSPECIFIED', ('UNSPECIFIED'), ('UNSPECIFIED'), ('UNSPECIFIED') ) ;
#188 = ORIENTED_EDGE ( 'NONE', *, *, #236, .F. ) ;
#189 = APPLICATION_PROTOCOL_DEFINITION ( 'international standard', 'config_control_design', 1994, #157 ) ;
#190 = CALENDAR_DATE ( 2025, 20, 11 ) ;
#191 = CARTESIAN_POINT ( 'NONE',  ( 20.00000000000000000, 4.959819536546780600E-15, 0.000000000000000000 ) ) ;
#192 = PERSON_AND_ORGANIZATION_ROLE ( 'creator' ) ;
#193 = CARTESIAN_POINT ( 'NONE',  ( 20.00000000000001066, -30.14999999999999503, 3.692310099429270397E-15 ) ) ;
#194 = CIRCLE ( 'NONE', #70, 30.14999999999999858 ) ;
#195 = CARTESIAN_POINT ( 'NONE',  ( -19.99999999999999289, -26.25000000000000711, 3.214697847761801978E-15 ) ) ;
#196 = DIRECTION ( 'NONE',  ( -2.643388153869420311E-16, 1.000000000000000000, 0.000000000000000000 ) ) ;
#197 = PERSON_AND_ORGANIZATION ( #187, #142 ) ;
#198 = DIRECTION ( 'NONE',  ( -1.000000000000000000, -3.061616997868382648E-16, 0.000000000000000000 ) ) ;
#199 = CIRCLE ( 'NONE', #223, 30.14999999999999858 ) ;
#200 = CC_DESIGN_APPROVAL ( #222, ( #249 ) ) ;
#201 = ORIENTED_EDGE ( 'NONE', *, *, #84, .F. ) ;
#202 =( LENGTH_UNIT ( ) NAMED_UNIT ( * ) SI_UNIT ( .MILLI., .METRE. ) );
#203 = EDGE_LOOP ( 'NONE', ( #235, #6 ) ) ;
#204 = DIRECTION ( 'NONE',  ( -3.452186021844392414E-16, 1.000000000000000000, 0.000000000000000000 ) ) ;
#205 = CIRCLE ( 'NONE', #159, 26.25000000000000000 ) ;
#206 = CARTESIAN_POINT ( 'NONE',  ( 19.99999999999999289, 26.25000000000000355, 0.000000000000000000 ) ) ;
#207 = DIRECTION ( 'NONE',  ( 0.000000000000000000, 0.000000000000000000, 1.000000000000000000 ) ) ;
#208 = DIRECTION ( 'NONE',  ( 1.000000000000000000, 3.061616997868382648E-16, -0.000000000000000000 ) ) ;
#209 = FACE_OUTER_BOUND ( 'NONE', #72, .T. ) ;
#210 = AXIS2_PLACEMENT_3D ( 'NONE', #77, #20, #196 ) ;
#211 = DIRECTION ( 'NONE',  ( 1.000000000000000000, 3.061616997868382648E-16, -0.000000000000000000 ) ) ;
#212 = CALENDAR_DATE ( 2025, 20, 11 ) ;
#213 = EDGE_CURVE ( 'NONE', #170, #186, #199, .T. ) ;
#214 = DIRECTION ( 'NONE',  ( 1.000000000000000000, 3.061616997868382648E-16, -0.000000000000000000 ) ) ;
#215 = VECTOR ( 'NONE', #63, 1000.000000000000000 ) ;
#216 = CARTESIAN_POINT ( 'NONE',  ( -20.00000000000001066, 30.14999999999999503, 0.000000000000000000 ) ) ;
#217 = VERTEX_POINT ( 'NONE', #32 ) ;
#218 = DIRECTION ( 'NONE',  ( 3.452186021844392414E-16, -1.000000000000000000, 0.000000000000000000 ) ) ;
#219 = ORIENTED_EDGE ( 'NONE', *, *, #23, .F. ) ;
#220 = ADVANCED_FACE ( 'NONE', ( #12 ), #27, .T. ) ;
#221 = APPROVAL_PERSON_ORGANIZATION ( #197, #222, #246 ) ;
#222 = APPROVAL ( #121, 'UNSPECIFIED' ) ;
#223 = AXIS2_PLACEMENT_3D ( 'NONE', #171, #10, #218 ) ;
#224 = APPROVAL_PERSON_ORGANIZATION ( #41, #115, #98 ) ;
#225 = CARTESIAN_POINT ( 'NONE',  ( -19.99999999999999289, -26.25000000000001066, 3.214697847761802767E-15 ) ) ;
#226 = CARTESIAN_POINT ( 'NONE',  ( -19.99999999999998934, -30.15000000000000568, 3.692310099429270397E-15 ) ) ;
#227 = CARTESIAN_POINT ( 'NONE',  ( 20.00000000000000000, 4.959819536546780600E-15, 0.000000000000000000 ) ) ;
#228 = PERSON_AND_ORGANIZATION_ROLE ( 'creator' ) ;
#229 = DIRECTION ( 'NONE',  ( 3.452186021844392414E-16, -1.000000000000000000, 0.000000000000000000 ) ) ;
#230 = APPROVAL_STATUS ( 'not_yet_approved' ) ;
#231 = LOCAL_TIME ( 12, 6, 24.00000000000000000, #88 ) ;
#232 = VERTEX_POINT ( 'NONE', #56 ) ;
#233 = CC_DESIGN_APPROVAL ( #115, ( #160 ) ) ;
#234 =( NAMED_UNIT ( * ) PLANE_ANGLE_UNIT ( ) SI_UNIT ( $, .RADIAN. ) );
#235 = ORIENTED_EDGE ( 'NONE', *, *, #175, .F. ) ;
#236 = EDGE_CURVE ( 'NONE', #237, #217, #123, .T. ) ;
#237 = VERTEX_POINT ( 'NONE', #206 ) ;
#238 = CC_DESIGN_PERSON_AND_ORGANIZATION_ASSIGNMENT ( #152, #112, ( #28 ) ) ;
#239 = MECHANICAL_CONTEXT ( 'NONE', #157, 'mechanical' ) ;
#240 = DATE_AND_TIME ( #190, #124 ) ;
#241 = LINE ( 'NONE', #38, #73 ) ;
#242 = CARTESIAN_POINT ( 'NONE',  ( -20.00000000000000000, -7.286648454926750781E-15, 0.000000000000000000 ) ) ;
#243 = FACE_BOUND ( 'NONE', #52, .T. ) ;
#244 = FACE_OUTER_BOUND ( 'NONE', #89, .T. ) ;
#245 = LOCAL_TIME ( 12, 6, 24.00000000000000000, #144 ) ;
#246 = APPROVAL_ROLE ( '' ) ;
#247 = PERSON_AND_ORGANIZATION_ROLE ( 'design_supplier' ) ;
#248 = CIRCLE ( 'NONE', #55, 26.25000000000000000 ) ;
#249 = PRODUCT_DEFINITION_FORMATION_WITH_SPECIFIED_SOURCE ( 'ANY', '', #28, .NOT_KNOWN. ) ;
ENDSEC;
END-ISO-10303-21;
