ISO-10303-21;
HEADER;
FILE_DESCRIPTION (( 'STEP AP203' ),
    '1' );
FILE_NAME ('3435-50-013-02_REV_.step',
    '2025-11-20T01:11:26',
    ( '' ),
    ( '' ),
    'SwSTEP 2.0',
    'SolidWorks 2025',
    '' );
FILE_SCHEMA (( 'CONFIG_CONTROL_DESIGN' ));
ENDSEC;

DATA;
#1 = AXIS2_PLACEMENT_3D ( 'NONE', #45, #11, #129 ) ;
#2 = EDGE_LOOP ( 'NONE', ( #134, #175 ) ) ;
#3 = DIRECTION ( 'NONE',  ( -0.3826834323650871172, 0.9238795325112878487, 0.000000000000000000 ) ) ;
#4 = DIRECTION ( 'NONE',  ( 0.3826834323650872838, 0.9238795325112878487, 0.000000000000000000 ) ) ;
#5 = PERSON_AND_ORGANIZATION_ROLE ( 'creator' ) ;
#6 = ADVANCED_FACE ( 'NONE', ( #90 ), #222, .T. ) ;
#7 = APPROVAL_PERSON_ORGANIZATION ( #241, #15, #25 ) ;
#8 = ADVANCED_BREP_SHAPE_REPRESENTATION ( '3435-50-013-02_REV_', ( #61, #181 ), #48 ) ;
#9 = EDGE_CURVE ( 'NONE', #169, #33, #71, .T. ) ;
#10 = COORDINATED_UNIVERSAL_TIME_OFFSET ( 10, 0, .AHEAD. ) ;
#11 = DIRECTION ( 'NONE',  ( 0.9238795325112878487, 0.3826834323650871172, 0.000000000000000000 ) ) ;
#12 = CIRCLE ( 'NONE', #146, 1430.469999999999800 ) ;
#13 = AXIS2_PLACEMENT_3D ( 'NONE', #111, #16, #23 ) ;
#14 = ORGANIZATION ( 'UNSPECIFIED', 'UNSPECIFIED', '' ) ;
#15 = APPROVAL ( #182, 'UNSPECIFIED' ) ;
#16 = DIRECTION ( 'NONE',  ( 0.9238795325112878487, -0.3826834323650872838, 0.000000000000000000 ) ) ;
#17 = ORIENTED_EDGE ( 'NONE', *, *, #147, .T. ) ;
#18 = EDGE_LOOP ( 'NONE', ( #194, #110, #149, #108 ) ) ;
#19 = PERSON_AND_ORGANIZATION ( #77, #14 ) ;
#20 = LOCAL_TIME ( 12, 11, 26.00000000000000000, #239 ) ;
#21 = CARTESIAN_POINT ( 'NONE',  ( -539.5836396347727941, 1302.670140840915565, 0.000000000000000000 ) ) ;
#22 = CALENDAR_DATE ( 2025, 20, 11 ) ;
#23 = DIRECTION ( 'NONE',  ( 0.3826834323650855074, 0.9238795325112885148, 0.000000000000000000 ) ) ;
#24 = MECHANICAL_CONTEXT ( 'NONE', #199, 'mechanical' ) ;
#25 = APPROVAL_ROLE ( '' ) ;
#26 = DATE_TIME_ROLE ( 'classification_date' ) ;
#27 = PRODUCT ( '3435-50-013-02_REV_', '3435-50-013-02_REV_', '', ( #24 ) ) ;
#28 = LOCAL_TIME ( 12, 11, 26.00000000000000000, #176 ) ;
#29 = AXIS2_PLACEMENT_3D ( 'NONE', #34, #114, #91 ) ;
#30 = ADVANCED_FACE ( 'NONE', ( #73, #40 ), #213, .F. ) ;
#31 = ORIENTED_EDGE ( 'NONE', *, *, #58, .F. ) ;
#32 = TOROIDAL_SURFACE ( 'NONE', #172, 1409.999999999999773, 24.15000000000008029 ) ;
#33 = VERTEX_POINT ( 'NONE', #192 ) ;
#34 = CARTESIAN_POINT ( 'NONE',  ( 0.000000000000000000, 0.000000000000000000, 2.957522019940867791E-15 ) ) ;
#35 = ADVANCED_FACE ( 'NONE', ( #120 ), #142, .F. ) ;
#36 = EDGE_CURVE ( 'NONE', #169, #47, #112, .T. ) ;
#37 = DIRECTION ( 'NONE',  ( -0.000000000000000000, -0.000000000000000000, -1.000000000000000000 ) ) ;
#38 = DATE_TIME_ROLE ( 'creation_date' ) ;
#39 = DIRECTION ( 'NONE',  ( 0.9238795325112878487, 0.3826834323650871172, 0.000000000000000000 ) ) ;
#40 = FACE_OUTER_BOUND ( 'NONE', #118, .T. ) ;
#41 = PERSON_AND_ORGANIZATION ( #77, #14 ) ;
#42 = CIRCLE ( 'NONE', #74, 1389.529999999999745 ) ;
#43 = SHAPE_DEFINITION_REPRESENTATION ( #82, #8 ) ;
#44 = CIRCLE ( 'NONE', #189, 20.46999999999995623 ) ;
#45 = CARTESIAN_POINT ( 'NONE',  ( -539.5836396347727941, 1302.670140840915565, 0.000000000000000000 ) ) ;
#46 = VERTEX_POINT ( 'NONE', #151 ) ;
#47 = VERTEX_POINT ( 'NONE', #140 ) ;
#48 =( GEOMETRIC_REPRESENTATION_CONTEXT ( 3 ) GLOBAL_UNCERTAINTY_ASSIGNED_CONTEXT ( ( #143 ) ) GLOBAL_UNIT_ASSIGNED_CONTEXT ( ( #109, #86, #49 ) ) REPRESENTATION_CONTEXT ( 'NONE', 'WORKASPACE' ) );
#49 =( NAMED_UNIT ( * ) SI_UNIT ( $, .STERADIAN. ) SOLID_ANGLE_UNIT ( ) );
#50 = DIRECTION ( 'NONE',  ( 0.3826834323650878944, 0.9238795325112875156, 0.000000000000000000 ) ) ;
#51 = AXIS2_PLACEMENT_3D ( 'NONE', #21, #39, #3 ) ;
#52 = DIRECTION ( 'NONE',  ( -0.3826834323650855074, 0.9238795325112885148, 0.000000000000000000 ) ) ;
#53 = ORIENTED_EDGE ( 'NONE', *, *, #36, .F. ) ;
#54 = CARTESIAN_POINT ( 'NONE',  ( -539.5836396347727941, 1302.670140840915565, 0.000000000000000000 ) ) ;
#55 = TOROIDAL_SURFACE ( 'NONE', #88, 1409.999999999999773, 20.47000000000004860 ) ;
#56 = DIRECTION ( 'NONE',  ( 0.9238795325112878487, -0.3826834323650872838, 0.000000000000000000 ) ) ;
#57 = APPROVAL_DATE_TIME ( #158, #230 ) ;
#58 = EDGE_CURVE ( 'NONE', #33, #169, #139, .T. ) ;
#59 = APPROVAL_DATE_TIME ( #126, #15 ) ;
#60 = APPLICATION_CONTEXT ( 'configuration controlled 3d designs of mechanical parts and assemblies' ) ;
#61 = MANIFOLD_SOLID_BREP ( 'Stainless chs 48.3 X 3.68 CHS(1)', #128 ) ;
#62 = DIRECTION ( 'NONE',  ( 0.9238795325112878487, 0.3826834323650871172, 0.000000000000000000 ) ) ;
#63 = SECURITY_CLASSIFICATION_LEVEL ( 'unclassified' ) ;
#64 = DIRECTION ( 'NONE',  ( -0.000000000000000000, -0.000000000000000000, -1.000000000000000000 ) ) ;
#65 = AXIS2_PLACEMENT_3D ( 'NONE', #246, #145, #223 ) ;
#66 = PERSON_AND_ORGANIZATION ( #77, #14 ) ;
#67 = ORIENTED_EDGE ( 'NONE', *, *, #117, .F. ) ;
#68 = EDGE_CURVE ( 'NONE', #47, #46, #84, .T. ) ;
#69 = CC_DESIGN_APPROVAL ( #230, ( #250 ) ) ;
#70 = EDGE_LOOP ( 'NONE', ( #165, #191 ) ) ;
#71 = CIRCLE ( 'NONE', #105, 24.15000000000010516 ) ;
#72 = DIRECTION ( 'NONE',  ( 0.3826834323650878944, 0.9238795325112875156, 0.000000000000000000 ) ) ;
#73 = FACE_BOUND ( 'NONE', #2, .T. ) ;
#74 = AXIS2_PLACEMENT_3D ( 'NONE', #83, #115, #225 ) ;
#75 = ORIENTED_EDGE ( 'NONE', *, *, #9, .T. ) ;
#76 = APPROVAL_ROLE ( '' ) ;
#77 = PERSON ( 'UNSPECIFIED', 'UNSPECIFIED', 'UNSPECIFIED', ('UNSPECIFIED'), ('UNSPECIFIED'), ('UNSPECIFIED') ) ;
#78 = DIRECTION ( 'NONE',  ( -1.000000000000000000, 0.000000000000000000, 0.000000000000000000 ) ) ;
#79 = PERSON_AND_ORGANIZATION ( #77, #14 ) ;
#80 = CIRCLE ( 'NONE', #232, 20.46999999999995623 ) ;
#81 = CALENDAR_DATE ( 2025, 20, 11 ) ;
#82 = PRODUCT_DEFINITION_SHAPE ( 'NONE', 'NONE',  #240 ) ;
#83 = CARTESIAN_POINT ( 'NONE',  ( 0.000000000000000000, 0.000000000000000000, 2.506851997854637681E-15 ) ) ;
#84 = CIRCLE ( 'NONE', #13, 24.15000000000010516 ) ;
#85 = ORIENTED_EDGE ( 'NONE', *, *, #219, .T. ) ;
#86 =( NAMED_UNIT ( * ) PLANE_ANGLE_UNIT ( ) SI_UNIT ( $, .RADIAN. ) );
#87 = LOCAL_TIME ( 12, 11, 26.00000000000000000, #185 ) ;
#88 = AXIS2_PLACEMENT_3D ( 'NONE', #198, #180, #202 ) ;
#89 = DIRECTION ( 'NONE',  ( -0.000000000000000000, -0.000000000000000000, -1.000000000000000000 ) ) ;
#90 = FACE_OUTER_BOUND ( 'NONE', #227, .T. ) ;
#91 = DIRECTION ( 'NONE',  ( -1.000000000000000000, 0.000000000000000000, 0.000000000000000000 ) ) ;
#92 = CC_DESIGN_SECURITY_CLASSIFICATION ( #119, ( #250 ) ) ;
#93 = APPROVAL_ROLE ( '' ) ;
#94 = DIRECTION ( 'NONE',  ( 0.000000000000000000, 0.000000000000000000, 1.000000000000000000 ) ) ;
#95 = DIRECTION ( 'NONE',  ( 0.9238795325112878487, -0.3826834323650872838, 0.000000000000000000 ) ) ;
#96 = EDGE_CURVE ( 'NONE', #148, #137, #186, .T. ) ;
#97 = PERSON_AND_ORGANIZATION_ROLE ( 'design_owner' ) ;
#98 = ADVANCED_FACE ( 'NONE', ( #229, #215 ), #211, .T. ) ;
#99 = PERSON_AND_ORGANIZATION_ROLE ( 'creator' ) ;
#100 = PRODUCT_RELATED_PRODUCT_CATEGORY ( 'detail', '', ( #27 ) ) ;
#101 = CARTESIAN_POINT ( 'NONE',  ( -539.5836396347727941, 1302.670140840915565, 0.000000000000000000 ) ) ;
#102 = DATE_AND_TIME ( #104, #214 ) ;
#103 = CARTESIAN_POINT ( 'NONE',  ( -548.8254445263895605, 1324.981831551063351, 0.000000000000000000 ) ) ;
#104 = CALENDAR_DATE ( 2025, 20, 11 ) ;
#105 = AXIS2_PLACEMENT_3D ( 'NONE', #170, #235, #52 ) ;
#106 = ORIENTED_EDGE ( 'NONE', *, *, #179, .T. ) ;
#107 = DIRECTION ( 'NONE',  ( -0.000000000000000000, -0.000000000000000000, -1.000000000000000000 ) ) ;
#108 = ORIENTED_EDGE ( 'NONE', *, *, #147, .F. ) ;
#109 =( LENGTH_UNIT ( ) NAMED_UNIT ( * ) SI_UNIT ( .MILLI., .METRE. ) );
#110 = ORIENTED_EDGE ( 'NONE', *, *, #36, .T. ) ;
#111 = CARTESIAN_POINT ( 'NONE',  ( 539.5836396347727941, 1302.670140840915337, 0.000000000000000000 ) ) ;
#112 = CIRCLE ( 'NONE', #161, 1434.149999999999864 ) ;
#113 = APPLICATION_PROTOCOL_DEFINITION ( 'international standard', 'config_control_design', 1994, #199 ) ;
#114 = DIRECTION ( 'NONE',  ( -0.000000000000000000, -0.000000000000000000, -1.000000000000000000 ) ) ;
#115 = DIRECTION ( 'NONE',  ( -0.000000000000000000, -0.000000000000000000, -1.000000000000000000 ) ) ;
#116 = CARTESIAN_POINT ( 'NONE',  ( 539.5836396347727941, 1302.670140840915337, 0.000000000000000000 ) ) ;
#117 = EDGE_CURVE ( 'NONE', #137, #148, #80, .T. ) ;
#118 = EDGE_LOOP ( 'NONE', ( #31, #224 ) ) ;
#119 = SECURITY_CLASSIFICATION ( '', '', #63 ) ;
#120 = FACE_OUTER_BOUND ( 'NONE', #216, .T. ) ;
#121 = CC_DESIGN_PERSON_AND_ORGANIZATION_ASSIGNMENT ( #236, #99, ( #240 ) ) ;
#122 = APPROVAL_STATUS ( 'not_yet_approved' ) ;
#123 = CALENDAR_DATE ( 2025, 20, 11 ) ;
#124 = CIRCLE ( 'NONE', #65, 24.15000000000010516 ) ;
#125 = CC_DESIGN_PERSON_AND_ORGANIZATION_ASSIGNMENT ( #79, #243, ( #250 ) ) ;
#126 = DATE_AND_TIME ( #81, #87 ) ;
#127 = CARTESIAN_POINT ( 'NONE',  ( -547.4171694952860889, 1321.581954871421658, 0.000000000000000000 ) ) ;
#128 = CLOSED_SHELL ( 'NONE', ( #228, #160, #6, #98, #30, #35 ) ) ;
#129 = DIRECTION ( 'NONE',  ( -0.3826834323650878944, 0.9238795325112875156, 0.000000000000000000 ) ) ;
#130 = DIRECTION ( 'NONE',  ( -0.3826834323650878944, 0.9238795325112875156, 0.000000000000000000 ) ) ;
#131 = ORIENTED_EDGE ( 'NONE', *, *, #96, .F. ) ;
#132 = AXIS2_PLACEMENT_3D ( 'NONE', #238, #89, #177 ) ;
#133 = CC_DESIGN_APPROVAL ( #220, ( #240 ) ) ;
#134 = ORIENTED_EDGE ( 'NONE', *, *, #205, .T. ) ;
#135 = ORIENTED_EDGE ( 'NONE', *, *, #205, .F. ) ;
#136 = CARTESIAN_POINT ( 'NONE',  ( 0.000000000000000000, 0.000000000000000000, 0.000000000000000000 ) ) ;
#137 = VERTEX_POINT ( 'NONE', #233 ) ;
#138 = CARTESIAN_POINT ( 'NONE',  ( 539.5836396347727941, 1302.670140840915337, 0.000000000000000000 ) ) ;
#139 = CIRCLE ( 'NONE', #164, 24.15000000000010516 ) ;
#140 = CARTESIAN_POINT ( 'NONE',  ( 548.8254445263896741, 1324.981831551063124, 0.000000000000000000 ) ) ;
#141 = COORDINATED_UNIVERSAL_TIME_OFFSET ( 10, 0, .AHEAD. ) ;
#142 = TOROIDAL_SURFACE ( 'NONE', #249, 1409.999999999999773, 20.47000000000004860 ) ;
#143 = UNCERTAINTY_MEASURE_WITH_UNIT (LENGTH_MEASURE( 1.000000000000000082E-05 ), #109, 'distance_accuracy_value', 'NONE');
#144 = APPROVAL_PERSON_ORGANIZATION ( #19, #230, #93 ) ;
#145 = DIRECTION ( 'NONE',  ( 0.9238795325112878487, -0.3826834323650872838, 0.000000000000000000 ) ) ;
#146 = AXIS2_PLACEMENT_3D ( 'NONE', #244, #64, #183 ) ;
#147 = EDGE_CURVE ( 'NONE', #33, #46, #203, .T. ) ;
#148 = VERTEX_POINT ( 'NONE', #173 ) ;
#149 = ORIENTED_EDGE ( 'NONE', *, *, #201, .F. ) ;
#150 = EDGE_LOOP ( 'NONE', ( #131, #67 ) ) ;
#151 = CARTESIAN_POINT ( 'NONE',  ( 530.3418347431560278, 1280.358450130767551, 2.957522019940867791E-15 ) ) ;
#152 = DIRECTION ( 'NONE',  ( 1.000000000000000000, 0.000000000000000000, 0.000000000000000000 ) ) ;
#153 = FACE_OUTER_BOUND ( 'NONE', #226, .T. ) ;
#154 = CALENDAR_DATE ( 2025, 20, 11 ) ;
#155 = LOCAL_TIME ( 12, 11, 26.00000000000000000, #141 ) ;
#156 = CARTESIAN_POINT ( 'NONE',  ( 539.5836396347727941, 1302.670140840915337, 0.000000000000000000 ) ) ;
#157 = AXIS2_PLACEMENT_3D ( 'NONE', #116, #95, #4 ) ;
#158 = DATE_AND_TIME ( #154, #28 ) ;
#159 = APPROVAL_PERSON_ORGANIZATION ( #41, #220, #76 ) ;
#160 = ADVANCED_FACE ( 'NONE', ( #153 ), #55, .F. ) ;
#161 = AXIS2_PLACEMENT_3D ( 'NONE', #136, #37, #237 ) ;
#162 = CC_DESIGN_APPROVAL ( #15, ( #119 ) ) ;
#163 = EDGE_CURVE ( 'NONE', #167, #207, #44, .T. ) ;
#164 = AXIS2_PLACEMENT_3D ( 'NONE', #54, #171, #195 ) ;
#165 = ORIENTED_EDGE ( 'NONE', *, *, #201, .T. ) ;
#166 = CARTESIAN_POINT ( 'NONE',  ( 0.000000000000000000, 0.000000000000000000, 0.000000000000000000 ) ) ;
#167 = VERTEX_POINT ( 'NONE', #127 ) ;
#168 = DESIGN_CONTEXT ( 'detailed design', #60, 'design' ) ;
#169 = VERTEX_POINT ( 'NONE', #103 ) ;
#170 = CARTESIAN_POINT ( 'NONE',  ( -539.5836396347727941, 1302.670140840915565, 0.000000000000000000 ) ) ;
#171 = DIRECTION ( 'NONE',  ( 0.9238795325112878487, 0.3826834323650871172, 0.000000000000000000 ) ) ;
#172 = AXIS2_PLACEMENT_3D ( 'NONE', #166, #107, #231 ) ;
#173 = CARTESIAN_POINT ( 'NONE',  ( 531.7501097742596130, 1283.758326810409244, 2.506851997854637681E-15 ) ) ;
#174 = APPLICATION_PROTOCOL_DEFINITION ( 'international standard', 'config_control_design', 1994, #60 ) ;
#175 = ORIENTED_EDGE ( 'NONE', *, *, #163, .T. ) ;
#176 = COORDINATED_UNIVERSAL_TIME_OFFSET ( 10, 0, .AHEAD. ) ;
#177 = DIRECTION ( 'NONE',  ( -1.000000000000000000, 0.000000000000000000, 0.000000000000000000 ) ) ;
#178 = CARTESIAN_POINT ( 'NONE',  ( 0.000000000000000000, 0.000000000000000000, 0.000000000000000000 ) ) ;
#179 = EDGE_CURVE ( 'NONE', #167, #137, #12, .T. ) ;
#180 = DIRECTION ( 'NONE',  ( -0.000000000000000000, -0.000000000000000000, -1.000000000000000000 ) ) ;
#181 = AXIS2_PLACEMENT_3D ( 'NONE', #178, #94, #152 ) ;
#182 = APPROVAL_STATUS ( 'not_yet_approved' ) ;
#183 = DIRECTION ( 'NONE',  ( -1.000000000000000000, 0.000000000000000000, 0.000000000000000000 ) ) ;
#184 = CC_DESIGN_PERSON_AND_ORGANIZATION_ASSIGNMENT ( #218, #5, ( #250 ) ) ;
#185 = COORDINATED_UNIVERSAL_TIME_OFFSET ( 10, 0, .AHEAD. ) ;
#186 = CIRCLE ( 'NONE', #245, 20.46999999999995623 ) ;
#187 = ORIENTED_EDGE ( 'NONE', *, *, #163, .F. ) ;
#188 = CC_DESIGN_PERSON_AND_ORGANIZATION_ASSIGNMENT ( #200, #97, ( #27 ) ) ;
#189 = AXIS2_PLACEMENT_3D ( 'NONE', #101, #62, #130 ) ;
#190 = DIRECTION ( 'NONE',  ( 0.9238795325112878487, -0.3826834323650872838, 0.000000000000000000 ) ) ;
#191 = ORIENTED_EDGE ( 'NONE', *, *, #68, .T. ) ;
#192 = CARTESIAN_POINT ( 'NONE',  ( -530.3418347431559141, 1280.358450130767778, 2.957522019940867396E-15 ) ) ;
#193 = APPROVAL_DATE_TIME ( #212, #220 ) ;
#194 = ORIENTED_EDGE ( 'NONE', *, *, #58, .T. ) ;
#195 = DIRECTION ( 'NONE',  ( -0.3826834323650855074, 0.9238795325112885148, 0.000000000000000000 ) ) ;
#196 = CC_DESIGN_DATE_AND_TIME_ASSIGNMENT ( #102, #26, ( #119 ) ) ;
#197 = APPROVAL_STATUS ( 'not_yet_approved' ) ;
#198 = CARTESIAN_POINT ( 'NONE',  ( 0.000000000000000000, 0.000000000000000000, 0.000000000000000000 ) ) ;
#199 = APPLICATION_CONTEXT ( 'configuration controlled 3d designs of mechanical parts and assemblies' ) ;
#200 = PERSON_AND_ORGANIZATION ( #77, #14 ) ;
#201 = EDGE_CURVE ( 'NONE', #46, #47, #124, .T. ) ;
#202 = DIRECTION ( 'NONE',  ( -1.000000000000000000, 0.000000000000000000, 0.000000000000000000 ) ) ;
#203 = CIRCLE ( 'NONE', #29, 1385.849999999999682 ) ;
#204 = CARTESIAN_POINT ( 'NONE',  ( -531.7501097742593856, 1283.758326810409471, 2.506851997854637681E-15 ) ) ;
#205 = EDGE_CURVE ( 'NONE', #207, #167, #209, .T. ) ;
#206 = ORIENTED_EDGE ( 'NONE', *, *, #96, .T. ) ;
#207 = VERTEX_POINT ( 'NONE', #204 ) ;
#208 = FACE_OUTER_BOUND ( 'NONE', #18, .T. ) ;
#209 = CIRCLE ( 'NONE', #1, 20.46999999999995623 ) ;
#210 = ORIENTED_EDGE ( 'NONE', *, *, #179, .F. ) ;
#211 = PLANE ( 'NONE',  #157 ) ;
#212 = DATE_AND_TIME ( #123, #155 ) ;
#213 = PLANE ( 'NONE',  #51 ) ;
#214 = LOCAL_TIME ( 12, 11, 26.00000000000000000, #10 ) ;
#215 = FACE_OUTER_BOUND ( 'NONE', #70, .T. ) ;
#216 = EDGE_LOOP ( 'NONE', ( #210, #135, #85, #206 ) ) ;
#217 = CC_DESIGN_DATE_AND_TIME_ASSIGNMENT ( #234, #38, ( #240 ) ) ;
#218 = PERSON_AND_ORGANIZATION ( #77, #14 ) ;
#219 = EDGE_CURVE ( 'NONE', #207, #148, #42, .T. ) ;
#220 = APPROVAL ( #122, 'UNSPECIFIED' ) ;
#221 = PERSON_AND_ORGANIZATION_ROLE ( 'classification_officer' ) ;
#222 = TOROIDAL_SURFACE ( 'NONE', #132, 1409.999999999999773, 24.15000000000008029 ) ;
#223 = DIRECTION ( 'NONE',  ( 0.3826834323650855074, 0.9238795325112885148, 0.000000000000000000 ) ) ;
#224 = ORIENTED_EDGE ( 'NONE', *, *, #9, .F. ) ;
#225 = DIRECTION ( 'NONE',  ( -1.000000000000000000, 0.000000000000000000, 0.000000000000000000 ) ) ;
#226 = EDGE_LOOP ( 'NONE', ( #187, #106, #247, #248 ) ) ;
#227 = EDGE_LOOP ( 'NONE', ( #53, #75, #17, #251 ) ) ;
#228 = ADVANCED_FACE ( 'NONE', ( #208 ), #32, .T. ) ;
#229 = FACE_BOUND ( 'NONE', #150, .T. ) ;
#230 = APPROVAL ( #197, 'UNSPECIFIED' ) ;
#231 = DIRECTION ( 'NONE',  ( -1.000000000000000000, 0.000000000000000000, 0.000000000000000000 ) ) ;
#232 = AXIS2_PLACEMENT_3D ( 'NONE', #156, #190, #50 ) ;
#233 = CARTESIAN_POINT ( 'NONE',  ( 547.4171694952862026, 1321.581954871421431, 0.000000000000000000 ) ) ;
#234 = DATE_AND_TIME ( #22, #20 ) ;
#235 = DIRECTION ( 'NONE',  ( 0.9238795325112878487, 0.3826834323650871172, 0.000000000000000000 ) ) ;
#236 = PERSON_AND_ORGANIZATION ( #77, #14 ) ;
#237 = DIRECTION ( 'NONE',  ( -1.000000000000000000, 0.000000000000000000, 0.000000000000000000 ) ) ;
#238 = CARTESIAN_POINT ( 'NONE',  ( 0.000000000000000000, 0.000000000000000000, 0.000000000000000000 ) ) ;
#239 = COORDINATED_UNIVERSAL_TIME_OFFSET ( 10, 0, .AHEAD. ) ;
#240 = PRODUCT_DEFINITION ( 'UNKNOWN', '', #250, #168 ) ;
#241 = PERSON_AND_ORGANIZATION ( #77, #14 ) ;
#242 = CC_DESIGN_PERSON_AND_ORGANIZATION_ASSIGNMENT ( #66, #221, ( #119 ) ) ;
#243 = PERSON_AND_ORGANIZATION_ROLE ( 'design_supplier' ) ;
#244 = CARTESIAN_POINT ( 'NONE',  ( 0.000000000000000000, 0.000000000000000000, 0.000000000000000000 ) ) ;
#245 = AXIS2_PLACEMENT_3D ( 'NONE', #138, #56, #72 ) ;
#246 = CARTESIAN_POINT ( 'NONE',  ( 539.5836396347727941, 1302.670140840915337, 0.000000000000000000 ) ) ;
#247 = ORIENTED_EDGE ( 'NONE', *, *, #117, .T. ) ;
#248 = ORIENTED_EDGE ( 'NONE', *, *, #219, .F. ) ;
#249 = AXIS2_PLACEMENT_3D ( 'NONE', #253, #252, #78 ) ;
#250 = PRODUCT_DEFINITION_FORMATION_WITH_SPECIFIED_SOURCE ( 'ANY', '', #27, .NOT_KNOWN. ) ;
#251 = ORIENTED_EDGE ( 'NONE', *, *, #68, .F. ) ;
#252 = DIRECTION ( 'NONE',  ( -0.000000000000000000, -0.000000000000000000, -1.000000000000000000 ) ) ;
#253 = CARTESIAN_POINT ( 'NONE',  ( 0.000000000000000000, 0.000000000000000000, 0.000000000000000000 ) ) ;
ENDSEC;
END-ISO-10303-21;
