ISO-10303-21;
HEADER;
FILE_DESCRIPTION (( 'STEP AP203' ),
    '1' );
FILE_NAME ('3435-50-013-03_REV_.step',
    '2025-11-20T01:11:07',
    ( '' ),
    ( '' ),
    'SwSTEP 2.0',
    'SolidWorks 2025',
    '' );
FILE_SCHEMA (( 'CONFIG_CONTROL_DESIGN' ));
ENDSEC;

DATA;
#1 = DIRECTION ( 'NONE',  ( 1.000000000000000000, 0.000000000000000000, 0.000000000000000000 ) ) ;
#2 = DIRECTION ( 'NONE',  ( -0.3826834323650875058, 0.9238795325112877377, 0.000000000000000000 ) ) ;
#3 = COORDINATED_UNIVERSAL_TIME_OFFSET ( 10, 0, .AHEAD. ) ;
#4 = TOROIDAL_SURFACE ( 'NONE', #102, 1250.000000000000000, 24.15000000000008029 ) ;
#5 = CARTESIAN_POINT ( 'NONE',  ( 487.5960953479759041, 1177.161106349257352, 0.000000000000000000 ) ) ;
#6 = DIRECTION ( 'NONE',  ( 0.9238795325112878487, 0.3826834323650871728, 0.000000000000000000 ) ) ;
#7 = ADVANCED_FACE ( 'NONE', ( #37 ), #148, .F. ) ;
#8 = DIRECTION ( 'NONE',  ( -0.3826834323650875058, 0.9238795325112877377, 0.000000000000000000 ) ) ;
#9 = CIRCLE ( 'NONE', #121, 20.46999999999995623 ) ;
#10 = ADVANCED_FACE ( 'NONE', ( #147 ), #225, .F. ) ;
#11 = EDGE_CURVE ( 'NONE', #175, #140, #167, .T. ) ;
#12 = CC_DESIGN_PERSON_AND_ORGANIZATION_ASSIGNMENT ( #187, #157, ( #117 ) ) ;
#13 = APPROVAL ( #101, 'UNSPECIFIED' ) ;
#14 = EDGE_CURVE ( 'NONE', #175, #41, #112, .T. ) ;
#15 = APPROVAL_PERSON_ORGANIZATION ( #20, #13, #152 ) ;
#16 = UNCERTAINTY_MEASURE_WITH_UNIT (LENGTH_MEASURE( 1.000000000000000082E-05 ), #248, 'distance_accuracy_value', 'NONE');
#17 = FACE_OUTER_BOUND ( 'NONE', #72, .T. ) ;
#18 = ORIENTED_EDGE ( 'NONE', *, *, #215, .F. ) ;
#19 = ADVANCED_FACE ( 'NONE', ( #61 ), #228, .T. ) ;
#20 = PERSON_AND_ORGANIZATION ( #32, #239 ) ;
#21 = DESIGN_CONTEXT ( 'detailed design', #176, 'design' ) ;
#22 = DIRECTION ( 'NONE',  ( 0.9238795325112878487, 0.3826834323650871728, 0.000000000000000000 ) ) ;
#23 = ORIENTED_EDGE ( 'NONE', *, *, #35, .F. ) ;
#24 = CARTESIAN_POINT ( 'NONE',  ( 0.000000000000000000, 0.000000000000000000, 0.000000000000000000 ) ) ;
#25 = DIRECTION ( 'NONE',  ( 0.9238795325112879597, -0.3826834323650872283, 0.000000000000000000 ) ) ;
#26 = CALENDAR_DATE ( 2025, 20, 11 ) ;
#27 = AXIS2_PLACEMENT_3D ( 'NONE', #194, #233, #133 ) ;
#28 = CARTESIAN_POINT ( 'NONE',  ( -469.1124855647419167, 1132.537724928961779, 2.957522019940867396E-15 ) ) ;
#29 = ORIENTED_EDGE ( 'NONE', *, *, #83, .F. ) ;
#30 = ORIENTED_EDGE ( 'NONE', *, *, #216, .F. ) ;
#31 = CIRCLE ( 'NONE', #189, 20.46999999999995623 ) ;
#32 = PERSON ( 'UNSPECIFIED', 'UNSPECIFIED', 'UNSPECIFIED', ('UNSPECIFIED'), ('UNSPECIFIED'), ('UNSPECIFIED') ) ;
#33 = ORIENTED_EDGE ( 'NONE', *, *, #11, .F. ) ;
#34 = DIRECTION ( 'NONE',  ( -1.000000000000000000, 0.000000000000000000, 0.000000000000000000 ) ) ;
#35 = EDGE_CURVE ( 'NONE', #95, #168, #170, .T. ) ;
#36 = AXIS2_PLACEMENT_3D ( 'NONE', #93, #217, #139 ) ;
#37 = FACE_OUTER_BOUND ( 'NONE', #229, .T. ) ;
#38 = CARTESIAN_POINT ( 'NONE',  ( -478.3542904563589104, 1154.849415639109793, 0.000000000000000000 ) ) ;
#39 = ADVANCED_FACE ( 'NONE', ( #118, #17 ), #100, .F. ) ;
#40 = DATE_AND_TIME ( #26, #220 ) ;
#41 = VERTEX_POINT ( 'NONE', #5 ) ;
#42 = CARTESIAN_POINT ( 'NONE',  ( -487.5960953479757904, 1177.161106349257352, 0.000000000000000000 ) ) ;
#43 = APPROVAL_PERSON_ORGANIZATION ( #79, #138, #77 ) ;
#44 = CC_DESIGN_DATE_AND_TIME_ASSIGNMENT ( #195, #114, ( #64 ) ) ;
#45 = COORDINATED_UNIVERSAL_TIME_OFFSET ( 10, 0, .AHEAD. ) ;
#46 = ORIENTED_EDGE ( 'NONE', *, *, #149, .T. ) ;
#47 = MANIFOLD_SOLID_BREP ( 'Stainless chs 48.3 X 3.68 CHS(1)', #252 ) ;
#48 = DIRECTION ( 'NONE',  ( 0.9238795325112879597, -0.3826834323650872283, 0.000000000000000000 ) ) ;
#49 = CARTESIAN_POINT ( 'NONE',  ( -470.5207605958454451, 1135.937601608603472, 2.506851997854637681E-15 ) ) ;
#50 = CC_DESIGN_APPROVAL ( #13, ( #64 ) ) ;
#51 = LOCAL_TIME ( 12, 11, 7.000000000000000000, #204 ) ;
#52 = EDGE_CURVE ( 'NONE', #218, #168, #31, .T. ) ;
#53 =( NAMED_UNIT ( * ) PLANE_ANGLE_UNIT ( ) SI_UNIT ( $, .RADIAN. ) );
#54 = ORIENTED_EDGE ( 'NONE', *, *, #67, .F. ) ;
#55 =( NAMED_UNIT ( * ) SI_UNIT ( $, .STERADIAN. ) SOLID_ANGLE_UNIT ( ) );
#56 = ORIENTED_EDGE ( 'NONE', *, *, #247, .F. ) ;
#57 = CIRCLE ( 'NONE', #60, 24.15000000000012648 ) ;
#58 = CARTESIAN_POINT ( 'NONE',  ( 0.000000000000000000, 0.000000000000000000, 0.000000000000000000 ) ) ;
#59 = DIRECTION ( 'NONE',  ( -0.000000000000000000, -0.000000000000000000, -1.000000000000000000 ) ) ;
#60 = AXIS2_PLACEMENT_3D ( 'NONE', #240, #6, #8 ) ;
#61 = FACE_OUTER_BOUND ( 'NONE', #172, .T. ) ;
#62 = MECHANICAL_CONTEXT ( 'NONE', #250, 'mechanical' ) ;
#63 = EDGE_LOOP ( 'NONE', ( #173, #18 ) ) ;
#64 = PRODUCT_DEFINITION ( 'UNKNOWN', '', #117, #21 ) ;
#65 = CALENDAR_DATE ( 2025, 20, 11 ) ;
#66 = CARTESIAN_POINT ( 'NONE',  ( 478.3542904563589104, 1154.849415639109566, 0.000000000000000000 ) ) ;
#67 = EDGE_CURVE ( 'NONE', #140, #184, #219, .T. ) ;
#68 = SECURITY_CLASSIFICATION_LEVEL ( 'unclassified' ) ;
#69 = AXIS2_PLACEMENT_3D ( 'NONE', #222, #106, #164 ) ;
#70 = FACE_OUTER_BOUND ( 'NONE', #198, .T. ) ;
#71 = APPROVAL ( #237, 'UNSPECIFIED' ) ;
#72 = EDGE_LOOP ( 'NONE', ( #197, #33 ) ) ;
#73 = ORIENTED_EDGE ( 'NONE', *, *, #247, .T. ) ;
#74 = CC_DESIGN_PERSON_AND_ORGANIZATION_ASSIGNMENT ( #82, #166, ( #117 ) ) ;
#75 = ORIENTED_EDGE ( 'NONE', *, *, #14, .F. ) ;
#76 = ORIENTED_EDGE ( 'NONE', *, *, #35, .T. ) ;
#77 = APPROVAL_ROLE ( '' ) ;
#78 = DIRECTION ( 'NONE',  ( -1.000000000000000000, 0.000000000000000000, 0.000000000000000000 ) ) ;
#79 = PERSON_AND_ORGANIZATION ( #32, #239 ) ;
#80 = CC_DESIGN_APPROVAL ( #138, ( #117 ) ) ;
#81 = CARTESIAN_POINT ( 'NONE',  ( 0.000000000000000000, 0.000000000000000000, 0.000000000000000000 ) ) ;
#82 = PERSON_AND_ORGANIZATION ( #32, #239 ) ;
#83 = EDGE_CURVE ( 'NONE', #41, #184, #178, .T. ) ;
#84 = DIRECTION ( 'NONE',  ( -1.000000000000000000, 0.000000000000000000, 0.000000000000000000 ) ) ;
#85 = CALENDAR_DATE ( 2025, 20, 11 ) ;
#86 = AXIS2_PLACEMENT_3D ( 'NONE', #227, #130, #34 ) ;
#87 = DIRECTION ( 'NONE',  ( 0.9238795325112878487, 0.3826834323650871728, 0.000000000000000000 ) ) ;
#88 = DATE_TIME_ROLE ( 'classification_date' ) ;
#89 = CARTESIAN_POINT ( 'NONE',  ( 478.3542904563589104, 1154.849415639109566, 0.000000000000000000 ) ) ;
#90 = LOCAL_TIME ( 12, 11, 7.000000000000000000, #137 ) ;
#91 = DIRECTION ( 'NONE',  ( 0.9238795325112879597, -0.3826834323650872283, 0.000000000000000000 ) ) ;
#92 = CC_DESIGN_DATE_AND_TIME_ASSIGNMENT ( #40, #88, ( #171 ) ) ;
#93 = CARTESIAN_POINT ( 'NONE',  ( 0.000000000000000000, 0.000000000000000000, 2.957522019940867791E-15 ) ) ;
#94 = AXIS2_PLACEMENT_3D ( 'NONE', #66, #91, #144 ) ;
#95 = VERTEX_POINT ( 'NONE', #202 ) ;
#96 = ADVANCED_FACE ( 'NONE', ( #142 ), #4, .T. ) ;
#97 = AXIS2_PLACEMENT_3D ( 'NONE', #58, #59, #235 ) ;
#98 = PERSON_AND_ORGANIZATION ( #32, #239 ) ;
#99 = AXIS2_PLACEMENT_3D ( 'NONE', #135, #180, #1 ) ;
#100 = PLANE ( 'NONE',  #141 ) ;
#101 = APPROVAL_STATUS ( 'not_yet_approved' ) ;
#102 = AXIS2_PLACEMENT_3D ( 'NONE', #24, #104, #205 ) ;
#103 = ADVANCED_BREP_SHAPE_REPRESENTATION ( '3435-50-013-03_REV_', ( #47, #99 ), #151 ) ;
#104 = DIRECTION ( 'NONE',  ( -0.000000000000000000, -0.000000000000000000, -1.000000000000000000 ) ) ;
#105 = DATE_AND_TIME ( #65, #51 ) ;
#106 = DIRECTION ( 'NONE',  ( -0.000000000000000000, -0.000000000000000000, -1.000000000000000000 ) ) ;
#107 = SHAPE_DEFINITION_REPRESENTATION ( #165, #103 ) ;
#108 = CC_DESIGN_PERSON_AND_ORGANIZATION_ASSIGNMENT ( #98, #119, ( #124 ) ) ;
#109 = DIRECTION ( 'NONE',  ( -0.3826834323650878944, 0.9238795325112875156, 0.000000000000000000 ) ) ;
#110 = APPROVAL_PERSON_ORGANIZATION ( #182, #71, #123 ) ;
#111 = AXIS2_PLACEMENT_3D ( 'NONE', #116, #153, #84 ) ;
#112 = CIRCLE ( 'NONE', #111, 1274.150000000000091 ) ;
#113 = CC_DESIGN_SECURITY_CLASSIFICATION ( #171, ( #117 ) ) ;
#114 = DATE_TIME_ROLE ( 'creation_date' ) ;
#115 = PERSON_AND_ORGANIZATION ( #32, #239 ) ;
#116 = CARTESIAN_POINT ( 'NONE',  ( 0.000000000000000000, 0.000000000000000000, 0.000000000000000000 ) ) ;
#117 = PRODUCT_DEFINITION_FORMATION_WITH_SPECIFIED_SOURCE ( 'ANY', '', #124, .NOT_KNOWN. ) ;
#118 = FACE_BOUND ( 'NONE', #207, .T. ) ;
#119 = PERSON_AND_ORGANIZATION_ROLE ( 'design_owner' ) ;
#120 = ORIENTED_EDGE ( 'NONE', *, *, #67, .T. ) ;
#121 = AXIS2_PLACEMENT_3D ( 'NONE', #193, #129, #109 ) ;
#122 = CARTESIAN_POINT ( 'NONE',  ( 469.1124855647420873, 1132.537724928961779, 2.957522019940867396E-15 ) ) ;
#123 = APPROVAL_ROLE ( '' ) ;
#124 = PRODUCT ( '3435-50-013-03_REV_', '3435-50-013-03_REV_', '', ( #62 ) ) ;
#125 = DIRECTION ( 'NONE',  ( 0.3826834323650878944, 0.9238795325112875156, 0.000000000000000000 ) ) ;
#126 = CIRCLE ( 'NONE', #232, 24.15000000000012648 ) ;
#127 = DIRECTION ( 'NONE',  ( 0.3826834323650875058, 0.9238795325112877377, 0.000000000000000000 ) ) ;
#128 = EDGE_LOOP ( 'NONE', ( #192, #76, #131, #188 ) ) ;
#129 = DIRECTION ( 'NONE',  ( 0.9238795325112878487, 0.3826834323650871728, 0.000000000000000000 ) ) ;
#130 = DIRECTION ( 'NONE',  ( -0.000000000000000000, -0.000000000000000000, -1.000000000000000000 ) ) ;
#131 = ORIENTED_EDGE ( 'NONE', *, *, #215, .T. ) ;
#132 = COORDINATED_UNIVERSAL_TIME_OFFSET ( 10, 0, .AHEAD. ) ;
#133 = DIRECTION ( 'NONE',  ( -1.000000000000000000, 0.000000000000000000, 0.000000000000000000 ) ) ;
#134 = AXIS2_PLACEMENT_3D ( 'NONE', #38, #22, #2 ) ;
#135 = CARTESIAN_POINT ( 'NONE',  ( 0.000000000000000000, 0.000000000000000000, 0.000000000000000000 ) ) ;
#136 = DIRECTION ( 'NONE',  ( 0.9238795325112878487, 0.3826834323650871728, 0.000000000000000000 ) ) ;
#137 = COORDINATED_UNIVERSAL_TIME_OFFSET ( 10, 0, .AHEAD. ) ;
#138 = APPROVAL ( #174, 'UNSPECIFIED' ) ;
#139 = DIRECTION ( 'NONE',  ( -1.000000000000000000, 0.000000000000000000, 0.000000000000000000 ) ) ;
#140 = VERTEX_POINT ( 'NONE', #28 ) ;
#141 = AXIS2_PLACEMENT_3D ( 'NONE', #154, #136, #214 ) ;
#142 = FACE_OUTER_BOUND ( 'NONE', #212, .T. ) ;
#143 = PERSON_AND_ORGANIZATION_ROLE ( 'classification_officer' ) ;
#144 = DIRECTION ( 'NONE',  ( 0.3826834323650878944, 0.9238795325112875156, 0.000000000000000000 ) ) ;
#145 = CARTESIAN_POINT ( 'NONE',  ( 478.3542904563589104, 1154.849415639109566, 0.000000000000000000 ) ) ;
#146 = AXIS2_PLACEMENT_3D ( 'NONE', #145, #186, #161 ) ;
#147 = FACE_OUTER_BOUND ( 'NONE', #128, .T. ) ;
#148 = TOROIDAL_SURFACE ( 'NONE', #86, 1250.000000000000000, 20.47000000000004860 ) ;
#149 = EDGE_CURVE ( 'NONE', #95, #243, #181, .T. ) ;
#150 = ORIENTED_EDGE ( 'NONE', *, *, #11, .T. ) ;
#151 =( GEOMETRIC_REPRESENTATION_CONTEXT ( 3 ) GLOBAL_UNCERTAINTY_ASSIGNED_CONTEXT ( ( #16 ) ) GLOBAL_UNIT_ASSIGNED_CONTEXT ( ( #248, #53, #55 ) ) REPRESENTATION_CONTEXT ( 'NONE', 'WORKASPACE' ) );
#152 = APPROVAL_ROLE ( '' ) ;
#153 = DIRECTION ( 'NONE',  ( -0.000000000000000000, -0.000000000000000000, -1.000000000000000000 ) ) ;
#154 = CARTESIAN_POINT ( 'NONE',  ( -478.3542904563589104, 1154.849415639109793, 0.000000000000000000 ) ) ;
#155 = CIRCLE ( 'NONE', #94, 20.46999999999995623 ) ;
#156 = APPLICATION_PROTOCOL_DEFINITION ( 'international standard', 'config_control_design', 1994, #250 ) ;
#157 = PERSON_AND_ORGANIZATION_ROLE ( 'design_supplier' ) ;
#158 = CARTESIAN_POINT ( 'NONE',  ( 486.1878203168722621, 1173.761229669615659, 0.000000000000000000 ) ) ;
#159 = ORIENTED_EDGE ( 'NONE', *, *, #14, .T. ) ;
#160 = LOCAL_TIME ( 12, 11, 7.000000000000000000, #3 ) ;
#161 = DIRECTION ( 'NONE',  ( 0.3826834323650871728, 0.9238795325112878487, 0.000000000000000000 ) ) ;
#162 = PERSON_AND_ORGANIZATION ( #32, #239 ) ;
#163 = EDGE_CURVE ( 'NONE', #243, #218, #208, .T. ) ;
#164 = DIRECTION ( 'NONE',  ( -1.000000000000000000, 0.000000000000000000, 0.000000000000000000 ) ) ;
#165 = PRODUCT_DEFINITION_SHAPE ( 'NONE', 'NONE',  #64 ) ;
#166 = PERSON_AND_ORGANIZATION_ROLE ( 'creator' ) ;
#167 = CIRCLE ( 'NONE', #134, 24.15000000000012648 ) ;
#168 = VERTEX_POINT ( 'NONE', #158 ) ;
#169 = ORIENTED_EDGE ( 'NONE', *, *, #216, .T. ) ;
#170 = CIRCLE ( 'NONE', #97, 1270.470000000000027 ) ;
#171 = SECURITY_CLASSIFICATION ( '', '', #68 ) ;
#172 = EDGE_LOOP ( 'NONE', ( #246, #159, #30, #54 ) ) ;
#173 = ORIENTED_EDGE ( 'NONE', *, *, #52, .F. ) ;
#174 = APPROVAL_STATUS ( 'not_yet_approved' ) ;
#175 = VERTEX_POINT ( 'NONE', #42 ) ;
#176 = APPLICATION_CONTEXT ( 'configuration controlled 3d designs of mechanical parts and assemblies' ) ;
#177 = DATE_AND_TIME ( #85, #160 ) ;
#178 = CIRCLE ( 'NONE', #200, 24.15000000000012648 ) ;
#179 = APPROVAL_DATE_TIME ( #213, #138 ) ;
#180 = DIRECTION ( 'NONE',  ( 0.000000000000000000, 0.000000000000000000, 1.000000000000000000 ) ) ;
#181 = CIRCLE ( 'NONE', #245, 20.46999999999995623 ) ;
#182 = PERSON_AND_ORGANIZATION ( #32, #239 ) ;
#183 = CC_DESIGN_PERSON_AND_ORGANIZATION_ASSIGNMENT ( #115, #249, ( #64 ) ) ;
#184 = VERTEX_POINT ( 'NONE', #122 ) ;
#185 = FACE_BOUND ( 'NONE', #63, .T. ) ;
#186 = DIRECTION ( 'NONE',  ( 0.9238795325112878487, -0.3826834323650871728, 0.000000000000000000 ) ) ;
#187 = PERSON_AND_ORGANIZATION ( #32, #239 ) ;
#188 = ORIENTED_EDGE ( 'NONE', *, *, #163, .F. ) ;
#189 = AXIS2_PLACEMENT_3D ( 'NONE', #89, #25, #125 ) ;
#190 = LOCAL_TIME ( 12, 11, 7.000000000000000000, #132 ) ;
#191 = EDGE_CURVE ( 'NONE', #140, #175, #57, .T. ) ;
#192 = ORIENTED_EDGE ( 'NONE', *, *, #149, .F. ) ;
#193 = CARTESIAN_POINT ( 'NONE',  ( -478.3542904563589104, 1154.849415639109793, 0.000000000000000000 ) ) ;
#194 = CARTESIAN_POINT ( 'NONE',  ( 0.000000000000000000, 0.000000000000000000, 0.000000000000000000 ) ) ;
#195 = DATE_AND_TIME ( #251, #90 ) ;
#196 = DIRECTION ( 'NONE',  ( -0.000000000000000000, -0.000000000000000000, -1.000000000000000000 ) ) ;
#197 = ORIENTED_EDGE ( 'NONE', *, *, #191, .F. ) ;
#198 = EDGE_LOOP ( 'NONE', ( #169, #230 ) ) ;
#199 = APPLICATION_PROTOCOL_DEFINITION ( 'international standard', 'config_control_design', 1994, #176 ) ;
#200 = AXIS2_PLACEMENT_3D ( 'NONE', #242, #238, #221 ) ;
#201 = PLANE ( 'NONE',  #146 ) ;
#202 = CARTESIAN_POINT ( 'NONE',  ( -486.1878203168722052, 1173.761229669615886, 0.000000000000000000 ) ) ;
#203 = ADVANCED_FACE ( 'NONE', ( #185, #70 ), #201, .T. ) ;
#204 = COORDINATED_UNIVERSAL_TIME_OFFSET ( 10, 0, .AHEAD. ) ;
#205 = DIRECTION ( 'NONE',  ( -1.000000000000000000, 0.000000000000000000, 0.000000000000000000 ) ) ;
#206 = CARTESIAN_POINT ( 'NONE',  ( 470.5207605958456156, 1135.937601608603472, 2.506851997854637681E-15 ) ) ;
#207 = EDGE_LOOP ( 'NONE', ( #73, #46 ) ) ;
#208 = CIRCLE ( 'NONE', #69, 1229.529999999999973 ) ;
#209 = ORIENTED_EDGE ( 'NONE', *, *, #163, .T. ) ;
#210 = PRODUCT_RELATED_PRODUCT_CATEGORY ( 'detail', '', ( #124 ) ) ;
#211 = AXIS2_PLACEMENT_3D ( 'NONE', #81, #196, #78 ) ;
#212 = EDGE_LOOP ( 'NONE', ( #75, #150, #120, #29 ) ) ;
#213 = DATE_AND_TIME ( #231, #190 ) ;
#214 = DIRECTION ( 'NONE',  ( -0.3826834323650871728, 0.9238795325112878487, 0.000000000000000000 ) ) ;
#215 = EDGE_CURVE ( 'NONE', #168, #218, #155, .T. ) ;
#216 = EDGE_CURVE ( 'NONE', #184, #41, #126, .T. ) ;
#217 = DIRECTION ( 'NONE',  ( -0.000000000000000000, -0.000000000000000000, -1.000000000000000000 ) ) ;
#218 = VERTEX_POINT ( 'NONE', #206 ) ;
#219 = CIRCLE ( 'NONE', #36, 1225.849999999999909 ) ;
#220 = LOCAL_TIME ( 12, 11, 7.000000000000000000, #45 ) ;
#221 = DIRECTION ( 'NONE',  ( 0.3826834323650875058, 0.9238795325112877377, 0.000000000000000000 ) ) ;
#222 = CARTESIAN_POINT ( 'NONE',  ( 0.000000000000000000, 0.000000000000000000, 2.506851997854637681E-15 ) ) ;
#223 = CC_DESIGN_PERSON_AND_ORGANIZATION_ASSIGNMENT ( #162, #143, ( #171 ) ) ;
#224 = CARTESIAN_POINT ( 'NONE',  ( 478.3542904563589104, 1154.849415639109566, 0.000000000000000000 ) ) ;
#225 = TOROIDAL_SURFACE ( 'NONE', #211, 1250.000000000000000, 20.47000000000004860 ) ;
#226 = CARTESIAN_POINT ( 'NONE',  ( -478.3542904563589104, 1154.849415639109793, 0.000000000000000000 ) ) ;
#227 = CARTESIAN_POINT ( 'NONE',  ( 0.000000000000000000, 0.000000000000000000, 0.000000000000000000 ) ) ;
#228 = TOROIDAL_SURFACE ( 'NONE', #27, 1250.000000000000000, 24.15000000000008029 ) ;
#229 = EDGE_LOOP ( 'NONE', ( #23, #56, #209, #236 ) ) ;
#230 = ORIENTED_EDGE ( 'NONE', *, *, #83, .T. ) ;
#231 = CALENDAR_DATE ( 2025, 20, 11 ) ;
#232 = AXIS2_PLACEMENT_3D ( 'NONE', #224, #48, #127 ) ;
#233 = DIRECTION ( 'NONE',  ( -0.000000000000000000, -0.000000000000000000, -1.000000000000000000 ) ) ;
#234 = APPROVAL_DATE_TIME ( #177, #13 ) ;
#235 = DIRECTION ( 'NONE',  ( -1.000000000000000000, 0.000000000000000000, 0.000000000000000000 ) ) ;
#236 = ORIENTED_EDGE ( 'NONE', *, *, #52, .T. ) ;
#237 = APPROVAL_STATUS ( 'not_yet_approved' ) ;
#238 = DIRECTION ( 'NONE',  ( 0.9238795325112879597, -0.3826834323650872283, 0.000000000000000000 ) ) ;
#239 = ORGANIZATION ( 'UNSPECIFIED', 'UNSPECIFIED', '' ) ;
#240 = CARTESIAN_POINT ( 'NONE',  ( -478.3542904563589104, 1154.849415639109793, 0.000000000000000000 ) ) ;
#241 = APPROVAL_DATE_TIME ( #105, #71 ) ;
#242 = CARTESIAN_POINT ( 'NONE',  ( 478.3542904563589104, 1154.849415639109566, 0.000000000000000000 ) ) ;
#243 = VERTEX_POINT ( 'NONE', #49 ) ;
#244 = DIRECTION ( 'NONE',  ( -0.3826834323650878944, 0.9238795325112875156, 0.000000000000000000 ) ) ;
#245 = AXIS2_PLACEMENT_3D ( 'NONE', #226, #87, #244 ) ;
#246 = ORIENTED_EDGE ( 'NONE', *, *, #191, .T. ) ;
#247 = EDGE_CURVE ( 'NONE', #243, #95, #9, .T. ) ;
#248 =( LENGTH_UNIT ( ) NAMED_UNIT ( * ) SI_UNIT ( .MILLI., .METRE. ) );
#249 = PERSON_AND_ORGANIZATION_ROLE ( 'creator' ) ;
#250 = APPLICATION_CONTEXT ( 'configuration controlled 3d designs of mechanical parts and assemblies' ) ;
#251 = CALENDAR_DATE ( 2025, 20, 11 ) ;
#252 = CLOSED_SHELL ( 'NONE', ( #19, #10, #96, #203, #39, #7 ) ) ;
#253 = CC_DESIGN_APPROVAL ( #71, ( #171 ) ) ;
ENDSEC;
END-ISO-10303-21;
