ISO-10303-21;
HEADER;
FILE_DESCRIPTION (( 'STEP AP203' ),
    '1' );
FILE_NAME ('3435-50-014-01_REV_.step',
    '2025-11-20T01:05:28',
    ( '' ),
    ( '' ),
    'SwSTEP 2.0',
    'SolidWorks 2025',
    '' );
FILE_SCHEMA (( 'CONFIG_CONTROL_DESIGN' ));
ENDSEC;

DATA;
#1 = AXIS2_PLACEMENT_3D ( 'NONE', #27, #183, #7 ) ;
#2 = EDGE_CURVE ( 'NONE', #232, #47, #21, .T. ) ;
#3 = FACE_BOUND ( 'NONE', #174, .T. ) ;
#4 = CIRCLE ( 'NONE', #80, 21.38000000000007006 ) ;
#5 = CARTESIAN_POINT ( 'NONE',  ( 1132.884733795811826, 0.000000000000000000, 528.2728271758753635 ) ) ;
#6 = ORIENTED_EDGE ( 'NONE', *, *, #233, .F. ) ;
#7 = DIRECTION ( 'NONE',  ( 1.000000000000000000, 0.000000000000000000, 0.000000000000000000 ) ) ;
#8 =( GEOMETRIC_REPRESENTATION_CONTEXT ( 3 ) GLOBAL_UNCERTAINTY_ASSIGNED_CONTEXT ( ( #178 ) ) GLOBAL_UNIT_ASSIGNED_CONTEXT ( ( #84, #78, #224 ) ) REPRESENTATION_CONTEXT ( 'NONE', 'WORKASPACE' ) );
#9 = DATE_AND_TIME ( #247, #14 ) ;
#10 = CC_DESIGN_PERSON_AND_ORGANIZATION_ASSIGNMENT ( #211, #35, ( #77 ) ) ;
#11 = APPROVAL_DATE_TIME ( #12, #201 ) ;
#12 = DATE_AND_TIME ( #250, #163 ) ;
#13 = LOCAL_TIME ( 12, 5, 28.00000000000000000, #143 ) ;
#14 = LOCAL_TIME ( 12, 5, 28.00000000000000000, #113 ) ;
#15 = PLANE ( 'NONE',  #252 ) ;
#16 = ORIENTED_EDGE ( 'NONE', *, *, #24, .T. ) ;
#17 = DIRECTION ( 'NONE',  ( -0.5000000000000021094, 0.000000000000000000, 0.8660254037844372643 ) ) ;
#18 = AXIS2_PLACEMENT_3D ( 'NONE', #119, #94, #71 ) ;
#19 = DIRECTION ( 'NONE',  ( -0.000000000000000000, -1.000000000000000000, 0.000000000000000000 ) ) ;
#20 = PRODUCT ( '3435-50-014-01_REV_', '3435-50-014-01_REV_', '', ( #79 ) ) ;
#21 = CIRCLE ( 'NONE', #185, 24.15000000000003766 ) ;
#22 = DIRECTION ( 'NONE',  ( -0.000000000000000000, -1.000000000000000000, 0.000000000000000000 ) ) ;
#23 = DIRECTION ( 'NONE',  ( -0.000000000000000000, -1.000000000000000000, 0.000000000000000000 ) ) ;
#24 = EDGE_CURVE ( 'NONE', #156, #186, #48, .T. ) ;
#25 = CIRCLE ( 'NONE', #96, 1271.379999999999882 ) ;
#26 = CARTESIAN_POINT ( 'NONE',  ( 0.000000000000000000, 0.000000000000000000, 0.000000000000000000 ) ) ;
#27 = CARTESIAN_POINT ( 'NONE',  ( 0.000000000000000000, 0.000000000000000000, 0.000000000000000000 ) ) ;
#28 = EDGE_CURVE ( 'NONE', #47, #53, #59, .T. ) ;
#29 = DIRECTION ( 'NONE',  ( 0.9063077870366492705, 0.000000000000000000, 0.4226182617407009401 ) ) ;
#30 = DATE_TIME_ROLE ( 'creation_date' ) ;
#31 = PERSON_AND_ORGANIZATION ( #118, #168 ) ;
#32 = EDGE_CURVE ( 'NONE', #232, #99, #52, .T. ) ;
#33 = APPROVAL_ROLE ( '' ) ;
#34 = CARTESIAN_POINT ( 'NONE',  ( 1110.997400738876877, 2.957522019940853591E-15, 518.0665961548373843 ) ) ;
#35 = PERSON_AND_ORGANIZATION_ROLE ( 'creator' ) ;
#36 = APPROVAL_PERSON_ORGANIZATION ( #31, #197, #33 ) ;
#37 = FACE_OUTER_BOUND ( 'NONE', #155, .T. ) ;
#38 = PERSON_AND_ORGANIZATION ( #118, #168 ) ;
#39 = CARTESIAN_POINT ( 'NONE',  ( 1132.884733795811826, 0.000000000000000000, 528.2728271758753635 ) ) ;
#40 = ADVANCED_FACE ( 'NONE', ( #37 ), #87, .F. ) ;
#41 = PLANE ( 'NONE',  #18 ) ;
#42 = FACE_OUTER_BOUND ( 'NONE', #165, .T. ) ;
#43 = APPLICATION_CONTEXT ( 'configuration controlled 3d designs of mechanical parts and assemblies' ) ;
#44 = CC_DESIGN_PERSON_AND_ORGANIZATION_ASSIGNMENT ( #235, #82, ( #20 ) ) ;
#45 = LOCAL_TIME ( 12, 5, 28.00000000000000000, #170 ) ;
#46 = APPLICATION_PROTOCOL_DEFINITION ( 'international standard', 'config_control_design', 1994, #101 ) ;
#47 = VERTEX_POINT ( 'NONE', #34 ) ;
#48 = CIRCLE ( 'NONE', #239, 21.38000000000007006 ) ;
#49 = DIRECTION ( 'NONE',  ( 0.000000000000000000, 0.000000000000000000, -1.000000000000000000 ) ) ;
#50 = CARTESIAN_POINT ( 'NONE',  ( -612.9250000000041609, 2.957522019940853197E-15, 1061.617241229151887 ) ) ;
#51 = ORIENTED_EDGE ( 'NONE', *, *, #32, .F. ) ;
#52 = CIRCLE ( 'NONE', #133, 1274.149999999999864 ) ;
#53 = VERTEX_POINT ( 'NONE', #50 ) ;
#54 = CC_DESIGN_DATE_AND_TIME_ASSIGNMENT ( #208, #30, ( #248 ) ) ;
#55 = ORIENTED_EDGE ( 'NONE', *, *, #72, .T. ) ;
#56 = ORIENTED_EDGE ( 'NONE', *, *, #148, .F. ) ;
#57 = APPROVAL_PERSON_ORGANIZATION ( #158, #167, #141 ) ;
#58 = DIRECTION ( 'NONE',  ( -0.5000000000000021094, 0.000000000000000000, 0.8660254037844372643 ) ) ;
#59 = CIRCLE ( 'NONE', #67, 1225.850000000000136 ) ;
#60 = FACE_OUTER_BOUND ( 'NONE', #129, .T. ) ;
#61 = DESIGN_CONTEXT ( 'detailed design', #101, 'design' ) ;
#62 = DIRECTION ( 'NONE',  ( -0.8660254037844367092, 0.000000000000000000, -0.5000000000000033307 ) ) ;
#63 = DIRECTION ( 'NONE',  ( -0.000000000000000000, -1.000000000000000000, 0.000000000000000000 ) ) ;
#64 = AXIS2_PLACEMENT_3D ( 'NONE', #251, #194, #17 ) ;
#65 = CALENDAR_DATE ( 2025, 20, 11 ) ;
#66 = EDGE_LOOP ( 'NONE', ( #56, #192, #253, #114 ) ) ;
#67 = AXIS2_PLACEMENT_3D ( 'NONE', #93, #19, #217 ) ;
#68 = PERSON_AND_ORGANIZATION ( #118, #168 ) ;
#69 = CARTESIAN_POINT ( 'NONE',  ( 1132.884733795811826, 0.000000000000000000, 528.2728271758753635 ) ) ;
#70 = SHAPE_DEFINITION_REPRESENTATION ( #98, #225 ) ;
#71 = DIRECTION ( 'NONE',  ( 0.9063077870366494926, 0.000000000000000000, 0.4226182617407002184 ) ) ;
#72 = EDGE_CURVE ( 'NONE', #53, #99, #73, .T. ) ;
#73 = CIRCLE ( 'NONE', #64, 24.15000000000001279 ) ;
#74 = CARTESIAN_POINT ( 'NONE',  ( 0.000000000000000000, 0.000000000000000000, 0.000000000000000000 ) ) ;
#75 = DIRECTION ( 'NONE',  ( -0.000000000000000000, -1.000000000000000000, 0.000000000000000000 ) ) ;
#76 = PRODUCT_RELATED_PRODUCT_CATEGORY ( 'detail', '', ( #20 ) ) ;
#77 = PRODUCT_DEFINITION_FORMATION_WITH_SPECIFIED_SOURCE ( 'ANY', '', #20, .NOT_KNOWN. ) ;
#78 =( NAMED_UNIT ( * ) PLANE_ANGLE_UNIT ( ) SI_UNIT ( $, .RADIAN. ) );
#79 = MECHANICAL_CONTEXT ( 'NONE', #43, 'mechanical' ) ;
#80 = AXIS2_PLACEMENT_3D ( 'NONE', #181, #62, #122 ) ;
#81 = APPROVAL_PERSON_ORGANIZATION ( #88, #201, #164 ) ;
#82 = PERSON_AND_ORGANIZATION_ROLE ( 'design_owner' ) ;
#83 = ADVANCED_FACE ( 'NONE', ( #3, #219 ), #41, .F. ) ;
#84 =( LENGTH_UNIT ( ) NAMED_UNIT ( * ) SI_UNIT ( .MILLI., .METRE. ) );
#85 = ORIENTED_EDGE ( 'NONE', *, *, #148, .T. ) ;
#86 = DIRECTION ( 'NONE',  ( 0.000000000000000000, 0.000000000000000000, -1.000000000000000000 ) ) ;
#87 = TOROIDAL_SURFACE ( 'NONE', #162, 1250.000000000000000, 21.37999999999999190 ) ;
#88 = PERSON_AND_ORGANIZATION ( #118, #168 ) ;
#89 = ORIENTED_EDGE ( 'NONE', *, *, #72, .F. ) ;
#90 = PERSON_AND_ORGANIZATION ( #118, #168 ) ;
#91 = VERTEX_POINT ( 'NONE', #153 ) ;
#92 = CALENDAR_DATE ( 2025, 20, 11 ) ;
#93 = CARTESIAN_POINT ( 'NONE',  ( 0.000000000000000000, 2.957522019940853197E-15, 0.000000000000000000 ) ) ;
#94 = DIRECTION ( 'NONE',  ( -0.4226182617407002740, 0.000000000000000000, 0.9063077870366496036 ) ) ;
#95 = ORIENTED_EDGE ( 'NONE', *, *, #28, .F. ) ;
#96 = AXIS2_PLACEMENT_3D ( 'NONE', #204, #103, #86 ) ;
#97 = SECURITY_CLASSIFICATION ( '', '', #147 ) ;
#98 = PRODUCT_DEFINITION_SHAPE ( 'NONE', 'NONE',  #248 ) ;
#99 = VERTEX_POINT ( 'NONE', #130 ) ;
#100 = ADVANCED_FACE ( 'NONE', ( #210, #42 ), #15, .T. ) ;
#101 = APPLICATION_CONTEXT ( 'configuration controlled 3d designs of mechanical parts and assemblies' ) ;
#102 = DIRECTION ( 'NONE',  ( 0.9063077870366500477, 0.000000000000000000, 0.4226182617406993303 ) ) ;
#103 = DIRECTION ( 'NONE',  ( -0.000000000000000000, -1.000000000000000000, 0.000000000000000000 ) ) ;
#104 = CC_DESIGN_PERSON_AND_ORGANIZATION_ASSIGNMENT ( #90, #173, ( #77 ) ) ;
#105 = CARTESIAN_POINT ( 'NONE',  ( 1132.884733795811826, 0.000000000000000000, 528.2728271758753635 ) ) ;
#106 = AXIS2_PLACEMENT_3D ( 'NONE', #5, #240, #138 ) ;
#107 = ORIENTED_EDGE ( 'NONE', *, *, #123, .F. ) ;
#108 = APPROVAL_DATE_TIME ( #166, #197 ) ;
#109 = CALENDAR_DATE ( 2025, 20, 11 ) ;
#110 = ORIENTED_EDGE ( 'NONE', *, *, #123, .T. ) ;
#111 = CARTESIAN_POINT ( 'NONE',  ( 0.000000000000000000, 0.000000000000000000, 0.000000000000000000 ) ) ;
#112 = EDGE_LOOP ( 'NONE', ( #169, #226 ) ) ;
#113 = COORDINATED_UNIVERSAL_TIME_OFFSET ( 10, 0, .AHEAD. ) ;
#114 = ORIENTED_EDGE ( 'NONE', *, *, #193, .T. ) ;
#115 = ADVANCED_FACE ( 'NONE', ( #175 ), #245, .T. ) ;
#116 = DIRECTION ( 'NONE',  ( 0.000000000000000000, 0.000000000000000000, -1.000000000000000000 ) ) ;
#117 = AXIS2_PLACEMENT_3D ( 'NONE', #105, #180, #102 ) ;
#118 = PERSON ( 'UNSPECIFIED', 'UNSPECIFIED', 'UNSPECIFIED', ('UNSPECIFIED'), ('UNSPECIFIED'), ('UNSPECIFIED') ) ;
#119 = CARTESIAN_POINT ( 'NONE',  ( 1132.884733795811826, 0.000000000000000000, 528.2728271758753635 ) ) ;
#120 = TOROIDAL_SURFACE ( 'NONE', #142, 1250.000000000000000, 21.37999999999999190 ) ;
#121 = CARTESIAN_POINT ( 'NONE',  ( -625.0000000000039790, 0.000000000000000000, 1082.531754730545799 ) ) ;
#122 = DIRECTION ( 'NONE',  ( -0.5000000000000024425, 0.000000000000000000, 0.8660254037844372643 ) ) ;
#123 = EDGE_CURVE ( 'NONE', #146, #91, #154, .T. ) ;
#124 = DIRECTION ( 'NONE',  ( -0.8660254037844367092, 0.000000000000000000, -0.5000000000000033307 ) ) ;
#125 = AXIS2_PLACEMENT_3D ( 'NONE', #69, #223, #29 ) ;
#126 = CARTESIAN_POINT ( 'NONE',  ( 0.000000000000000000, 2.618294856577040339E-15, 0.000000000000000000 ) ) ;
#127 = CARTESIAN_POINT ( 'NONE',  ( 1152.261594282655551, 0.000000000000000000, 537.3084056118915441 ) ) ;
#128 = PERSON_AND_ORGANIZATION_ROLE ( 'creator' ) ;
#129 = EDGE_LOOP ( 'NONE', ( #238, #191, #89, #95 ) ) ;
#130 = CARTESIAN_POINT ( 'NONE',  ( -637.0750000000040245, 0.000000000000000000, 1103.446268231939939 ) ) ;
#131 = EDGE_CURVE ( 'NONE', #47, #232, #157, .T. ) ;
#132 = EDGE_LOOP ( 'NONE', ( #151, #205 ) ) ;
#133 = AXIS2_PLACEMENT_3D ( 'NONE', #111, #75, #136 ) ;
#134 = ORIENTED_EDGE ( 'NONE', *, *, #28, .T. ) ;
#135 = DIRECTION ( 'NONE',  ( 0.9063077870366500477, 0.000000000000000000, 0.4226182617406993303 ) ) ;
#136 = DIRECTION ( 'NONE',  ( 0.000000000000000000, 0.000000000000000000, -1.000000000000000000 ) ) ;
#137 = CIRCLE ( 'NONE', #221, 24.15000000000001279 ) ;
#138 = DIRECTION ( 'NONE',  ( 0.9063077870366492705, 0.000000000000000000, 0.4226182617407009401 ) ) ;
#139 = CC_DESIGN_DATE_AND_TIME_ASSIGNMENT ( #9, #187, ( #97 ) ) ;
#140 = FACE_OUTER_BOUND ( 'NONE', #66, .T. ) ;
#141 = APPROVAL_ROLE ( '' ) ;
#142 = AXIS2_PLACEMENT_3D ( 'NONE', #26, #23, #161 ) ;
#143 = COORDINATED_UNIVERSAL_TIME_OFFSET ( 10, 0, .AHEAD. ) ;
#144 = EDGE_CURVE ( 'NONE', #99, #53, #137, .T. ) ;
#145 = TOROIDAL_SURFACE ( 'NONE', #220, 1250.000000000000000, 24.14999999999995950 ) ;
#146 = VERTEX_POINT ( 'NONE', #127 ) ;
#147 = SECURITY_CLASSIFICATION_LEVEL ( 'unclassified' ) ;
#148 = EDGE_CURVE ( 'NONE', #146, #156, #25, .T. ) ;
#149 = ORIENTED_EDGE ( 'NONE', *, *, #144, .T. ) ;
#150 = APPROVAL_STATUS ( 'not_yet_approved' ) ;
#151 = ORIENTED_EDGE ( 'NONE', *, *, #193, .F. ) ;
#152 = APPROVAL_DATE_TIME ( #244, #167 ) ;
#153 = CARTESIAN_POINT ( 'NONE',  ( 1113.507873308968328, 2.618294856577040339E-15, 519.2372487398590692 ) ) ;
#154 = CIRCLE ( 'NONE', #125, 21.38000000000006295 ) ;
#155 = EDGE_LOOP ( 'NONE', ( #107, #85, #16, #6 ) ) ;
#156 = VERTEX_POINT ( 'NONE', #237 ) ;
#157 = CIRCLE ( 'NONE', #117, 24.15000000000003766 ) ;
#158 = PERSON_AND_ORGANIZATION ( #118, #168 ) ;
#159 = CARTESIAN_POINT ( 'NONE',  ( 0.000000000000000000, 0.000000000000000000, 0.000000000000000000 ) ) ;
#160 = ORIENTED_EDGE ( 'NONE', *, *, #144, .F. ) ;
#161 = DIRECTION ( 'NONE',  ( 0.000000000000000000, 0.000000000000000000, -1.000000000000000000 ) ) ;
#162 = AXIS2_PLACEMENT_3D ( 'NONE', #228, #227, #213 ) ;
#163 = LOCAL_TIME ( 12, 5, 28.00000000000000000, #241 ) ;
#164 = APPROVAL_ROLE ( '' ) ;
#165 = EDGE_LOOP ( 'NONE', ( #55, #149 ) ) ;
#166 = DATE_AND_TIME ( #92, #45 ) ;
#167 = APPROVAL ( #236, 'UNSPECIFIED' ) ;
#168 = ORGANIZATION ( 'UNSPECIFIED', 'UNSPECIFIED', '' ) ;
#169 = ORIENTED_EDGE ( 'NONE', *, *, #131, .F. ) ;
#170 = COORDINATED_UNIVERSAL_TIME_OFFSET ( 10, 0, .AHEAD. ) ;
#171 = ORIENTED_EDGE ( 'NONE', *, *, #182, .T. ) ;
#172 = MANIFOLD_SOLID_BREP ( 'Stainless chs 48.3 X 2.7 CHS(1)', #234 ) ;
#173 = PERSON_AND_ORGANIZATION_ROLE ( 'design_supplier' ) ;
#174 = EDGE_LOOP ( 'NONE', ( #171, #110 ) ) ;
#175 = FACE_OUTER_BOUND ( 'NONE', #231, .T. ) ;
#176 = CIRCLE ( 'NONE', #209, 1228.620000000000118 ) ;
#177 = DIRECTION ( 'NONE',  ( -0.5000000000000024425, 0.000000000000000000, 0.8660254037844372643 ) ) ;
#178 = UNCERTAINTY_MEASURE_WITH_UNIT (LENGTH_MEASURE( 1.000000000000000082E-05 ), #84, 'distance_accuracy_value', 'NONE');
#179 = DIRECTION ( 'NONE',  ( -0.4226182617407002740, 0.000000000000000000, 0.9063077870366496036 ) ) ;
#180 = DIRECTION ( 'NONE',  ( -0.4226182617407002740, 0.000000000000000000, 0.9063077870366496036 ) ) ;
#181 = CARTESIAN_POINT ( 'NONE',  ( -625.0000000000039790, 0.000000000000000000, 1082.531754730545799 ) ) ;
#182 = EDGE_CURVE ( 'NONE', #91, #146, #196, .T. ) ;
#183 = DIRECTION ( 'NONE',  ( 0.000000000000000000, 0.000000000000000000, 1.000000000000000000 ) ) ;
#184 = CARTESIAN_POINT ( 'NONE',  ( -614.3100000000040382, 2.618294856577040339E-15, 1064.016131597634740 ) ) ;
#185 = AXIS2_PLACEMENT_3D ( 'NONE', #39, #179, #135 ) ;
#186 = VERTEX_POINT ( 'NONE', #184 ) ;
#187 = DATE_TIME_ROLE ( 'classification_date' ) ;
#188 = ADVANCED_FACE ( 'NONE', ( #140 ), #120, .F. ) ;
#189 = PERSON_AND_ORGANIZATION_ROLE ( 'classification_officer' ) ;
#190 = LOCAL_TIME ( 12, 5, 28.00000000000000000, #215 ) ;
#191 = ORIENTED_EDGE ( 'NONE', *, *, #32, .T. ) ;
#192 = ORIENTED_EDGE ( 'NONE', *, *, #182, .F. ) ;
#193 = EDGE_CURVE ( 'NONE', #186, #156, #4, .T. ) ;
#194 = DIRECTION ( 'NONE',  ( -0.8660254037844367092, 0.000000000000000000, -0.5000000000000033307 ) ) ;
#195 = CARTESIAN_POINT ( 'NONE',  ( -625.0000000000039790, 0.000000000000000000, 1082.531754730545799 ) ) ;
#196 = CIRCLE ( 'NONE', #106, 21.38000000000006295 ) ;
#197 = APPROVAL ( #243, 'UNSPECIFIED' ) ;
#198 = CC_DESIGN_SECURITY_CLASSIFICATION ( #97, ( #77 ) ) ;
#199 = DIRECTION ( 'NONE',  ( -0.8660254037844367092, 0.000000000000000000, -0.5000000000000033307 ) ) ;
#200 = DIRECTION ( 'NONE',  ( -0.000000000000000000, -1.000000000000000000, 0.000000000000000000 ) ) ;
#201 = APPROVAL ( #150, 'UNSPECIFIED' ) ;
#202 = CARTESIAN_POINT ( 'NONE',  ( 1154.772066852746775, 0.000000000000000000, 538.4790581969132290 ) ) ;
#203 = CC_DESIGN_APPROVAL ( #167, ( #248 ) ) ;
#204 = CARTESIAN_POINT ( 'NONE',  ( 0.000000000000000000, 0.000000000000000000, 0.000000000000000000 ) ) ;
#205 = ORIENTED_EDGE ( 'NONE', *, *, #24, .F. ) ;
#206 = CC_DESIGN_PERSON_AND_ORGANIZATION_ASSIGNMENT ( #68, #128, ( #248 ) ) ;
#207 = DIRECTION ( 'NONE',  ( 0.000000000000000000, 0.000000000000000000, -1.000000000000000000 ) ) ;
#208 = DATE_AND_TIME ( #109, #190 ) ;
#209 = AXIS2_PLACEMENT_3D ( 'NONE', #126, #63, #49 ) ;
#210 = FACE_BOUND ( 'NONE', #132, .T. ) ;
#211 = PERSON_AND_ORGANIZATION ( #118, #168 ) ;
#212 = CC_DESIGN_APPROVAL ( #197, ( #77 ) ) ;
#213 = DIRECTION ( 'NONE',  ( 0.000000000000000000, 0.000000000000000000, -1.000000000000000000 ) ) ;
#214 = CC_DESIGN_APPROVAL ( #201, ( #97 ) ) ;
#215 = COORDINATED_UNIVERSAL_TIME_OFFSET ( 10, 0, .AHEAD. ) ;
#216 = DIRECTION ( 'NONE',  ( -0.5000000000000032196, 0.000000000000000000, 0.8660254037844368202 ) ) ;
#217 = DIRECTION ( 'NONE',  ( 0.000000000000000000, 0.000000000000000000, -1.000000000000000000 ) ) ;
#218 = ADVANCED_FACE ( 'NONE', ( #60 ), #145, .T. ) ;
#219 = FACE_OUTER_BOUND ( 'NONE', #112, .T. ) ;
#220 = AXIS2_PLACEMENT_3D ( 'NONE', #159, #200, #207 ) ;
#221 = AXIS2_PLACEMENT_3D ( 'NONE', #121, #124, #58 ) ;
#222 = APPLICATION_PROTOCOL_DEFINITION ( 'international standard', 'config_control_design', 1994, #43 ) ;
#223 = DIRECTION ( 'NONE',  ( -0.4226182617407002740, 0.000000000000000000, 0.9063077870366496036 ) ) ;
#224 =( NAMED_UNIT ( * ) SI_UNIT ( $, .STERADIAN. ) SOLID_ANGLE_UNIT ( ) );
#225 = ADVANCED_BREP_SHAPE_REPRESENTATION ( '3435-50-014-01_REV_', ( #172, #1 ), #8 ) ;
#226 = ORIENTED_EDGE ( 'NONE', *, *, #2, .F. ) ;
#227 = DIRECTION ( 'NONE',  ( -0.000000000000000000, -1.000000000000000000, 0.000000000000000000 ) ) ;
#228 = CARTESIAN_POINT ( 'NONE',  ( 0.000000000000000000, 0.000000000000000000, 0.000000000000000000 ) ) ;
#229 = AXIS2_PLACEMENT_3D ( 'NONE', #74, #22, #116 ) ;
#230 = CARTESIAN_POINT ( 'NONE',  ( -625.0000000000039790, 0.000000000000000000, 1082.531754730545799 ) ) ;
#231 = EDGE_LOOP ( 'NONE', ( #51, #246, #134, #160 ) ) ;
#232 = VERTEX_POINT ( 'NONE', #202 ) ;
#233 = EDGE_CURVE ( 'NONE', #91, #186, #176, .T. ) ;
#234 = CLOSED_SHELL ( 'NONE', ( #218, #40, #115, #100, #83, #188 ) ) ;
#235 = PERSON_AND_ORGANIZATION ( #118, #168 ) ;
#236 = APPROVAL_STATUS ( 'not_yet_approved' ) ;
#237 = CARTESIAN_POINT ( 'NONE',  ( -635.6900000000040336, 0.000000000000000000, 1101.047377863456859 ) ) ;
#238 = ORIENTED_EDGE ( 'NONE', *, *, #131, .T. ) ;
#239 = AXIS2_PLACEMENT_3D ( 'NONE', #195, #199, #177 ) ;
#240 = DIRECTION ( 'NONE',  ( -0.4226182617407002740, 0.000000000000000000, 0.9063077870366496036 ) ) ;
#241 = COORDINATED_UNIVERSAL_TIME_OFFSET ( 10, 0, .AHEAD. ) ;
#242 = CC_DESIGN_PERSON_AND_ORGANIZATION_ASSIGNMENT ( #38, #189, ( #97 ) ) ;
#243 = APPROVAL_STATUS ( 'not_yet_approved' ) ;
#244 = DATE_AND_TIME ( #65, #13 ) ;
#245 = TOROIDAL_SURFACE ( 'NONE', #229, 1250.000000000000000, 24.14999999999995950 ) ;
#246 = ORIENTED_EDGE ( 'NONE', *, *, #2, .T. ) ;
#247 = CALENDAR_DATE ( 2025, 20, 11 ) ;
#248 = PRODUCT_DEFINITION ( 'UNKNOWN', '', #77, #61 ) ;
#249 = DIRECTION ( 'NONE',  ( -0.8660254037844368202, 0.000000000000000000, -0.5000000000000032196 ) ) ;
#250 = CALENDAR_DATE ( 2025, 20, 11 ) ;
#251 = CARTESIAN_POINT ( 'NONE',  ( -625.0000000000039790, 0.000000000000000000, 1082.531754730545799 ) ) ;
#252 = AXIS2_PLACEMENT_3D ( 'NONE', #230, #249, #216 ) ;
#253 = ORIENTED_EDGE ( 'NONE', *, *, #233, .T. ) ;
ENDSEC;
END-ISO-10303-21;
