ISO-10303-21;
HEADER;
FILE_DESCRIPTION (( 'STEP AP203' ),
    '1' );
FILE_NAME ('3435-50-014-02_REV_.step',
    '2025-11-20T01:05:23',
    ( '' ),
    ( '' ),
    'SwSTEP 2.0',
    'SolidWorks 2025',
    '' );
FILE_SCHEMA (( 'CONFIG_CONTROL_DESIGN' ));
ENDSEC;

DATA;
#1 = ADVANCED_FACE ( 'NONE', ( #407, #70 ), #224, .F. ) ;
#2 = COORDINATED_UNIVERSAL_TIME_OFFSET ( 10, 0, .AHEAD. ) ;
#3 = AXIS2_PLACEMENT_3D ( 'NONE', #355, #163, #76 ) ;
#4 = CARTESIAN_POINT ( 'NONE',  ( 1343.000000000000000, 0.000000000000000000, 3.289401302509790623E-13 ) ) ;
#5 = AXIS2_PLACEMENT_3D ( 'NONE', #53, #142, #269 ) ;
#6 = CARTESIAN_POINT ( 'NONE',  ( 1288.000000000000000, 0.000000000000000000, 3.154690154603581960E-13 ) ) ;
#7 = FACE_OUTER_BOUND ( 'NONE', #89, .T. ) ;
#8 = CARTESIAN_POINT ( 'NONE',  ( 1288.000000000000000, 2.957522019940857930E-15, -24.14999999999968239 ) ) ;
#9 = CIRCLE ( 'NONE', #28, 20.46999999999998820 ) ;
#10 = ORIENTED_EDGE ( 'NONE', *, *, #32, .T. ) ;
#11 = DIRECTION ( 'NONE',  ( 1.000000000000000000, 0.000000000000000000, 2.449293598294708386E-16 ) ) ;
#12 = DIRECTION ( 'NONE',  ( 1.000000000000000000, 0.000000000000000000, 0.000000000000000000 ) ) ;
#13 = ADVANCED_FACE ( 'NONE', ( #190 ), #248, .T. ) ;
#14 = CYLINDRICAL_SURFACE ( 'NONE', #389, 24.14999999999999858 ) ;
#15 = VECTOR ( 'NONE', #174, 1000.000000000000000 ) ;
#16 = CARTESIAN_POINT ( 'NONE',  ( 1400.000000000000000, -114.9999999999999289, 20.47000000000000242 ) ) ;
#17 = ORIENTED_EDGE ( 'NONE', *, *, #162, .T. ) ;
#18 = ORIENTED_EDGE ( 'NONE', *, *, #390, .T. ) ;
#19 = EDGE_CURVE ( 'NONE', #80, #23, #253, .T. ) ;
#20 =( NAMED_UNIT ( * ) SI_UNIT ( $, .STERADIAN. ) SOLID_ANGLE_UNIT ( ) );
#21 = ORIENTED_EDGE ( 'NONE', *, *, #286, .F. ) ;
#22 = CARTESIAN_POINT ( 'NONE',  ( 1343.000000000000000, 0.000000000000000000, 24.15000000000032898 ) ) ;
#23 = VERTEX_POINT ( 'NONE', #290 ) ;
#24 = EDGE_CURVE ( 'NONE', #147, #203, #326, .T. ) ;
#25 = DATE_AND_TIME ( #124, #275 ) ;
#26 = PERSON_AND_ORGANIZATION ( #272, #231 ) ;
#27 = EDGE_LOOP ( 'NONE', ( #157, #63, #342, #237 ) ) ;
#28 = AXIS2_PLACEMENT_3D ( 'NONE', #265, #388, #170 ) ;
#29 = LOCAL_TIME ( 12, 5, 23.00000000000000000, #410 ) ;
#30 = APPLICATION_CONTEXT ( 'configuration controlled 3d designs of mechanical parts and assemblies' ) ;
#31 = DIRECTION ( 'NONE',  ( -1.000000000000000000, -0.000000000000000000, -2.449293598294708386E-16 ) ) ;
#32 = EDGE_CURVE ( 'NONE', #99, #41, #226, .T. ) ;
#33 = CARTESIAN_POINT ( 'NONE',  ( 1288.000000000000000, 0.000000000000000000, 3.154690154603581960E-13 ) ) ;
#34 = CIRCLE ( 'NONE', #199, 20.47000000000000242 ) ;
#35 = CYLINDRICAL_SURFACE ( 'NONE', #297, 20.47000000000000242 ) ;
#36 = APPROVAL ( #404, 'UNSPECIFIED' ) ;
#37 = CARTESIAN_POINT ( 'NONE',  ( 1400.000000000000000, -114.9999999999999289, 0.000000000000000000 ) ) ;
#38 = CYLINDRICAL_SURFACE ( 'NONE', #3, 24.14999999999999858 ) ;
#39 = VERTEX_POINT ( 'NONE', #378 ) ;
#40 = CARTESIAN_POINT ( 'NONE',  ( 1400.000000000000000, -114.9999999999999289, 0.000000000000000000 ) ) ;
#41 = VERTEX_POINT ( 'NONE', #159 ) ;
#42 = LOCAL_TIME ( 12, 5, 23.00000000000000000, #322 ) ;
#43 = CARTESIAN_POINT ( 'NONE',  ( 1343.000000000000000, 2.957522019940857141E-15, -24.14999999999966818 ) ) ;
#44 = ADVANCED_BREP_SHAPE_REPRESENTATION ( '3435-50-014-02_REV_', ( #62, #60, #123 ), #262 ) ;
#45 = ADVANCED_FACE ( 'NONE', ( #160 ), #192, .F. ) ;
#46 = CARTESIAN_POINT ( 'NONE',  ( 1343.000000000000000, 0.000000000000000000, 3.289401302509790623E-13 ) ) ;
#47 = LINE ( 'NONE', #22, #15 ) ;
#48 = ORIENTED_EDGE ( 'NONE', *, *, #331, .F. ) ;
#49 = DIRECTION ( 'NONE',  ( -0.000000000000000000, 1.000000000000000000, -0.000000000000000000 ) ) ;
#50 = EDGE_LOOP ( 'NONE', ( #296, #402 ) ) ;
#51 =( NAMED_UNIT ( * ) PLANE_ANGLE_UNIT ( ) SI_UNIT ( $, .RADIAN. ) );
#52 = CC_DESIGN_PERSON_AND_ORGANIZATION_ASSIGNMENT ( #189, #215, ( #149 ) ) ;
#53 = CARTESIAN_POINT ( 'NONE',  ( 1343.000000000000000, 0.000000000000000000, 3.289401302509790623E-13 ) ) ;
#54 = EDGE_LOOP ( 'NONE', ( #167, #285, #347, #48 ) ) ;
#55 = EDGE_CURVE ( 'NONE', #39, #69, #84, .T. ) ;
#56 = AXIS2_PLACEMENT_3D ( 'NONE', #133, #198, #78 ) ;
#57 = CC_DESIGN_APPROVAL ( #36, ( #116 ) ) ;
#58 = PERSON_AND_ORGANIZATION ( #272, #231 ) ;
#59 = ORIENTED_EDGE ( 'NONE', *, *, #90, .F. ) ;
#60 = MANIFOLD_SOLID_BREP ( 'Stainless chs 48.3 X 3.68 CHS(1)[2]', #356 ) ;
#61 = CALENDAR_DATE ( 2025, 20, 11 ) ;
#62 = MANIFOLD_SOLID_BREP ( 'Stainless chs 48.3 X 3.68 CHS(1)[1]', #273 ) ;
#63 = ORIENTED_EDGE ( 'NONE', *, *, #55, .F. ) ;
#64 = COORDINATED_UNIVERSAL_TIME_OFFSET ( 10, 0, .AHEAD. ) ;
#65 = VECTOR ( 'NONE', #263, 1000.000000000000000 ) ;
#66 = PERSON_AND_ORGANIZATION_ROLE ( 'design_supplier' ) ;
#67 = EDGE_CURVE ( 'NONE', #213, #99, #409, .T. ) ;
#68 = DIRECTION ( 'NONE',  ( 1.000000000000000000, 0.000000000000000000, 2.449293598294708386E-16 ) ) ;
#69 = VERTEX_POINT ( 'NONE', #96 ) ;
#70 = FACE_OUTER_BOUND ( 'NONE', #242, .T. ) ;
#71 = PRODUCT_DEFINITION ( 'UNKNOWN', '', #116, #300 ) ;
#72 = AXIS2_PLACEMENT_3D ( 'NONE', #308, #82, #88 ) ;
#73 = DIRECTION ( 'NONE',  ( 0.000000000000000000, 0.000000000000000000, -1.000000000000000000 ) ) ;
#74 = CC_DESIGN_PERSON_AND_ORGANIZATION_ASSIGNMENT ( #152, #383, ( #116 ) ) ;
#75 = FACE_OUTER_BOUND ( 'NONE', #54, .T. ) ;
#76 = DIRECTION ( 'NONE',  ( 0.000000000000000000, 0.000000000000000000, 1.000000000000000000 ) ) ;
#77 = DIRECTION ( 'NONE',  ( 1.000000000000000000, 0.000000000000000000, 2.449293598294708386E-16 ) ) ;
#78 = DIRECTION ( 'NONE',  ( 1.000000000000000000, 0.000000000000000000, 0.000000000000000000 ) ) ;
#79 = LINE ( 'NONE', #16, #194 ) ;
#80 = VERTEX_POINT ( 'NONE', #218 ) ;
#81 = EDGE_CURVE ( 'NONE', #203, #341, #327, .T. ) ;
#82 = DIRECTION ( 'NONE',  ( 0.000000000000000000, -1.000000000000000000, 0.000000000000000000 ) ) ;
#83 = ORIENTED_EDGE ( 'NONE', *, *, #286, .T. ) ;
#84 = CIRCLE ( 'NONE', #107, 24.14999999999989200 ) ;
#85 = APPROVAL_PERSON_ORGANIZATION ( #26, #36, #252 ) ;
#86 = DIRECTION ( 'NONE',  ( 0.000000000000000000, 0.000000000000000000, -1.000000000000000000 ) ) ;
#87 = ORIENTED_EDGE ( 'NONE', *, *, #179, .F. ) ;
#88 = DIRECTION ( 'NONE',  ( 1.000000000000000000, 0.000000000000000000, 0.000000000000000000 ) ) ;
#89 = EDGE_LOOP ( 'NONE', ( #365, #278, #240, #288 ) ) ;
#90 = EDGE_CURVE ( 'NONE', #177, #213, #9, .T. ) ;
#91 = VERTEX_POINT ( 'NONE', #229 ) ;
#92 = DATE_TIME_ROLE ( 'classification_date' ) ;
#93 = DIRECTION ( 'NONE',  ( 0.000000000000000000, 0.000000000000000000, 1.000000000000000000 ) ) ;
#94 = ADVANCED_FACE ( 'NONE', ( #75 ), #104, .T. ) ;
#95 = PERSON_AND_ORGANIZATION_ROLE ( 'creator' ) ;
#96 = CARTESIAN_POINT ( 'NONE',  ( 1400.000000000000000, -114.9999999999999289, -24.14999999999999858 ) ) ;
#97 = AXIS2_PLACEMENT_3D ( 'NONE', #33, #68, #155 ) ;
#98 = COORDINATED_UNIVERSAL_TIME_OFFSET ( 10, 0, .AHEAD. ) ;
#99 = VERTEX_POINT ( 'NONE', #360 ) ;
#100 = ORIENTED_EDGE ( 'NONE', *, *, #348, .T. ) ;
#101 = CARTESIAN_POINT ( 'NONE',  ( 1400.000000000000000, -56.99999999999994316, 24.14999999999999858 ) ) ;
#102 = AXIS2_PLACEMENT_3D ( 'NONE', #164, #77, #73 ) ;
#103 = DIRECTION ( 'NONE',  ( 0.000000000000000000, 0.000000000000000000, 1.000000000000000000 ) ) ;
#104 = CYLINDRICAL_SURFACE ( 'NONE', #332, 24.14999999999999858 ) ;
#105 = EDGE_CURVE ( 'NONE', #23, #235, #109, .T. ) ;
#106 = DIRECTION ( 'NONE',  ( 0.000000000000000000, -1.000000000000000000, 0.000000000000000000 ) ) ;
#107 = AXIS2_PLACEMENT_3D ( 'NONE', #349, #386, #321 ) ;
#108 = DIRECTION ( 'NONE',  ( 1.000000000000000000, 0.000000000000000000, 2.449293598294708386E-16 ) ) ;
#109 = CIRCLE ( 'NONE', #148, 20.47000000000000242 ) ;
#110 = CARTESIAN_POINT ( 'NONE',  ( 1400.000000000000000, -56.99999999999994316, 0.000000000000000000 ) ) ;
#111 = CC_DESIGN_DATE_AND_TIME_ASSIGNMENT ( #185, #120, ( #71 ) ) ;
#112 = DIRECTION ( 'NONE',  ( 0.000000000000000000, -1.000000000000000000, 0.000000000000000000 ) ) ;
#113 = ORIENTED_EDGE ( 'NONE', *, *, #19, .T. ) ;
#114 = CARTESIAN_POINT ( 'NONE',  ( 1400.000000000000000, -114.9999999999999289, 0.000000000000000000 ) ) ;
#115 = VERTEX_POINT ( 'NONE', #101 ) ;
#116 = PRODUCT_DEFINITION_FORMATION_WITH_SPECIFIED_SOURCE ( 'ANY', '', #379, .NOT_KNOWN. ) ;
#117 = CARTESIAN_POINT ( 'NONE',  ( 1288.000000000000000, 0.000000000000000000, 24.15000000000031477 ) ) ;
#118 = ADVANCED_FACE ( 'NONE', ( #225 ), #257, .F. ) ;
#119 = PLANE ( 'NONE',  #161 ) ;
#120 = DATE_TIME_ROLE ( 'creation_date' ) ;
#121 = ORIENTED_EDGE ( 'NONE', *, *, #81, .F. ) ;
#122 = AXIS2_PLACEMENT_3D ( 'NONE', #144, #202, #303 ) ;
#123 = AXIS2_PLACEMENT_3D ( 'NONE', #377, #352, #284 ) ;
#124 = CALENDAR_DATE ( 2025, 20, 11 ) ;
#125 = CARTESIAN_POINT ( 'NONE',  ( 1400.000000000000000, -56.99999999999994316, 0.000000000000000000 ) ) ;
#126 = PERSON_AND_ORGANIZATION_ROLE ( 'design_owner' ) ;
#127 = ORIENTED_EDGE ( 'NONE', *, *, #400, .F. ) ;
#128 = CARTESIAN_POINT ( 'NONE',  ( 1343.000000000000000, 2.506851997854631764E-15, -20.46999999999967201 ) ) ;
#129 = CIRCLE ( 'NONE', #135, 24.14999999999999858 ) ;
#130 = LOCAL_TIME ( 12, 5, 23.00000000000000000, #98 ) ;
#131 = APPROVAL_DATE_TIME ( #25, #182 ) ;
#132 = DIRECTION ( 'NONE',  ( -1.000000000000000000, -0.000000000000000000, -2.449293598294708386E-16 ) ) ;
#133 = CARTESIAN_POINT ( 'NONE',  ( 1400.000000000000000, -56.99999999999994316, 0.000000000000000000 ) ) ;
#134 = DIRECTION ( 'NONE',  ( 1.000000000000000000, 0.000000000000000000, 2.449293598294708386E-16 ) ) ;
#135 = AXIS2_PLACEMENT_3D ( 'NONE', #236, #178, #86 ) ;
#136 = LINE ( 'NONE', #293, #254 ) ;
#137 = ORIENTED_EDGE ( 'NONE', *, *, #319, .F. ) ;
#138 = DIRECTION ( 'NONE',  ( -0.000000000000000000, 1.000000000000000000, -0.000000000000000000 ) ) ;
#139 = DIRECTION ( 'NONE',  ( 0.000000000000000000, 0.000000000000000000, 1.000000000000000000 ) ) ;
#140 = AXIS2_PLACEMENT_3D ( 'NONE', #110, #395, #340 ) ;
#141 = FACE_OUTER_BOUND ( 'NONE', #175, .T. ) ;
#142 = DIRECTION ( 'NONE',  ( 1.000000000000000000, 0.000000000000000000, 2.449293598294708386E-16 ) ) ;
#143 = ORIENTED_EDGE ( 'NONE', *, *, #90, .T. ) ;
#144 = CARTESIAN_POINT ( 'NONE',  ( 1400.000000000000000, -114.9999999999999289, 0.000000000000000000 ) ) ;
#145 = ORIENTED_EDGE ( 'NONE', *, *, #166, .T. ) ;
#146 = CYLINDRICAL_SURFACE ( 'NONE', #320, 20.47000000000000242 ) ;
#147 = VERTEX_POINT ( 'NONE', #43 ) ;
#148 = AXIS2_PLACEMENT_3D ( 'NONE', #228, #108, #333 ) ;
#149 = SECURITY_CLASSIFICATION ( '', '', #279 ) ;
#150 = ADVANCED_FACE ( 'NONE', ( #359 ), #38, .T. ) ;
#151 = DIRECTION ( 'NONE',  ( 0.000000000000000000, 0.000000000000000000, 1.000000000000000000 ) ) ;
#152 = PERSON_AND_ORGANIZATION ( #272, #231 ) ;
#153 = APPROVAL_ROLE ( '' ) ;
#154 = EDGE_CURVE ( 'NONE', #69, #39, #344, .T. ) ;
#155 = DIRECTION ( 'NONE',  ( 2.449293598294708386E-16, 0.000000000000000000, -1.000000000000000000 ) ) ;
#156 = AXIS2_PLACEMENT_3D ( 'NONE', #391, #330, #362 ) ;
#157 = ORIENTED_EDGE ( 'NONE', *, *, #166, .F. ) ;
#158 = APPROVAL_ROLE ( '' ) ;
#159 = CARTESIAN_POINT ( 'NONE',  ( 1400.000000000000000, -56.99999999999994316, 20.47000000000000242 ) ) ;
#160 = FACE_OUTER_BOUND ( 'NONE', #411, .T. ) ;
#161 = AXIS2_PLACEMENT_3D ( 'NONE', #403, #277, #234 ) ;
#162 = EDGE_CURVE ( 'NONE', #341, #203, #212, .T. ) ;
#163 = DIRECTION ( 'NONE',  ( -1.000000000000000000, -0.000000000000000000, -2.449293598294708386E-16 ) ) ;
#164 = CARTESIAN_POINT ( 'NONE',  ( 1288.000000000000000, 0.000000000000000000, 3.154690154603581960E-13 ) ) ;
#165 = DIRECTION ( 'NONE',  ( 0.000000000000000000, 0.000000000000000000, -1.000000000000000000 ) ) ;
#166 = EDGE_CURVE ( 'NONE', #69, #91, #328, .T. ) ;
#167 = ORIENTED_EDGE ( 'NONE', *, *, #390, .F. ) ;
#168 = CARTESIAN_POINT ( 'NONE',  ( 1343.000000000000000, 0.000000000000000000, 3.289401302509790623E-13 ) ) ;
#169 = APPROVAL ( #287, 'UNSPECIFIED' ) ;
#170 = DIRECTION ( 'NONE',  ( 1.000000000000000000, 0.000000000000000000, 0.000000000000000000 ) ) ;
#171 = EDGE_CURVE ( 'NONE', #115, #91, #311, .T. ) ;
#172 = DIRECTION ( 'NONE',  ( 1.000000000000000000, 0.000000000000000000, 0.000000000000000000 ) ) ;
#173 = CIRCLE ( 'NONE', #5, 24.14999999999999858 ) ;
#174 = DIRECTION ( 'NONE',  ( -1.000000000000000000, -0.000000000000000000, -2.449293598294708386E-16 ) ) ;
#175 = EDGE_LOOP ( 'NONE', ( #397, #346, #280, #309 ) ) ;
#176 = PLANE ( 'NONE',  #302 ) ;
#177 = VERTEX_POINT ( 'NONE', #329 ) ;
#178 = DIRECTION ( 'NONE',  ( 1.000000000000000000, 0.000000000000000000, 2.449293598294708386E-16 ) ) ;
#179 = EDGE_CURVE ( 'NONE', #186, #80, #394, .T. ) ;
#180 = ORIENTED_EDGE ( 'NONE', *, *, #154, .F. ) ;
#181 = CALENDAR_DATE ( 2025, 20, 11 ) ;
#182 = APPROVAL ( #221, 'UNSPECIFIED' ) ;
#183 = DATE_AND_TIME ( #61, #42 ) ;
#184 = EDGE_LOOP ( 'NONE', ( #372, #339 ) ) ;
#185 = DATE_AND_TIME ( #250, #29 ) ;
#186 = VERTEX_POINT ( 'NONE', #267 ) ;
#187 = AXIS2_PLACEMENT_3D ( 'NONE', #125, #256, #249 ) ;
#188 = APPROVAL_PERSON_ORGANIZATION ( #281, #169, #153 ) ;
#189 = PERSON_AND_ORGANIZATION ( #272, #231 ) ;
#190 = FACE_OUTER_BOUND ( 'NONE', #27, .T. ) ;
#191 = PERSON_AND_ORGANIZATION ( #272, #231 ) ;
#192 = CYLINDRICAL_SURFACE ( 'NONE', #351, 20.47000000000000242 ) ;
#193 = CC_DESIGN_PERSON_AND_ORGANIZATION_ASSIGNMENT ( #289, #126, ( #379 ) ) ;
#194 = VECTOR ( 'NONE', #49, 1000.000000000000000 ) ;
#195 = DIRECTION ( 'NONE',  ( -1.000000000000000000, -0.000000000000000000, -2.449293598294708386E-16 ) ) ;
#196 = DIRECTION ( 'NONE',  ( -0.000000000000000000, 1.000000000000000000, -0.000000000000000000 ) ) ;
#197 = APPLICATION_CONTEXT ( 'configuration controlled 3d designs of mechanical parts and assemblies' ) ;
#198 = DIRECTION ( 'NONE',  ( 0.000000000000000000, -1.000000000000000000, 0.000000000000000000 ) ) ;
#199 = AXIS2_PLACEMENT_3D ( 'NONE', #46, #335, #305 ) ;
#200 = LINE ( 'NONE', #232, #65 ) ;
#201 = DIRECTION ( 'NONE',  ( 0.000000000000000000, 0.000000000000000000, 1.000000000000000000 ) ) ;
#202 = DIRECTION ( 'NONE',  ( 0.000000000000000000, -1.000000000000000000, 0.000000000000000000 ) ) ;
#203 = VERTEX_POINT ( 'NONE', #8 ) ;
#204 = VECTOR ( 'NONE', #376, 1000.000000000000000 ) ;
#205 = FACE_BOUND ( 'NONE', #405, .T. ) ;
#206 = LOCAL_TIME ( 12, 5, 23.00000000000000000, #2 ) ;
#207 = ORIENTED_EDGE ( 'NONE', *, *, #162, .F. ) ;
#208 = EDGE_CURVE ( 'NONE', #39, #115, #136, .T. ) ;
#209 = CARTESIAN_POINT ( 'NONE',  ( 1400.000000000000000, -114.9999999999999289, 0.000000000000000000 ) ) ;
#210 = EDGE_LOOP ( 'NONE', ( #306, #211, #216, #17 ) ) ;
#211 = ORIENTED_EDGE ( 'NONE', *, *, #266, .F. ) ;
#212 = CIRCLE ( 'NONE', #102, 24.14999999999999858 ) ;
#213 = VERTEX_POINT ( 'NONE', #393 ) ;
#214 = EDGE_CURVE ( 'NONE', #186, #235, #200, .T. ) ;
#215 = PERSON_AND_ORGANIZATION_ROLE ( 'classification_officer' ) ;
#216 = ORIENTED_EDGE ( 'NONE', *, *, #331, .T. ) ;
#217 = DIRECTION ( 'NONE',  ( 0.000000000000000000, 0.000000000000000000, 1.000000000000000000 ) ) ;
#218 = CARTESIAN_POINT ( 'NONE',  ( 1343.000000000000000, 2.506851997854631764E-15, -20.46999999999967201 ) ) ;
#219 = AXIS2_PLACEMENT_3D ( 'NONE', #6, #11, #392 ) ;
#220 = CC_DESIGN_APPROVAL ( #182, ( #71 ) ) ;
#221 = APPROVAL_STATUS ( 'not_yet_approved' ) ;
#222 = EDGE_CURVE ( 'NONE', #235, #23, #384, .T. ) ;
#223 = DIRECTION ( 'NONE',  ( -0.000000000000000000, 1.000000000000000000, -0.000000000000000000 ) ) ;
#224 = PLANE ( 'NONE',  #97 ) ;
#225 = FACE_OUTER_BOUND ( 'NONE', #314, .T. ) ;
#226 = CIRCLE ( 'NONE', #187, 20.46999999999998820 ) ;
#227 = FACE_BOUND ( 'NONE', #325, .T. ) ;
#228 = CARTESIAN_POINT ( 'NONE',  ( 1288.000000000000000, 0.000000000000000000, 3.154690154603581960E-13 ) ) ;
#229 = CARTESIAN_POINT ( 'NONE',  ( 1400.000000000000000, -56.99999999999994316, -24.14999999999999858 ) ) ;
#230 = AXIS2_PLACEMENT_3D ( 'NONE', #168, #134, #165 ) ;
#231 = ORGANIZATION ( 'UNSPECIFIED', 'UNSPECIFIED', '' ) ;
#232 = CARTESIAN_POINT ( 'NONE',  ( 1343.000000000000000, 0.000000000000000000, 20.47000000000033282 ) ) ;
#233 = ADVANCED_FACE ( 'NONE', ( #7 ), #35, .F. ) ;
#234 = DIRECTION ( 'NONE',  ( 1.000000000000000000, 0.000000000000000000, 0.000000000000000000 ) ) ;
#235 = VERTEX_POINT ( 'NONE', #260 ) ;
#236 = CARTESIAN_POINT ( 'NONE',  ( 1343.000000000000000, 0.000000000000000000, 3.289401302509790623E-13 ) ) ;
#237 = ORIENTED_EDGE ( 'NONE', *, *, #171, .T. ) ;
#238 = ADVANCED_FACE ( 'NONE', ( #227, #357 ), #119, .F. ) ;
#239 = CC_DESIGN_APPROVAL ( #169, ( #149 ) ) ;
#240 = ORIENTED_EDGE ( 'NONE', *, *, #319, .T. ) ;
#241 = DIRECTION ( 'NONE',  ( 1.000000000000000000, 0.000000000000000000, 2.449293598294708386E-16 ) ) ;
#242 = EDGE_LOOP ( 'NONE', ( #207, #121 ) ) ;
#243 = CARTESIAN_POINT ( 'NONE',  ( 1343.000000000000000, 0.000000000000000000, 3.289401302509790623E-13 ) ) ;
#244 = EDGE_CURVE ( 'NONE', #80, #186, #34, .T. ) ;
#245 = ORIENTED_EDGE ( 'NONE', *, *, #179, .T. ) ;
#246 = CALENDAR_DATE ( 2025, 20, 11 ) ;
#247 = CIRCLE ( 'NONE', #72, 24.14999999999989200 ) ;
#248 = CYLINDRICAL_SURFACE ( 'NONE', #369, 24.14999999999999858 ) ;
#249 = DIRECTION ( 'NONE',  ( 1.000000000000000000, 0.000000000000000000, 0.000000000000000000 ) ) ;
#250 = CALENDAR_DATE ( 2025, 20, 11 ) ;
#251 = CARTESIAN_POINT ( 'NONE',  ( 1400.000000000000000, -114.9999999999999289, -20.47000000000000242 ) ) ;
#252 = APPROVAL_ROLE ( '' ) ;
#253 = LINE ( 'NONE', #128, #204 ) ;
#254 = VECTOR ( 'NONE', #138, 1000.000000000000000 ) ;
#255 = CIRCLE ( 'NONE', #313, 20.46999999999998820 ) ;
#256 = DIRECTION ( 'NONE',  ( 0.000000000000000000, -1.000000000000000000, 0.000000000000000000 ) ) ;
#257 = CYLINDRICAL_SURFACE ( 'NONE', #291, 20.47000000000000242 ) ;
#258 = ADVANCED_FACE ( 'NONE', ( #141 ), #146, .F. ) ;
#259 = UNCERTAINTY_MEASURE_WITH_UNIT (LENGTH_MEASURE( 1.000000000000000082E-05 ), #398, 'distance_accuracy_value', 'NONE');
#260 = CARTESIAN_POINT ( 'NONE',  ( 1288.000000000000000, 0.000000000000000000, 20.47000000000031861 ) ) ;
#261 = AXIS2_PLACEMENT_3D ( 'NONE', #40, #106, #12 ) ;
#262 =( GEOMETRIC_REPRESENTATION_CONTEXT ( 3 ) GLOBAL_UNCERTAINTY_ASSIGNED_CONTEXT ( ( #259 ) ) GLOBAL_UNIT_ASSIGNED_CONTEXT ( ( #398, #51, #20 ) ) REPRESENTATION_CONTEXT ( 'NONE', 'WORKASPACE' ) );
#263 = DIRECTION ( 'NONE',  ( -1.000000000000000000, -0.000000000000000000, -2.449293598294708386E-16 ) ) ;
#264 = EDGE_LOOP ( 'NONE', ( #180, #145, #100, #354 ) ) ;
#265 = CARTESIAN_POINT ( 'NONE',  ( 1400.000000000000000, -114.9999999999999289, 0.000000000000000000 ) ) ;
#266 = EDGE_CURVE ( 'NONE', #270, #147, #129, .T. ) ;
#267 = CARTESIAN_POINT ( 'NONE',  ( 1343.000000000000000, 0.000000000000000000, 20.47000000000033637 ) ) ;
#268 = PLANE ( 'NONE',  #122 ) ;
#269 = DIRECTION ( 'NONE',  ( 0.000000000000000000, 0.000000000000000000, -1.000000000000000000 ) ) ;
#270 = VERTEX_POINT ( 'NONE', #396 ) ;
#271 = CC_DESIGN_PERSON_AND_ORGANIZATION_ASSIGNMENT ( #58, #95, ( #71 ) ) ;
#272 = PERSON ( 'UNSPECIFIED', 'UNSPECIFIED', 'UNSPECIFIED', ('UNSPECIFIED'), ('UNSPECIFIED'), ('UNSPECIFIED') ) ;
#273 = CLOSED_SHELL ( 'NONE', ( #94, #45, #258, #150, #363, #1 ) ) ;
#274 = CARTESIAN_POINT ( 'NONE',  ( 1343.000000000000000, 0.000000000000000000, 3.289401302509790623E-13 ) ) ;
#275 = LOCAL_TIME ( 12, 5, 23.00000000000000000, #64 ) ;
#276 = ORIENTED_EDGE ( 'NONE', *, *, #214, .F. ) ;
#277 = DIRECTION ( 'NONE',  ( 0.000000000000000000, -1.000000000000000000, 0.000000000000000000 ) ) ;
#278 = ORIENTED_EDGE ( 'NONE', *, *, #400, .T. ) ;
#279 = SECURITY_CLASSIFICATION_LEVEL ( 'unclassified' ) ;
#280 = ORIENTED_EDGE ( 'NONE', *, *, #214, .T. ) ;
#281 = PERSON_AND_ORGANIZATION ( #272, #231 ) ;
#282 = VECTOR ( 'NONE', #387, 1000.000000000000000 ) ;
#283 = CARTESIAN_POINT ( 'NONE',  ( 1343.000000000000000, 2.957522019940857141E-15, -24.14999999999966818 ) ) ;
#284 = DIRECTION ( 'NONE',  ( 1.000000000000000000, 0.000000000000000000, 0.000000000000000000 ) ) ;
#285 = ORIENTED_EDGE ( 'NONE', *, *, #24, .T. ) ;
#286 = EDGE_CURVE ( 'NONE', #41, #99, #337, .T. ) ;
#287 = APPROVAL_STATUS ( 'not_yet_approved' ) ;
#288 = ORIENTED_EDGE ( 'NONE', *, *, #32, .F. ) ;
#289 = PERSON_AND_ORGANIZATION ( #272, #231 ) ;
#290 = CARTESIAN_POINT ( 'NONE',  ( 1288.000000000000000, 2.506851997854632553E-15, -20.46999999999968978 ) ) ;
#291 = AXIS2_PLACEMENT_3D ( 'NONE', #298, #196, #201 ) ;
#292 = CC_DESIGN_SECURITY_CLASSIFICATION ( #149, ( #116 ) ) ;
#293 = CARTESIAN_POINT ( 'NONE',  ( 1400.000000000000000, -114.9999999999999289, 24.14999999999999858 ) ) ;
#294 = DIRECTION ( 'NONE',  ( -0.000000000000000000, 1.000000000000000000, -0.000000000000000000 ) ) ;
#295 = CARTESIAN_POINT ( 'NONE',  ( 1400.000000000000000, -114.9999999999999289, -24.14999999999999858 ) ) ;
#296 = ORIENTED_EDGE ( 'NONE', *, *, #222, .T. ) ;
#297 = AXIS2_PLACEMENT_3D ( 'NONE', #37, #294, #103 ) ;
#298 = CARTESIAN_POINT ( 'NONE',  ( 1400.000000000000000, -114.9999999999999289, 0.000000000000000000 ) ) ;
#299 = CARTESIAN_POINT ( 'NONE',  ( 1343.000000000000000, 0.000000000000000000, 3.289401302509790623E-13 ) ) ;
#300 = DESIGN_CONTEXT ( 'detailed design', #30, 'design' ) ;
#301 = FACE_OUTER_BOUND ( 'NONE', #336, .T. ) ;
#302 = AXIS2_PLACEMENT_3D ( 'NONE', #243, #241, #338 ) ;
#303 = DIRECTION ( 'NONE',  ( 1.000000000000000000, 0.000000000000000000, 0.000000000000000000 ) ) ;
#304 = ORIENTED_EDGE ( 'NONE', *, *, #266, .T. ) ;
#305 = DIRECTION ( 'NONE',  ( 0.000000000000000000, 0.000000000000000000, -1.000000000000000000 ) ) ;
#306 = ORIENTED_EDGE ( 'NONE', *, *, #24, .F. ) ;
#307 = CC_DESIGN_DATE_AND_TIME_ASSIGNMENT ( #183, #92, ( #149 ) ) ;
#308 = CARTESIAN_POINT ( 'NONE',  ( 1400.000000000000000, -56.99999999999994316, 0.000000000000000000 ) ) ;
#309 = ORIENTED_EDGE ( 'NONE', *, *, #105, .F. ) ;
#310 = PRODUCT_DEFINITION_SHAPE ( 'NONE', 'NONE',  #71 ) ;
#311 = CIRCLE ( 'NONE', #56, 24.14999999999989200 ) ;
#312 = DIRECTION ( 'NONE',  ( -1.000000000000000000, -0.000000000000000000, -2.449293598294708386E-16 ) ) ;
#313 = AXIS2_PLACEMENT_3D ( 'NONE', #209, #112, #172 ) ;
#314 = EDGE_LOOP ( 'NONE', ( #143, #370, #21, #137 ) ) ;
#315 = DATE_AND_TIME ( #181, #206 ) ;
#316 = ORIENTED_EDGE ( 'NONE', *, *, #55, .T. ) ;
#317 = DATE_AND_TIME ( #246, #130 ) ;
#318 = EDGE_LOOP ( 'NONE', ( #316, #353 ) ) ;
#319 = EDGE_CURVE ( 'NONE', #177, #41, #79, .T. ) ;
#320 = AXIS2_PLACEMENT_3D ( 'NONE', #274, #312, #364 ) ;
#321 = DIRECTION ( 'NONE',  ( 1.000000000000000000, 0.000000000000000000, 0.000000000000000000 ) ) ;
#322 = COORDINATED_UNIVERSAL_TIME_OFFSET ( 10, 0, .AHEAD. ) ;
#323 = CARTESIAN_POINT ( 'NONE',  ( 1400.000000000000000, -114.9999999999999289, 0.000000000000000000 ) ) ;
#324 = SHAPE_DEFINITION_REPRESENTATION ( #310, #44 ) ;
#325 = EDGE_LOOP ( 'NONE', ( #83, #10 ) ) ;
#326 = LINE ( 'NONE', #283, #361 ) ;
#327 = CIRCLE ( 'NONE', #219, 24.14999999999999858 ) ;
#328 = LINE ( 'NONE', #295, #282 ) ;
#329 = CARTESIAN_POINT ( 'NONE',  ( 1400.000000000000000, -114.9999999999999289, 20.47000000000000242 ) ) ;
#330 = DIRECTION ( 'NONE',  ( 1.000000000000000000, 0.000000000000000000, 2.449293598294708386E-16 ) ) ;
#331 = EDGE_CURVE ( 'NONE', #270, #341, #47, .T. ) ;
#332 = AXIS2_PLACEMENT_3D ( 'NONE', #299, #195, #139 ) ;
#333 = DIRECTION ( 'NONE',  ( 0.000000000000000000, 0.000000000000000000, -1.000000000000000000 ) ) ;
#334 = FACE_BOUND ( 'NONE', #399, .T. ) ;
#335 = DIRECTION ( 'NONE',  ( 1.000000000000000000, 0.000000000000000000, 2.449293598294708386E-16 ) ) ;
#336 = EDGE_LOOP ( 'NONE', ( #304, #18 ) ) ;
#337 = CIRCLE ( 'NONE', #140, 20.46999999999998820 ) ;
#338 = DIRECTION ( 'NONE',  ( 2.449293598294708386E-16, 0.000000000000000000, -1.000000000000000000 ) ) ;
#339 = ORIENTED_EDGE ( 'NONE', *, *, #348, .F. ) ;
#340 = DIRECTION ( 'NONE',  ( 1.000000000000000000, 0.000000000000000000, 0.000000000000000000 ) ) ;
#341 = VERTEX_POINT ( 'NONE', #117 ) ;
#342 = ORIENTED_EDGE ( 'NONE', *, *, #208, .T. ) ;
#343 = ADVANCED_FACE ( 'NONE', ( #367 ), #14, .T. ) ;
#344 = CIRCLE ( 'NONE', #261, 24.14999999999989200 ) ;
#345 = MECHANICAL_CONTEXT ( 'NONE', #197, 'mechanical' ) ;
#346 = ORIENTED_EDGE ( 'NONE', *, *, #244, .T. ) ;
#347 = ORIENTED_EDGE ( 'NONE', *, *, #81, .T. ) ;
#348 = EDGE_CURVE ( 'NONE', #91, #115, #247, .T. ) ;
#349 = CARTESIAN_POINT ( 'NONE',  ( 1400.000000000000000, -114.9999999999999289, 0.000000000000000000 ) ) ;
#350 = PERSON_AND_ORGANIZATION ( #272, #231 ) ;
#351 = AXIS2_PLACEMENT_3D ( 'NONE', #4, #132, #217 ) ;
#352 = DIRECTION ( 'NONE',  ( 0.000000000000000000, 0.000000000000000000, 1.000000000000000000 ) ) ;
#353 = ORIENTED_EDGE ( 'NONE', *, *, #154, .T. ) ;
#354 = ORIENTED_EDGE ( 'NONE', *, *, #208, .F. ) ;
#355 = CARTESIAN_POINT ( 'NONE',  ( 1343.000000000000000, 0.000000000000000000, 3.289401302509790623E-13 ) ) ;
#356 = CLOSED_SHELL ( 'NONE', ( #343, #118, #233, #13, #358, #238 ) ) ;
#357 = FACE_OUTER_BOUND ( 'NONE', #184, .T. ) ;
#358 = ADVANCED_FACE ( 'NONE', ( #334, #401 ), #268, .T. ) ;
#359 = FACE_OUTER_BOUND ( 'NONE', #210, .T. ) ;
#360 = CARTESIAN_POINT ( 'NONE',  ( 1400.000000000000000, -56.99999999999994316, -20.47000000000000242 ) ) ;
#361 = VECTOR ( 'NONE', #31, 1000.000000000000000 ) ;
#362 = DIRECTION ( 'NONE',  ( 0.000000000000000000, 0.000000000000000000, -1.000000000000000000 ) ) ;
#363 = ADVANCED_FACE ( 'NONE', ( #205, #301 ), #176, .T. ) ;
#364 = DIRECTION ( 'NONE',  ( 0.000000000000000000, 0.000000000000000000, 1.000000000000000000 ) ) ;
#365 = ORIENTED_EDGE ( 'NONE', *, *, #67, .F. ) ;
#366 = CC_DESIGN_PERSON_AND_ORGANIZATION_ASSIGNMENT ( #350, #66, ( #116 ) ) ;
#367 = FACE_OUTER_BOUND ( 'NONE', #264, .T. ) ;
#368 = ORIENTED_EDGE ( 'NONE', *, *, #222, .F. ) ;
#369 = AXIS2_PLACEMENT_3D ( 'NONE', #323, #223, #93 ) ;
#370 = ORIENTED_EDGE ( 'NONE', *, *, #67, .T. ) ;
#371 = DIRECTION ( 'NONE',  ( -0.000000000000000000, 1.000000000000000000, -0.000000000000000000 ) ) ;
#372 = ORIENTED_EDGE ( 'NONE', *, *, #171, .F. ) ;
#373 = VECTOR ( 'NONE', #382, 1000.000000000000000 ) ;
#374 = APPROVAL_PERSON_ORGANIZATION ( #191, #182, #158 ) ;
#375 = APPLICATION_PROTOCOL_DEFINITION ( 'international standard', 'config_control_design', 1994, #30 ) ;
#376 = DIRECTION ( 'NONE',  ( -1.000000000000000000, -0.000000000000000000, -2.449293598294708386E-16 ) ) ;
#377 = CARTESIAN_POINT ( 'NONE',  ( 0.000000000000000000, 0.000000000000000000, 0.000000000000000000 ) ) ;
#378 = CARTESIAN_POINT ( 'NONE',  ( 1400.000000000000000, -114.9999999999999289, 24.14999999999999858 ) ) ;
#379 = PRODUCT ( '3435-50-014-02_REV_', '3435-50-014-02_REV_', '', ( #345 ) ) ;
#380 = PRODUCT_RELATED_PRODUCT_CATEGORY ( 'detail', '', ( #379 ) ) ;
#381 = APPLICATION_PROTOCOL_DEFINITION ( 'international standard', 'config_control_design', 1994, #197 ) ;
#382 = DIRECTION ( 'NONE',  ( -0.000000000000000000, 1.000000000000000000, -0.000000000000000000 ) ) ;
#383 = PERSON_AND_ORGANIZATION_ROLE ( 'creator' ) ;
#384 = CIRCLE ( 'NONE', #156, 20.47000000000000242 ) ;
#385 = ORIENTED_EDGE ( 'NONE', *, *, #244, .F. ) ;
#386 = DIRECTION ( 'NONE',  ( 0.000000000000000000, -1.000000000000000000, 0.000000000000000000 ) ) ;
#387 = DIRECTION ( 'NONE',  ( -0.000000000000000000, 1.000000000000000000, -0.000000000000000000 ) ) ;
#388 = DIRECTION ( 'NONE',  ( 0.000000000000000000, -1.000000000000000000, 0.000000000000000000 ) ) ;
#389 = AXIS2_PLACEMENT_3D ( 'NONE', #114, #371, #151 ) ;
#390 = EDGE_CURVE ( 'NONE', #147, #270, #173, .T. ) ;
#391 = CARTESIAN_POINT ( 'NONE',  ( 1288.000000000000000, 0.000000000000000000, 3.154690154603581960E-13 ) ) ;
#392 = DIRECTION ( 'NONE',  ( 0.000000000000000000, 0.000000000000000000, -1.000000000000000000 ) ) ;
#393 = CARTESIAN_POINT ( 'NONE',  ( 1400.000000000000000, -114.9999999999999289, -20.47000000000000242 ) ) ;
#394 = CIRCLE ( 'NONE', #230, 20.47000000000000242 ) ;
#395 = DIRECTION ( 'NONE',  ( 0.000000000000000000, -1.000000000000000000, 0.000000000000000000 ) ) ;
#396 = CARTESIAN_POINT ( 'NONE',  ( 1343.000000000000000, 0.000000000000000000, 24.15000000000032898 ) ) ;
#397 = ORIENTED_EDGE ( 'NONE', *, *, #19, .F. ) ;
#398 =( LENGTH_UNIT ( ) NAMED_UNIT ( * ) SI_UNIT ( .MILLI., .METRE. ) );
#399 = EDGE_LOOP ( 'NONE', ( #59, #127 ) ) ;
#400 = EDGE_CURVE ( 'NONE', #213, #177, #255, .T. ) ;
#401 = FACE_OUTER_BOUND ( 'NONE', #318, .T. ) ;
#402 = ORIENTED_EDGE ( 'NONE', *, *, #105, .T. ) ;
#403 = CARTESIAN_POINT ( 'NONE',  ( 1400.000000000000000, -56.99999999999994316, 0.000000000000000000 ) ) ;
#404 = APPROVAL_STATUS ( 'not_yet_approved' ) ;
#405 = EDGE_LOOP ( 'NONE', ( #87, #385 ) ) ;
#406 = APPROVAL_DATE_TIME ( #317, #169 ) ;
#407 = FACE_BOUND ( 'NONE', #50, .T. ) ;
#408 = APPROVAL_DATE_TIME ( #315, #36 ) ;
#409 = LINE ( 'NONE', #251, #373 ) ;
#410 = COORDINATED_UNIVERSAL_TIME_OFFSET ( 10, 0, .AHEAD. ) ;
#411 = EDGE_LOOP ( 'NONE', ( #245, #113, #368, #276 ) ) ;
ENDSEC;
END-ISO-10303-21;
