ISO-10303-21;
HEADER;
FILE_DESCRIPTION (( 'STEP AP203' ),
    '1' );
FILE_NAME ('3435-50-017-01_REV_.step',
    '2025-11-20T01:04:50',
    ( '' ),
    ( '' ),
    'SwSTEP 2.0',
    'SolidWorks 2025',
    '' );
FILE_SCHEMA (( 'CONFIG_CONTROL_DESIGN' ));
ENDSEC;

DATA;
#1 = EDGE_CURVE ( 'NONE', #6, #117, #20, .T. ) ;
#2 = APPROVAL_STATUS ( 'not_yet_approved' ) ;
#3 = CC_DESIGN_APPROVAL ( #44, ( #70 ) ) ;
#4 = PERSON_AND_ORGANIZATION ( #85, #200 ) ;
#5 = CARTESIAN_POINT ( 'NONE',  ( 0.000000000000000000, 0.000000000000000000, 0.000000000000000000 ) ) ;
#6 = VERTEX_POINT ( 'NONE', #58 ) ;
#7 = DATE_AND_TIME ( #106, #239 ) ;
#8 = APPLICATION_PROTOCOL_DEFINITION ( 'international standard', 'config_control_design', 1994, #235 ) ;
#9 = EDGE_LOOP ( 'NONE', ( #37, #72 ) ) ;
#10 = PERSON_AND_ORGANIZATION ( #85, #200 ) ;
#11 = CIRCLE ( 'NONE', #164, 21.37999999999998124 ) ;
#12 = ORIENTED_EDGE ( 'NONE', *, *, #234, .T. ) ;
#13 = EDGE_CURVE ( 'NONE', #117, #6, #238, .T. ) ;
#14 = DIRECTION ( 'NONE',  ( -0.000000000000000000, -1.000000000000000000, 0.000000000000000000 ) ) ;
#15 = DIRECTION ( 'NONE',  ( -0.4226182617407002740, 0.000000000000000000, 0.9063077870366496036 ) ) ;
#16 = AXIS2_PLACEMENT_3D ( 'NONE', #194, #33, #192 ) ;
#17 = DIRECTION ( 'NONE',  ( 0.06975647374412181911, 0.000000000000000000, 0.9975640502598245307 ) ) ;
#18 = EDGE_CURVE ( 'NONE', #117, #56, #87, .T. ) ;
#19 = ORIENTED_EDGE ( 'NONE', *, *, #30, .T. ) ;
#20 = CIRCLE ( 'NONE', #63, 24.14999999999993463 ) ;
#21 = AXIS2_PLACEMENT_3D ( 'NONE', #148, #41, #248 ) ;
#22 = DIRECTION ( 'NONE',  ( -0.4226182617407002740, 0.000000000000000000, 0.9063077870366496036 ) ) ;
#23 = ADVANCED_FACE ( 'NONE', ( #245 ), #29, .F. ) ;
#24 = APPLICATION_PROTOCOL_DEFINITION ( 'international standard', 'config_control_design', 1994, #180 ) ;
#25 = CC_DESIGN_DATE_AND_TIME_ASSIGNMENT ( #26, #104, ( #207 ) ) ;
#26 = DATE_AND_TIME ( #91, #155 ) ;
#27 = APPROVAL_STATUS ( 'not_yet_approved' ) ;
#28 =( LENGTH_UNIT ( ) NAMED_UNIT ( * ) SI_UNIT ( .MILLI., .METRE. ) );
#29 = TOROIDAL_SURFACE ( 'NONE', #119, 715.0000000000001137, 21.37999999999997058 ) ;
#30 = EDGE_CURVE ( 'NONE', #210, #48, #139, .T. ) ;
#31 = PLANE ( 'NONE',  #64 ) ;
#32 = DIRECTION ( 'NONE',  ( 0.000000000000000000, 0.000000000000000000, -1.000000000000000000 ) ) ;
#33 = DIRECTION ( 'NONE',  ( -0.000000000000000000, -1.000000000000000000, 0.000000000000000000 ) ) ;
#34 = AXIS2_PLACEMENT_3D ( 'NONE', #222, #129, #51 ) ;
#35 = EDGE_LOOP ( 'NONE', ( #59, #232, #203, #113 ) ) ;
#36 = CARTESIAN_POINT ( 'NONE',  ( 0.000000000000000000, 0.000000000000000000, 0.000000000000000000 ) ) ;
#37 = ORIENTED_EDGE ( 'NONE', *, *, #1, .F. ) ;
#38 = EDGE_CURVE ( 'NONE', #185, #152, #175, .T. ) ;
#39 = DIRECTION ( 'NONE',  ( -0.000000000000000000, -1.000000000000000000, 0.000000000000000000 ) ) ;
#40 = CIRCLE ( 'NONE', #233, 21.37999999999993506 ) ;
#41 = DIRECTION ( 'NONE',  ( -0.000000000000000000, -1.000000000000000000, 0.000000000000000000 ) ) ;
#42 = EDGE_CURVE ( 'NONE', #48, #152, #99, .T. ) ;
#43 = COORDINATED_UNIVERSAL_TIME_OFFSET ( 10, 0, .AHEAD. ) ;
#44 = APPROVAL ( #27, 'UNSPECIFIED' ) ;
#45 = CARTESIAN_POINT ( 'NONE',  ( 0.000000000000000000, 0.000000000000000000, 0.000000000000000000 ) ) ;
#46 = DATE_AND_TIME ( #173, #83 ) ;
#47 = CARTESIAN_POINT ( 'NONE',  ( 51.36727213569638906, 0.000000000000000000, 734.5862153303296509 ) ) ;
#48 = VERTEX_POINT ( 'NONE', #47 ) ;
#49 = PERSON_AND_ORGANIZATION_ROLE ( 'classification_officer' ) ;
#50 = VERTEX_POINT ( 'NONE', #161 ) ;
#51 = DIRECTION ( 'NONE',  ( 0.000000000000000000, 0.000000000000000000, -1.000000000000000000 ) ) ;
#52 = AXIS2_PLACEMENT_3D ( 'NONE', #136, #22, #154 ) ;
#53 = PRODUCT_RELATED_PRODUCT_CATEGORY ( 'detail', '', ( #121 ) ) ;
#54 = CIRCLE ( 'NONE', #21, 690.8500000000000227 ) ;
#55 = EDGE_LOOP ( 'NONE', ( #12, #158 ) ) ;
#56 = VERTEX_POINT ( 'NONE', #73 ) ;
#57 = DIRECTION ( 'NONE',  ( 0.06975647374412181911, 0.000000000000000000, 0.9975640502598245307 ) ) ;
#58 = CARTESIAN_POINT ( 'NONE',  ( 626.1227346742695090, 2.957522019940855958E-15, 291.9658261235628061 ) ) ;
#59 = ORIENTED_EDGE ( 'NONE', *, *, #30, .F. ) ;
#60 = AXIS2_PLACEMENT_3D ( 'NONE', #5, #14, #107 ) ;
#61 = CARTESIAN_POINT ( 'NONE',  ( 648.0100677312044581, 0.000000000000000000, 302.1720571446007284 ) ) ;
#62 = ADVANCED_FACE ( 'NONE', ( #145, #162 ), #31, .T. ) ;
#63 = AXIS2_PLACEMENT_3D ( 'NONE', #61, #80, #230 ) ;
#64 = AXIS2_PLACEMENT_3D ( 'NONE', #217, #96, #74 ) ;
#65 = ORIENTED_EDGE ( 'NONE', *, *, #138, .T. ) ;
#66 = PERSON_AND_ORGANIZATION ( #85, #200 ) ;
#67 = APPROVAL_ROLE ( '' ) ;
#68 = SECURITY_CLASSIFICATION_LEVEL ( 'unclassified' ) ;
#69 = DIRECTION ( 'NONE',  ( 0.000000000000000000, 0.000000000000000000, -1.000000000000000000 ) ) ;
#70 = SECURITY_CLASSIFICATION ( '', '', #68 ) ;
#71 = ADVANCED_FACE ( 'NONE', ( #244 ), #166, .F. ) ;
#72 = ORIENTED_EDGE ( 'NONE', *, *, #13, .F. ) ;
#73 = CARTESIAN_POINT ( 'NONE',  ( 51.56049756796761585, 0.000000000000000000, 737.3494677495493761 ) ) ;
#74 = DIRECTION ( 'NONE',  ( 0.06975647374412173585, 0.000000000000000000, 0.9975640502598245307 ) ) ;
#75 = CARTESIAN_POINT ( 'NONE',  ( 49.87587872704707337, 0.000000000000000000, 713.2582959357747541 ) ) ;
#76 = ORIENTED_EDGE ( 'NONE', *, *, #1, .T. ) ;
#77 = DESIGN_CONTEXT ( 'detailed design', #180, 'design' ) ;
#78 = PRODUCT_DEFINITION_FORMATION_WITH_SPECIFIED_SOURCE ( 'ANY', '', #121, .NOT_KNOWN. ) ;
#79 = DIRECTION ( 'NONE',  ( -0.000000000000000000, -1.000000000000000000, 0.000000000000000000 ) ) ;
#80 = DIRECTION ( 'NONE',  ( -0.4226182617407002740, 0.000000000000000000, 0.9063077870366496036 ) ) ;
#81 = DIRECTION ( 'NONE',  ( 0.000000000000000000, 0.000000000000000000, -1.000000000000000000 ) ) ;
#82 = PRODUCT_DEFINITION_SHAPE ( 'NONE', 'NONE',  #207 ) ;
#83 = LOCAL_TIME ( 12, 4, 50.00000000000000000, #144 ) ;
#84 = CC_DESIGN_PERSON_AND_ORGANIZATION_ASSIGNMENT ( #10, #49, ( #70 ) ) ;
#85 = PERSON ( 'UNSPECIFIED', 'UNSPECIFIED', 'UNSPECIFIED', ('UNSPECIFIED'), ('UNSPECIFIED'), ('UNSPECIFIED') ) ;
#86 = COORDINATED_UNIVERSAL_TIME_OFFSET ( 10, 0, .AHEAD. ) ;
#87 = CIRCLE ( 'NONE', #223, 739.1500000000000909 ) ;
#88 = CALENDAR_DATE ( 2025, 20, 11 ) ;
#89 = APPROVAL_PERSON_ORGANIZATION ( #159, #149, #124 ) ;
#90 = ORIENTED_EDGE ( 'NONE', *, *, #38, .F. ) ;
#91 = CALENDAR_DATE ( 2025, 20, 11 ) ;
#92 = MECHANICAL_CONTEXT ( 'NONE', #235, 'mechanical' ) ;
#93 = DIRECTION ( 'NONE',  ( 0.06975647374412181911, 0.000000000000000000, 0.9975640502598244197 ) ) ;
#94 = AXIS2_PLACEMENT_3D ( 'NONE', #97, #220, #32 ) ;
#95 = CC_DESIGN_DATE_AND_TIME_ASSIGNMENT ( #108, #169, ( #70 ) ) ;
#96 = DIRECTION ( 'NONE',  ( -0.9975640502598245307, 0.000000000000000000, 0.06975647374412173585 ) ) ;
#97 = CARTESIAN_POINT ( 'NONE',  ( 0.000000000000000000, 2.618294856577037578E-15, 0.000000000000000000 ) ) ;
#98 = DIRECTION ( 'NONE',  ( 0.000000000000000000, 0.000000000000000000, -1.000000000000000000 ) ) ;
#99 = CIRCLE ( 'NONE', #195, 21.37999999999998124 ) ;
#100 = CARTESIAN_POINT ( 'NONE',  ( 667.3869282180480695, 0.000000000000000000, 311.2076355806168522 ) ) ;
#101 = CARTESIAN_POINT ( 'NONE',  ( 648.0100677312044581, 0.000000000000000000, 302.1720571446007284 ) ) ;
#102 = ORIENTED_EDGE ( 'NONE', *, *, #138, .F. ) ;
#103 = CIRCLE ( 'NONE', #224, 24.14999999999997371 ) ;
#104 = DATE_TIME_ROLE ( 'creation_date' ) ;
#105 =( NAMED_UNIT ( * ) PLANE_ANGLE_UNIT ( ) SI_UNIT ( $, .RADIAN. ) );
#106 = CALENDAR_DATE ( 2025, 20, 11 ) ;
#107 = DIRECTION ( 'NONE',  ( 0.000000000000000000, 0.000000000000000000, -1.000000000000000000 ) ) ;
#108 = DATE_AND_TIME ( #241, #182 ) ;
#109 = PLANE ( 'NONE',  #123 ) ;
#110 = DIRECTION ( 'NONE',  ( -0.000000000000000000, -1.000000000000000000, 0.000000000000000000 ) ) ;
#111 = DIRECTION ( 'NONE',  ( -0.9975640502598246417, 0.000000000000000000, 0.06975647374412174972 ) ) ;
#112 = TOROIDAL_SURFACE ( 'NONE', #153, 715.0000000000001137, 24.14999999999998082 ) ;
#113 = ORIENTED_EDGE ( 'NONE', *, *, #122, .T. ) ;
#114 = ADVANCED_FACE ( 'NONE', ( #146, #197 ), #109, .F. ) ;
#115 = CARTESIAN_POINT ( 'NONE',  ( 48.38448531839775768, 2.618294856577037184E-15, 691.9303765412197436 ) ) ;
#116 = CARTESIAN_POINT ( 'NONE',  ( 669.8974007881395210, 0.000000000000000000, 312.3782881656385939 ) ) ;
#117 = VERTEX_POINT ( 'NONE', #116 ) ;
#118 = DIRECTION ( 'NONE',  ( 0.06975647374412181911, 0.000000000000000000, 0.9975640502598244197 ) ) ;
#119 = AXIS2_PLACEMENT_3D ( 'NONE', #178, #110, #69 ) ;
#120 = APPROVAL_PERSON_ORGANIZATION ( #237, #44, #214 ) ;
#121 = PRODUCT ( '3435-50-017-01_REV_', '3435-50-017-01_REV_', '', ( #92 ) ) ;
#122 = EDGE_CURVE ( 'NONE', #152, #48, #11, .T. ) ;
#123 = AXIS2_PLACEMENT_3D ( 'NONE', #101, #179, #204 ) ;
#124 = APPROVAL_ROLE ( '' ) ;
#125 = CC_DESIGN_PERSON_AND_ORGANIZATION_ASSIGNMENT ( #4, #174, ( #207 ) ) ;
#126 = SHAPE_DEFINITION_REPRESENTATION ( #82, #205 ) ;
#127 = PERSON_AND_ORGANIZATION_ROLE ( 'creator' ) ;
#128 = CIRCLE ( 'NONE', #142, 21.37999999999993506 ) ;
#129 = DIRECTION ( 'NONE',  ( -0.000000000000000000, -1.000000000000000000, 0.000000000000000000 ) ) ;
#130 = CARTESIAN_POINT ( 'NONE',  ( 49.87587872704707337, 0.000000000000000000, 713.2582959357747541 ) ) ;
#131 = CARTESIAN_POINT ( 'NONE',  ( 49.87587872704707337, 0.000000000000000000, 713.2582959357747541 ) ) ;
#132 = ORIENTED_EDGE ( 'NONE', *, *, #172, .F. ) ;
#133 = ADVANCED_FACE ( 'NONE', ( #167 ), #112, .T. ) ;
#134 = DIRECTION ( 'NONE',  ( -0.9975640502598246417, 0.000000000000000000, 0.06975647374412174972 ) ) ;
#135 = ORIENTED_EDGE ( 'NONE', *, *, #42, .T. ) ;
#136 = CARTESIAN_POINT ( 'NONE',  ( 648.0100677312044581, 0.000000000000000000, 302.1720571446007284 ) ) ;
#137 = CC_DESIGN_APPROVAL ( #228, ( #207 ) ) ;
#138 = EDGE_CURVE ( 'NONE', #50, #56, #103, .T. ) ;
#139 = CIRCLE ( 'NONE', #60, 736.3799999999999955 ) ;
#140 = APPROVAL_DATE_TIME ( #191, #149 ) ;
#141 = APPROVAL_STATUS ( 'not_yet_approved' ) ;
#142 = AXIS2_PLACEMENT_3D ( 'NONE', #250, #226, #249 ) ;
#143 = ORIENTED_EDGE ( 'NONE', *, *, #13, .T. ) ;
#144 = COORDINATED_UNIVERSAL_TIME_OFFSET ( 10, 0, .AHEAD. ) ;
#145 = FACE_BOUND ( 'NONE', #160, .T. ) ;
#146 = FACE_BOUND ( 'NONE', #55, .T. ) ;
#147 = CC_DESIGN_SECURITY_CLASSIFICATION ( #70, ( #78 ) ) ;
#148 = CARTESIAN_POINT ( 'NONE',  ( 0.000000000000000000, 2.957522019940855563E-15, 0.000000000000000000 ) ) ;
#149 = APPROVAL ( #141, 'UNSPECIFIED' ) ;
#150 = CIRCLE ( 'NONE', #227, 24.14999999999997371 ) ;
#151 = EDGE_LOOP ( 'NONE', ( #247, #143, #213, #196 ) ) ;
#152 = VERTEX_POINT ( 'NONE', #115 ) ;
#153 = AXIS2_PLACEMENT_3D ( 'NONE', #36, #39, #98 ) ;
#154 = DIRECTION ( 'NONE',  ( 0.9063077870366492705, 0.000000000000000000, 0.4226182617407011066 ) ) ;
#155 = LOCAL_TIME ( 12, 4, 50.00000000000000000, #43 ) ;
#156 = PERSON_AND_ORGANIZATION_ROLE ( 'design_supplier' ) ;
#157 = EDGE_LOOP ( 'NONE', ( #65, #177 ) ) ;
#158 = ORIENTED_EDGE ( 'NONE', *, *, #172, .T. ) ;
#159 = PERSON_AND_ORGANIZATION ( #85, #200 ) ;
#160 = EDGE_LOOP ( 'NONE', ( #221, #251 ) ) ;
#161 = CARTESIAN_POINT ( 'NONE',  ( 48.19125988612653089, 2.957522019940855958E-15, 689.1671241219999047 ) ) ;
#162 = FACE_OUTER_BOUND ( 'NONE', #157, .T. ) ;
#163 = CARTESIAN_POINT ( 'NONE',  ( 628.6332072443609604, 2.618294856577037578E-15, 293.1364787085845478 ) ) ;
#164 = AXIS2_PLACEMENT_3D ( 'NONE', #131, #134, #118 ) ;
#165 = CLOSED_SHELL ( 'NONE', ( #133, #71, #252, #62, #114, #23 ) ) ;
#166 = TOROIDAL_SURFACE ( 'NONE', #34, 715.0000000000001137, 21.37999999999997058 ) ;
#167 = FACE_OUTER_BOUND ( 'NONE', #198, .T. ) ;
#168 =( GEOMETRIC_REPRESENTATION_CONTEXT ( 3 ) GLOBAL_UNCERTAINTY_ASSIGNED_CONTEXT ( ( #215 ) ) GLOBAL_UNIT_ASSIGNED_CONTEXT ( ( #28, #105, #201 ) ) REPRESENTATION_CONTEXT ( 'NONE', 'WORKASPACE' ) );
#169 = DATE_TIME_ROLE ( 'classification_date' ) ;
#170 = DIRECTION ( 'NONE',  ( 0.000000000000000000, 0.000000000000000000, 1.000000000000000000 ) ) ;
#171 = PERSON_AND_ORGANIZATION ( #85, #200 ) ;
#172 = EDGE_CURVE ( 'NONE', #210, #185, #40, .T. ) ;
#173 = CALENDAR_DATE ( 2025, 20, 11 ) ;
#174 = PERSON_AND_ORGANIZATION_ROLE ( 'creator' ) ;
#175 = CIRCLE ( 'NONE', #94, 693.6200000000001182 ) ;
#176 = ORIENTED_EDGE ( 'NONE', *, *, #187, .F. ) ;
#177 = ORIENTED_EDGE ( 'NONE', *, *, #206, .T. ) ;
#178 = CARTESIAN_POINT ( 'NONE',  ( 0.000000000000000000, 0.000000000000000000, 0.000000000000000000 ) ) ;
#179 = DIRECTION ( 'NONE',  ( -0.4226182617407002740, 0.000000000000000000, 0.9063077870366496036 ) ) ;
#180 = APPLICATION_CONTEXT ( 'configuration controlled 3d designs of mechanical parts and assemblies' ) ;
#181 = DIRECTION ( 'NONE',  ( -0.9975640502598246417, 0.000000000000000000, 0.06975647374412174972 ) ) ;
#182 = LOCAL_TIME ( 12, 4, 50.00000000000000000, #189 ) ;
#183 = CC_DESIGN_PERSON_AND_ORGANIZATION_ASSIGNMENT ( #66, #127, ( #78 ) ) ;
#184 = DIRECTION ( 'NONE',  ( -0.9975640502598246417, 0.000000000000000000, 0.06975647374412174972 ) ) ;
#185 = VERTEX_POINT ( 'NONE', #163 ) ;
#186 = APPROVAL_PERSON_ORGANIZATION ( #193, #228, #67 ) ;
#187 = EDGE_CURVE ( 'NONE', #6, #50, #54, .T. ) ;
#188 = AXIS2_PLACEMENT_3D ( 'NONE', #211, #170, #242 ) ;
#189 = COORDINATED_UNIVERSAL_TIME_OFFSET ( 10, 0, .AHEAD. ) ;
#190 = PERSON_AND_ORGANIZATION ( #85, #200 ) ;
#191 = DATE_AND_TIME ( #88, #246 ) ;
#192 = DIRECTION ( 'NONE',  ( 0.000000000000000000, 0.000000000000000000, -1.000000000000000000 ) ) ;
#193 = PERSON_AND_ORGANIZATION ( #85, #200 ) ;
#194 = CARTESIAN_POINT ( 'NONE',  ( 0.000000000000000000, 0.000000000000000000, 0.000000000000000000 ) ) ;
#195 = AXIS2_PLACEMENT_3D ( 'NONE', #130, #111, #93 ) ;
#196 = ORIENTED_EDGE ( 'NONE', *, *, #206, .F. ) ;
#197 = FACE_OUTER_BOUND ( 'NONE', #9, .T. ) ;
#198 = EDGE_LOOP ( 'NONE', ( #76, #240, #102, #176 ) ) ;
#199 = PERSON_AND_ORGANIZATION_ROLE ( 'design_owner' ) ;
#200 = ORGANIZATION ( 'UNSPECIFIED', 'UNSPECIFIED', '' ) ;
#201 =( NAMED_UNIT ( * ) SI_UNIT ( $, .STERADIAN. ) SOLID_ANGLE_UNIT ( ) );
#202 = FACE_OUTER_BOUND ( 'NONE', #151, .T. ) ;
#203 = ORIENTED_EDGE ( 'NONE', *, *, #38, .T. ) ;
#204 = DIRECTION ( 'NONE',  ( 0.9063077870366494926, 0.000000000000000000, 0.4226182617407002184 ) ) ;
#205 = ADVANCED_BREP_SHAPE_REPRESENTATION ( '3435-50-017-01_REV_', ( #236, #188 ), #168 ) ;
#206 = EDGE_CURVE ( 'NONE', #56, #50, #150, .T. ) ;
#207 = PRODUCT_DEFINITION ( 'UNKNOWN', '', #78, #77 ) ;
#208 = EDGE_LOOP ( 'NONE', ( #132, #19, #135, #90 ) ) ;
#209 = DIRECTION ( 'NONE',  ( 0.9063077870366493816, 0.000000000000000000, 0.4226182617407008291 ) ) ;
#210 = VERTEX_POINT ( 'NONE', #100 ) ;
#211 = CARTESIAN_POINT ( 'NONE',  ( 0.000000000000000000, 0.000000000000000000, 0.000000000000000000 ) ) ;
#212 = CC_DESIGN_APPROVAL ( #149, ( #78 ) ) ;
#213 = ORIENTED_EDGE ( 'NONE', *, *, #187, .T. ) ;
#214 = APPROVAL_ROLE ( '' ) ;
#215 = UNCERTAINTY_MEASURE_WITH_UNIT (LENGTH_MEASURE( 1.000000000000000082E-05 ), #28, 'distance_accuracy_value', 'NONE');
#216 = COORDINATED_UNIVERSAL_TIME_OFFSET ( 10, 0, .AHEAD. ) ;
#217 = CARTESIAN_POINT ( 'NONE',  ( 49.87587872704707337, 0.000000000000000000, 713.2582959357747541 ) ) ;
#218 = CC_DESIGN_PERSON_AND_ORGANIZATION_ASSIGNMENT ( #190, #199, ( #121 ) ) ;
#219 = APPROVAL_DATE_TIME ( #46, #44 ) ;
#220 = DIRECTION ( 'NONE',  ( -0.000000000000000000, -1.000000000000000000, 0.000000000000000000 ) ) ;
#221 = ORIENTED_EDGE ( 'NONE', *, *, #122, .F. ) ;
#222 = CARTESIAN_POINT ( 'NONE',  ( 0.000000000000000000, 0.000000000000000000, 0.000000000000000000 ) ) ;
#223 = AXIS2_PLACEMENT_3D ( 'NONE', #45, #79, #81 ) ;
#224 = AXIS2_PLACEMENT_3D ( 'NONE', #231, #184, #57 ) ;
#225 = CARTESIAN_POINT ( 'NONE',  ( 648.0100677312044581, 0.000000000000000000, 302.1720571446007284 ) ) ;
#226 = DIRECTION ( 'NONE',  ( -0.4226182617407002740, 0.000000000000000000, 0.9063077870366496036 ) ) ;
#227 = AXIS2_PLACEMENT_3D ( 'NONE', #75, #181, #17 ) ;
#228 = APPROVAL ( #2, 'UNSPECIFIED' ) ;
#229 = CC_DESIGN_PERSON_AND_ORGANIZATION_ASSIGNMENT ( #171, #156, ( #78 ) ) ;
#230 = DIRECTION ( 'NONE',  ( 0.9063077870366492705, 0.000000000000000000, 0.4226182617407011066 ) ) ;
#231 = CARTESIAN_POINT ( 'NONE',  ( 49.87587872704707337, 0.000000000000000000, 713.2582959357747541 ) ) ;
#232 = ORIENTED_EDGE ( 'NONE', *, *, #234, .F. ) ;
#233 = AXIS2_PLACEMENT_3D ( 'NONE', #225, #15, #209 ) ;
#234 = EDGE_CURVE ( 'NONE', #185, #210, #128, .T. ) ;
#235 = APPLICATION_CONTEXT ( 'configuration controlled 3d designs of mechanical parts and assemblies' ) ;
#236 = MANIFOLD_SOLID_BREP ( 'Stainless chs 48.3 X 2.7 CHS(1)', #165 ) ;
#237 = PERSON_AND_ORGANIZATION ( #85, #200 ) ;
#238 = CIRCLE ( 'NONE', #52, 24.14999999999993463 ) ;
#239 = LOCAL_TIME ( 12, 4, 50.00000000000000000, #216 ) ;
#240 = ORIENTED_EDGE ( 'NONE', *, *, #18, .T. ) ;
#241 = CALENDAR_DATE ( 2025, 20, 11 ) ;
#242 = DIRECTION ( 'NONE',  ( 1.000000000000000000, 0.000000000000000000, 0.000000000000000000 ) ) ;
#243 = APPROVAL_DATE_TIME ( #7, #228 ) ;
#244 = FACE_OUTER_BOUND ( 'NONE', #208, .T. ) ;
#245 = FACE_OUTER_BOUND ( 'NONE', #35, .T. ) ;
#246 = LOCAL_TIME ( 12, 4, 50.00000000000000000, #86 ) ;
#247 = ORIENTED_EDGE ( 'NONE', *, *, #18, .F. ) ;
#248 = DIRECTION ( 'NONE',  ( 0.000000000000000000, 0.000000000000000000, -1.000000000000000000 ) ) ;
#249 = DIRECTION ( 'NONE',  ( 0.9063077870366493816, 0.000000000000000000, 0.4226182617407008291 ) ) ;
#250 = CARTESIAN_POINT ( 'NONE',  ( 648.0100677312044581, 0.000000000000000000, 302.1720571446007284 ) ) ;
#251 = ORIENTED_EDGE ( 'NONE', *, *, #42, .F. ) ;
#252 = ADVANCED_FACE ( 'NONE', ( #202 ), #253, .T. ) ;
#253 = TOROIDAL_SURFACE ( 'NONE', #16, 715.0000000000001137, 24.14999999999998082 ) ;
ENDSEC;
END-ISO-10303-21;
