ISO-10303-21;
HEADER;
FILE_DESCRIPTION (( 'STEP AP203' ),
    '1' );
FILE_NAME ('3435-50-017-02_REV_.step',
    '2025-11-20T01:09:15',
    ( '' ),
    ( '' ),
    'SwSTEP 2.0',
    'SolidWorks 2025',
    '' );
FILE_SCHEMA (( 'CONFIG_CONTROL_DESIGN' ));
ENDSEC;

DATA;
#1 = CC_DESIGN_PERSON_AND_ORGANIZATION_ASSIGNMENT ( #9, #50, ( #104 ) ) ;
#2 = PERSON ( 'UNSPECIFIED', 'UNSPECIFIED', 'UNSPECIFIED', ('UNSPECIFIED'), ('UNSPECIFIED'), ('UNSPECIFIED') ) ;
#3 = EDGE_CURVE ( 'NONE', #217, #140, #156, .T. ) ;
#4 = APPROVAL ( #190, 'UNSPECIFIED' ) ;
#5 = SECURITY_CLASSIFICATION ( '', '', #31 ) ;
#6 = ADVANCED_FACE ( 'NONE', ( #165 ), #53, .F. ) ;
#7 = DIRECTION ( 'NONE',  ( 1.404808879793206115E-17, -1.000000000000000000, -0.000000000000000000 ) ) ;
#8 = CARTESIAN_POINT ( 'NONE',  ( 0.000000000000000000, 143.0000000000000284, 0.000000000000000000 ) ) ;
#9 = PERSON_AND_ORGANIZATION ( #2, #44 ) ;
#10 = EDGE_CURVE ( 'NONE', #224, #140, #150, .T. ) ;
#11 = EDGE_LOOP ( 'NONE', ( #204, #220, #210, #70 ) ) ;
#12 = DIRECTION ( 'NONE',  ( -1.000000000000000000, 0.000000000000000000, 0.000000000000000000 ) ) ;
#13 = SHAPE_DEFINITION_REPRESENTATION ( #56, #100 ) ;
#14 = EDGE_LOOP ( 'NONE', ( #81, #198 ) ) ;
#15 = CALENDAR_DATE ( 2025, 20, 11 ) ;
#16 = CALENDAR_DATE ( 2025, 20, 11 ) ;
#17 = LINE ( 'NONE', #212, #34 ) ;
#18 = FACE_OUTER_BOUND ( 'NONE', #159, .T. ) ;
#19 = MANIFOLD_SOLID_BREP ( 'Stainless chs 48.3 X 3.68 CHS(1)', #42 ) ;
#20 = EDGE_CURVE ( 'NONE', #61, #191, #17, .T. ) ;
#21 = AXIS2_PLACEMENT_3D ( 'NONE', #177, #178, #22 ) ;
#22 = DIRECTION ( 'NONE',  ( -1.000000000000000000, 0.000000000000000000, 0.000000000000000000 ) ) ;
#23 = LOCAL_TIME ( 12, 9, 15.00000000000000000, #67 ) ;
#24 = CIRCLE ( 'NONE', #196, 20.47000000000000242 ) ;
#25 = DIRECTION ( 'NONE',  ( -1.000000000000000000, 0.000000000000000000, 0.000000000000000000 ) ) ;
#26 = CC_DESIGN_DATE_AND_TIME_ASSIGNMENT ( #181, #52, ( #5 ) ) ;
#27 = DIRECTION ( 'NONE',  ( 1.000000000000000000, 0.000000000000000000, 0.000000000000000000 ) ) ;
#28 = LOCAL_TIME ( 12, 9, 15.00000000000000000, #47 ) ;
#29 = EDGE_CURVE ( 'NONE', #191, #87, #172, .T. ) ;
#30 = PERSON_AND_ORGANIZATION ( #2, #44 ) ;
#31 = SECURITY_CLASSIFICATION_LEVEL ( 'unclassified' ) ;
#32 = PERSON_AND_ORGANIZATION ( #2, #44 ) ;
#33 = DIRECTION ( 'NONE',  ( -1.000000000000000000, 0.000000000000000000, 0.000000000000000000 ) ) ;
#34 = VECTOR ( 'NONE', #105, 1000.000000000000000 ) ;
#35 = DIRECTION ( 'NONE',  ( 1.404808879793206115E-17, -1.000000000000000000, -0.000000000000000000 ) ) ;
#36 = COORDINATED_UNIVERSAL_TIME_OFFSET ( 10, 0, .AHEAD. ) ;
#37 = DIRECTION ( 'NONE',  ( -1.000000000000000000, 0.000000000000000000, 0.000000000000000000 ) ) ;
#38 = DIRECTION ( 'NONE',  ( -1.000000000000000000, 0.000000000000000000, 0.000000000000000000 ) ) ;
#39 = EDGE_LOOP ( 'NONE', ( #126, #162 ) ) ;
#40 = VECTOR ( 'NONE', #35, 1000.000000000000000 ) ;
#41 = DIRECTION ( 'NONE',  ( -1.404808879793206115E-17, 1.000000000000000000, 0.000000000000000000 ) ) ;
#42 = CLOSED_SHELL ( 'NONE', ( #237, #158, #6, #179, #113, #84 ) ) ;
#43 = FACE_OUTER_BOUND ( 'NONE', #119, .T. ) ;
#44 = ORGANIZATION ( 'UNSPECIFIED', 'UNSPECIFIED', '' ) ;
#45 = VERTEX_POINT ( 'NONE', #129 ) ;
#46 = LINE ( 'NONE', #135, #193 ) ;
#47 = COORDINATED_UNIVERSAL_TIME_OFFSET ( 10, 0, .AHEAD. ) ;
#48 = PRODUCT_DEFINITION ( 'UNKNOWN', '', #104, #176 ) ;
#49 = APPROVAL_STATUS ( 'not_yet_approved' ) ;
#50 = PERSON_AND_ORGANIZATION_ROLE ( 'design_supplier' ) ;
#51 = VERTEX_POINT ( 'NONE', #108 ) ;
#52 = DATE_TIME_ROLE ( 'classification_date' ) ;
#53 = CYLINDRICAL_SURFACE ( 'NONE', #147, 20.47000000000000242 ) ;
#54 = APPROVAL_DATE_TIME ( #141, #213 ) ;
#55 = DIRECTION ( 'NONE',  ( -1.000000000000000000, -1.404808879793206115E-17, 0.000000000000000000 ) ) ;
#56 = PRODUCT_DEFINITION_SHAPE ( 'NONE', 'NONE',  #48 ) ;
#57 = CARTESIAN_POINT ( 'NONE',  ( 24.14999999999999858, 143.0000000000000284, 0.000000000000000000 ) ) ;
#58 = AXIS2_PLACEMENT_3D ( 'NONE', #111, #201, #38 ) ;
#59 =( NAMED_UNIT ( * ) PLANE_ANGLE_UNIT ( ) SI_UNIT ( $, .RADIAN. ) );
#60 = CARTESIAN_POINT ( 'NONE',  ( 0.000000000000000000, 143.0000000000000284, 0.000000000000000000 ) ) ;
#61 = VERTEX_POINT ( 'NONE', #89 ) ;
#62 = CC_DESIGN_APPROVAL ( #101, ( #5 ) ) ;
#63 = AXIS2_PLACEMENT_3D ( 'NONE', #71, #189, #33 ) ;
#64 = CC_DESIGN_PERSON_AND_ORGANIZATION_ASSIGNMENT ( #242, #123, ( #5 ) ) ;
#65 = CARTESIAN_POINT ( 'NONE',  ( 24.14999999999999858, 143.0000000000000284, 0.000000000000000000 ) ) ;
#66 = ORIENTED_EDGE ( 'NONE', *, *, #231, .T. ) ;
#67 = COORDINATED_UNIVERSAL_TIME_OFFSET ( 10, 0, .AHEAD. ) ;
#68 = AXIS2_PLACEMENT_3D ( 'NONE', #148, #227, #55 ) ;
#69 = APPROVAL_ROLE ( '' ) ;
#70 = ORIENTED_EDGE ( 'NONE', *, *, #29, .F. ) ;
#71 = CARTESIAN_POINT ( 'NONE',  ( 1.938636254114624888E-15, 5.000000000000000888, 0.000000000000000000 ) ) ;
#72 = FACE_OUTER_BOUND ( 'NONE', #107, .T. ) ;
#73 = CARTESIAN_POINT ( 'NONE',  ( -24.14999999999999858, 143.0000000000000284, 2.957522019940857930E-15 ) ) ;
#74 = DIRECTION ( 'NONE',  ( -1.404808879793206115E-17, 1.000000000000000000, 0.000000000000000000 ) ) ;
#75 = CC_DESIGN_APPROVAL ( #213, ( #104 ) ) ;
#76 = DIRECTION ( 'NONE',  ( 1.404808879793206115E-17, -1.000000000000000000, -0.000000000000000000 ) ) ;
#77 = DIRECTION ( 'NONE',  ( -1.000000000000000000, 0.000000000000000000, 0.000000000000000000 ) ) ;
#78 = EDGE_LOOP ( 'NONE', ( #168, #82, #117, #207 ) ) ;
#79 = PRODUCT ( '3435-50-017-02_REV_', '3435-50-017-02_REV_', '', ( #157 ) ) ;
#80 = AXIS2_PLACEMENT_3D ( 'NONE', #247, #41, #37 ) ;
#81 = ORIENTED_EDGE ( 'NONE', *, *, #143, .F. ) ;
#82 = ORIENTED_EDGE ( 'NONE', *, *, #99, .T. ) ;
#83 = PERSON_AND_ORGANIZATION ( #2, #44 ) ;
#84 = ADVANCED_FACE ( 'NONE', ( #245, #72 ), #167, .F. ) ;
#85 = CARTESIAN_POINT ( 'NONE',  ( 1.938636254114624888E-15, 5.000000000000000888, 0.000000000000000000 ) ) ;
#86 = APPLICATION_PROTOCOL_DEFINITION ( 'international standard', 'config_control_design', 1994, #149 ) ;
#87 = VERTEX_POINT ( 'NONE', #223 ) ;
#88 = APPROVAL_ROLE ( '' ) ;
#89 = CARTESIAN_POINT ( 'NONE',  ( -20.47000000000000242, 143.0000000000000284, 2.506851997854632159E-15 ) ) ;
#90 = DIRECTION ( 'NONE',  ( 1.000000000000000000, 0.000000000000000000, 0.000000000000000000 ) ) ;
#91 = CC_DESIGN_PERSON_AND_ORGANIZATION_ASSIGNMENT ( #137, #218, ( #79 ) ) ;
#92 = AXIS2_PLACEMENT_3D ( 'NONE', #236, #214, #195 ) ;
#93 = AXIS2_PLACEMENT_3D ( 'NONE', #85, #164, #124 ) ;
#94 = APPLICATION_CONTEXT ( 'configuration controlled 3d designs of mechanical parts and assemblies' ) ;
#95 = CARTESIAN_POINT ( 'NONE',  ( 0.000000000000000000, 143.0000000000000284, 0.000000000000000000 ) ) ;
#96 = UNCERTAINTY_MEASURE_WITH_UNIT (LENGTH_MEASURE( 1.000000000000000082E-05 ), #234, 'distance_accuracy_value', 'NONE');
#97 = CYLINDRICAL_SURFACE ( 'NONE', #249, 20.47000000000000242 ) ;
#98 = CARTESIAN_POINT ( 'NONE',  ( 0.000000000000000000, 143.0000000000000284, 0.000000000000000000 ) ) ;
#99 = EDGE_CURVE ( 'NONE', #45, #217, #208, .T. ) ;
#100 = ADVANCED_BREP_SHAPE_REPRESENTATION ( '3435-50-017-02_REV_', ( #19, #92 ), #203 ) ;
#101 = APPROVAL ( #103, 'UNSPECIFIED' ) ;
#102 = PERSON_AND_ORGANIZATION_ROLE ( 'creator' ) ;
#103 = APPROVAL_STATUS ( 'not_yet_approved' ) ;
#104 = PRODUCT_DEFINITION_FORMATION_WITH_SPECIFIED_SOURCE ( 'ANY', '', #79, .NOT_KNOWN. ) ;
#105 = DIRECTION ( 'NONE',  ( 1.404808879793206115E-17, -1.000000000000000000, -0.000000000000000000 ) ) ;
#106 = DATE_TIME_ROLE ( 'creation_date' ) ;
#107 = EDGE_LOOP ( 'NONE', ( #184, #122 ) ) ;
#108 = CARTESIAN_POINT ( 'NONE',  ( 20.47000000000000242, 143.0000000000000284, 0.000000000000000000 ) ) ;
#109 = APPROVAL_PERSON_ORGANIZATION ( #183, #213, #69 ) ;
#110 = DIRECTION ( 'NONE',  ( -1.404808879793206115E-17, 1.000000000000000000, 0.000000000000000000 ) ) ;
#111 = CARTESIAN_POINT ( 'NONE',  ( 0.000000000000000000, 143.0000000000000284, 0.000000000000000000 ) ) ;
#112 = CC_DESIGN_SECURITY_CLASSIFICATION ( #5, ( #104 ) ) ;
#113 = ADVANCED_FACE ( 'NONE', ( #192, #18 ), #171, .T. ) ;
#114 = CARTESIAN_POINT ( 'NONE',  ( -20.46999999999999886, 5.000000000000000888, 2.506851997854632159E-15 ) ) ;
#115 = CC_DESIGN_PERSON_AND_ORGANIZATION_ASSIGNMENT ( #244, #102, ( #104 ) ) ;
#116 = CARTESIAN_POINT ( 'NONE',  ( -24.14999999999999503, 5.000000000000000888, 2.957522019940857930E-15 ) ) ;
#117 = ORIENTED_EDGE ( 'NONE', *, *, #3, .T. ) ;
#118 = DIRECTION ( 'NONE',  ( -1.404808879793206115E-17, 1.000000000000000000, 0.000000000000000000 ) ) ;
#119 = EDGE_LOOP ( 'NONE', ( #146, #128, #229, #205 ) ) ;
#120 = ORIENTED_EDGE ( 'NONE', *, *, #99, .F. ) ;
#121 = EDGE_CURVE ( 'NONE', #224, #45, #186, .T. ) ;
#122 = ORIENTED_EDGE ( 'NONE', *, *, #3, .F. ) ;
#123 = PERSON_AND_ORGANIZATION_ROLE ( 'classification_officer' ) ;
#124 = DIRECTION ( 'NONE',  ( -1.000000000000000000, 0.000000000000000000, 0.000000000000000000 ) ) ;
#125 = DATE_AND_TIME ( #16, #28 ) ;
#126 = ORIENTED_EDGE ( 'NONE', *, *, #225, .T. ) ;
#127 = CIRCLE ( 'NONE', #21, 20.47000000000000242 ) ;
#128 = ORIENTED_EDGE ( 'NONE', *, *, #20, .T. ) ;
#129 = CARTESIAN_POINT ( 'NONE',  ( -24.14999999999999858, 143.0000000000000284, 2.957522019940857930E-15 ) ) ;
#130 = PRODUCT_RELATED_PRODUCT_CATEGORY ( 'detail', '', ( #79 ) ) ;
#131 = CARTESIAN_POINT ( 'NONE',  ( 0.000000000000000000, 143.0000000000000284, 0.000000000000000000 ) ) ;
#132 = CIRCLE ( 'NONE', #58, 20.47000000000000242 ) ;
#133 = LOCAL_TIME ( 12, 9, 15.00000000000000000, #222 ) ;
#134 = EDGE_CURVE ( 'NONE', #140, #217, #211, .T. ) ;
#135 = CARTESIAN_POINT ( 'NONE',  ( 20.47000000000000242, 143.0000000000000284, 0.000000000000000000 ) ) ;
#136 = LOCAL_TIME ( 12, 9, 15.00000000000000000, #166 ) ;
#137 = PERSON_AND_ORGANIZATION ( #2, #44 ) ;
#138 = DIRECTION ( 'NONE',  ( 1.000000000000000000, 0.000000000000000000, 0.000000000000000000 ) ) ;
#139 = CALENDAR_DATE ( 2025, 20, 11 ) ;
#140 = VERTEX_POINT ( 'NONE', #145 ) ;
#141 = DATE_AND_TIME ( #15, #133 ) ;
#142 = DIRECTION ( 'NONE',  ( 1.404808879793206115E-17, -1.000000000000000000, -0.000000000000000000 ) ) ;
#143 = EDGE_CURVE ( 'NONE', #51, #61, #132, .T. ) ;
#144 = APPROVAL_DATE_TIME ( #160, #4 ) ;
#145 = CARTESIAN_POINT ( 'NONE',  ( 24.15000000000000568, 5.000000000000000888, 0.000000000000000000 ) ) ;
#146 = ORIENTED_EDGE ( 'NONE', *, *, #143, .T. ) ;
#147 = AXIS2_PLACEMENT_3D ( 'NONE', #243, #142, #90 ) ;
#148 = CARTESIAN_POINT ( 'NONE',  ( 1.938636254114624888E-15, 5.000000000000000888, 0.000000000000000000 ) ) ;
#149 = APPLICATION_CONTEXT ( 'configuration controlled 3d designs of mechanical parts and assemblies' ) ;
#150 = LINE ( 'NONE', #57, #40 ) ;
#151 = DIRECTION ( 'NONE',  ( -1.000000000000000000, -1.404808879793206115E-17, 0.000000000000000000 ) ) ;
#152 = CC_DESIGN_APPROVAL ( #4, ( #48 ) ) ;
#153 = CC_DESIGN_DATE_AND_TIME_ASSIGNMENT ( #240, #106, ( #48 ) ) ;
#154 =( NAMED_UNIT ( * ) SI_UNIT ( $, .STERADIAN. ) SOLID_ANGLE_UNIT ( ) );
#155 = DIRECTION ( 'NONE',  ( 1.404808879793206115E-17, -1.000000000000000000, -0.000000000000000000 ) ) ;
#156 = CIRCLE ( 'NONE', #80, 24.14999999999999858 ) ;
#157 = MECHANICAL_CONTEXT ( 'NONE', #94, 'mechanical' ) ;
#158 = ADVANCED_FACE ( 'NONE', ( #43 ), #97, .F. ) ;
#159 = EDGE_LOOP ( 'NONE', ( #180, #66 ) ) ;
#160 = DATE_AND_TIME ( #139, #239 ) ;
#161 = CC_DESIGN_PERSON_AND_ORGANIZATION_ASSIGNMENT ( #30, #221, ( #48 ) ) ;
#162 = ORIENTED_EDGE ( 'NONE', *, *, #29, .T. ) ;
#163 = APPROVAL_PERSON_ORGANIZATION ( #32, #101, #88 ) ;
#164 = DIRECTION ( 'NONE',  ( -1.404808879793206115E-17, 1.000000000000000000, 0.000000000000000000 ) ) ;
#165 = FACE_OUTER_BOUND ( 'NONE', #11, .T. ) ;
#166 = COORDINATED_UNIVERSAL_TIME_OFFSET ( 10, 0, .AHEAD. ) ;
#167 = PLANE ( 'NONE',  #68 ) ;
#168 = ORIENTED_EDGE ( 'NONE', *, *, #231, .F. ) ;
#169 = APPROVAL_PERSON_ORGANIZATION ( #83, #4, #188 ) ;
#170 = EDGE_CURVE ( 'NONE', #61, #51, #127, .T. ) ;
#171 = PLANE ( 'NONE',  #174 ) ;
#172 = CIRCLE ( 'NONE', #63, 20.47000000000000242 ) ;
#173 = CYLINDRICAL_SURFACE ( 'NONE', #235, 24.14999999999999858 ) ;
#174 = AXIS2_PLACEMENT_3D ( 'NONE', #248, #74, #151 ) ;
#175 = DIRECTION ( 'NONE',  ( -1.404808879793206115E-17, 1.000000000000000000, 0.000000000000000000 ) ) ;
#176 = DESIGN_CONTEXT ( 'detailed design', #149, 'design' ) ;
#177 = CARTESIAN_POINT ( 'NONE',  ( 0.000000000000000000, 143.0000000000000284, 0.000000000000000000 ) ) ;
#178 = DIRECTION ( 'NONE',  ( -1.404808879793206115E-17, 1.000000000000000000, 0.000000000000000000 ) ) ;
#179 = ADVANCED_FACE ( 'NONE', ( #216 ), #173, .T. ) ;
#180 = ORIENTED_EDGE ( 'NONE', *, *, #121, .T. ) ;
#181 = DATE_AND_TIME ( #219, #136 ) ;
#182 = ORIENTED_EDGE ( 'NONE', *, *, #121, .F. ) ;
#183 = PERSON_AND_ORGANIZATION ( #2, #44 ) ;
#184 = ORIENTED_EDGE ( 'NONE', *, *, #134, .F. ) ;
#185 = APPROVAL_DATE_TIME ( #125, #101 ) ;
#186 = CIRCLE ( 'NONE', #215, 24.14999999999999858 ) ;
#187 = ORIENTED_EDGE ( 'NONE', *, *, #134, .T. ) ;
#188 = APPROVAL_ROLE ( '' ) ;
#189 = DIRECTION ( 'NONE',  ( -1.404808879793206115E-17, 1.000000000000000000, 0.000000000000000000 ) ) ;
#190 = APPROVAL_STATUS ( 'not_yet_approved' ) ;
#191 = VERTEX_POINT ( 'NONE', #114 ) ;
#192 = FACE_BOUND ( 'NONE', #14, .T. ) ;
#193 = VECTOR ( 'NONE', #76, 1000.000000000000000 ) ;
#194 = DIRECTION ( 'NONE',  ( 1.404808879793206115E-17, -1.000000000000000000, -0.000000000000000000 ) ) ;
#195 = DIRECTION ( 'NONE',  ( 1.000000000000000000, 0.000000000000000000, 0.000000000000000000 ) ) ;
#196 = AXIS2_PLACEMENT_3D ( 'NONE', #197, #118, #77 ) ;
#197 = CARTESIAN_POINT ( 'NONE',  ( 1.938636254114624888E-15, 5.000000000000000888, 0.000000000000000000 ) ) ;
#198 = ORIENTED_EDGE ( 'NONE', *, *, #170, .F. ) ;
#199 = APPLICATION_PROTOCOL_DEFINITION ( 'international standard', 'config_control_design', 1994, #94 ) ;
#200 = FACE_OUTER_BOUND ( 'NONE', #78, .T. ) ;
#201 = DIRECTION ( 'NONE',  ( -1.404808879793206115E-17, 1.000000000000000000, 0.000000000000000000 ) ) ;
#202 = CALENDAR_DATE ( 2025, 20, 11 ) ;
#203 =( GEOMETRIC_REPRESENTATION_CONTEXT ( 3 ) GLOBAL_UNCERTAINTY_ASSIGNED_CONTEXT ( ( #96 ) ) GLOBAL_UNIT_ASSIGNED_CONTEXT ( ( #234, #59, #154 ) ) REPRESENTATION_CONTEXT ( 'NONE', 'WORKASPACE' ) );
#204 = ORIENTED_EDGE ( 'NONE', *, *, #20, .F. ) ;
#205 = ORIENTED_EDGE ( 'NONE', *, *, #209, .F. ) ;
#206 = VECTOR ( 'NONE', #228, 1000.000000000000000 ) ;
#207 = ORIENTED_EDGE ( 'NONE', *, *, #10, .F. ) ;
#208 = LINE ( 'NONE', #73, #206 ) ;
#209 = EDGE_CURVE ( 'NONE', #51, #87, #46, .T. ) ;
#210 = ORIENTED_EDGE ( 'NONE', *, *, #209, .T. ) ;
#211 = CIRCLE ( 'NONE', #93, 24.14999999999999858 ) ;
#212 = CARTESIAN_POINT ( 'NONE',  ( -20.47000000000000242, 143.0000000000000284, 2.506851997854632159E-15 ) ) ;
#213 = APPROVAL ( #49, 'UNSPECIFIED' ) ;
#214 = DIRECTION ( 'NONE',  ( 0.000000000000000000, 0.000000000000000000, 1.000000000000000000 ) ) ;
#215 = AXIS2_PLACEMENT_3D ( 'NONE', #131, #110, #12 ) ;
#216 = FACE_OUTER_BOUND ( 'NONE', #241, .T. ) ;
#217 = VERTEX_POINT ( 'NONE', #116 ) ;
#218 = PERSON_AND_ORGANIZATION_ROLE ( 'design_owner' ) ;
#219 = CALENDAR_DATE ( 2025, 20, 11 ) ;
#220 = ORIENTED_EDGE ( 'NONE', *, *, #170, .T. ) ;
#221 = PERSON_AND_ORGANIZATION_ROLE ( 'creator' ) ;
#222 = COORDINATED_UNIVERSAL_TIME_OFFSET ( 10, 0, .AHEAD. ) ;
#223 = CARTESIAN_POINT ( 'NONE',  ( 20.47000000000000597, 5.000000000000000888, 0.000000000000000000 ) ) ;
#224 = VERTEX_POINT ( 'NONE', #65 ) ;
#225 = EDGE_CURVE ( 'NONE', #87, #191, #24, .T. ) ;
#226 = AXIS2_PLACEMENT_3D ( 'NONE', #98, #155, #233 ) ;
#227 = DIRECTION ( 'NONE',  ( -1.404808879793206115E-17, 1.000000000000000000, 0.000000000000000000 ) ) ;
#228 = DIRECTION ( 'NONE',  ( 1.404808879793206115E-17, -1.000000000000000000, -0.000000000000000000 ) ) ;
#229 = ORIENTED_EDGE ( 'NONE', *, *, #225, .F. ) ;
#230 = CIRCLE ( 'NONE', #246, 24.14999999999999858 ) ;
#231 = EDGE_CURVE ( 'NONE', #45, #224, #230, .T. ) ;
#232 = CYLINDRICAL_SURFACE ( 'NONE', #226, 24.14999999999999858 ) ;
#233 = DIRECTION ( 'NONE',  ( 1.000000000000000000, 0.000000000000000000, 0.000000000000000000 ) ) ;
#234 =( LENGTH_UNIT ( ) NAMED_UNIT ( * ) SI_UNIT ( .MILLI., .METRE. ) );
#235 = AXIS2_PLACEMENT_3D ( 'NONE', #60, #194, #138 ) ;
#236 = CARTESIAN_POINT ( 'NONE',  ( 0.000000000000000000, 0.000000000000000000, 0.000000000000000000 ) ) ;
#237 = ADVANCED_FACE ( 'NONE', ( #200 ), #232, .T. ) ;
#238 = ORIENTED_EDGE ( 'NONE', *, *, #10, .T. ) ;
#239 = LOCAL_TIME ( 12, 9, 15.00000000000000000, #36 ) ;
#240 = DATE_AND_TIME ( #202, #23 ) ;
#241 = EDGE_LOOP ( 'NONE', ( #120, #182, #238, #187 ) ) ;
#242 = PERSON_AND_ORGANIZATION ( #2, #44 ) ;
#243 = CARTESIAN_POINT ( 'NONE',  ( 0.000000000000000000, 143.0000000000000284, 0.000000000000000000 ) ) ;
#244 = PERSON_AND_ORGANIZATION ( #2, #44 ) ;
#245 = FACE_BOUND ( 'NONE', #39, .T. ) ;
#246 = AXIS2_PLACEMENT_3D ( 'NONE', #95, #175, #25 ) ;
#247 = CARTESIAN_POINT ( 'NONE',  ( 1.938636254114624888E-15, 5.000000000000000888, 0.000000000000000000 ) ) ;
#248 = CARTESIAN_POINT ( 'NONE',  ( 0.000000000000000000, 143.0000000000000284, 0.000000000000000000 ) ) ;
#249 = AXIS2_PLACEMENT_3D ( 'NONE', #8, #7, #27 ) ;
ENDSEC;
END-ISO-10303-21;
