ISO-10303-21;
HEADER;
FILE_DESCRIPTION (( 'STEP AP203' ),
    '1' );
FILE_NAME ('3435-50-018-01_REV_.step',
    '2025-11-20T01:09:34',
    ( '' ),
    ( '' ),
    'SwSTEP 2.0',
    'SolidWorks 2025',
    '' );
FILE_SCHEMA (( 'CONFIG_CONTROL_DESIGN' ));
ENDSEC;

DATA;
#1 = AXIS2_PLACEMENT_3D ( 'NONE', #125, #208, #165 ) ;
#2 = EDGE_CURVE ( 'NONE', #89, #160, #67, .T. ) ;
#3 = APPROVAL_STATUS ( 'not_yet_approved' ) ;
#4 = CARTESIAN_POINT ( 'NONE',  ( -588.2231204560223432, 2.618294856577037184E-15, 367.5626000574324621 ) ) ;
#5 = APPROVAL_STATUS ( 'not_yet_approved' ) ;
#6 = DIRECTION ( 'NONE',  ( -0.5299192642332003489, 0.000000000000000000, -0.8480480961564287323 ) ) ;
#7 = ADVANCED_FACE ( 'NONE', ( #13 ), #217, .T. ) ;
#8 = DIRECTION ( 'NONE',  ( 1.000000000000000000, 0.000000000000000000, 0.000000000000000000 ) ) ;
#9 = DIRECTION ( 'NONE',  ( 0.000000000000000000, 0.000000000000000000, -1.000000000000000000 ) ) ;
#10 = PERSON_AND_ORGANIZATION ( #129, #209 ) ;
#11 = CARTESIAN_POINT ( 'NONE',  ( 669.8974007881395210, 0.000000000000000000, 312.3782881656385939 ) ) ;
#12 = CALENDAR_DATE ( 2025, 20, 11 ) ;
#13 = FACE_OUTER_BOUND ( 'NONE', #117, .T. ) ;
#14 = AXIS2_PLACEMENT_3D ( 'NONE', #62, #6, #76 ) ;
#15 = AXIS2_PLACEMENT_3D ( 'NONE', #185, #202, #46 ) ;
#16 = CIRCLE ( 'NONE', #154, 736.3799999999999955 ) ;
#17 = CC_DESIGN_PERSON_AND_ORGANIZATION_ASSIGNMENT ( #207, #241, ( #110 ) ) ;
#18 = DIRECTION ( 'NONE',  ( -0.8480480961564278442, 0.000000000000000000, 0.5299192642332020142 ) ) ;
#19 = EDGE_CURVE ( 'NONE', #38, #72, #42, .T. ) ;
#20 = EDGE_LOOP ( 'NONE', ( #134, #218, #34, #35 ) ) ;
#21 = SECURITY_CLASSIFICATION_LEVEL ( 'unclassified' ) ;
#22 = EDGE_LOOP ( 'NONE', ( #36, #201, #242, #151 ) ) ;
#23 = CARTESIAN_POINT ( 'NONE',  ( -606.3543887518467272, 0.000000000000000000, 378.8922739267383122 ) ) ;
#24 = ADVANCED_FACE ( 'NONE', ( #181, #56 ), #58, .T. ) ;
#25 = DIRECTION ( 'NONE',  ( -0.4226182617407002740, 0.000000000000000000, 0.9063077870366496036 ) ) ;
#26 = COORDINATED_UNIVERSAL_TIME_OFFSET ( 10, 0, .AHEAD. ) ;
#27 = CARTESIAN_POINT ( 'NONE',  ( 648.0100677312044581, 0.000000000000000000, 302.1720571446007284 ) ) ;
#28 = UNCERTAINTY_MEASURE_WITH_UNIT (LENGTH_MEASURE( 1.000000000000000082E-05 ), #171, 'distance_accuracy_value', 'NONE');
#29 = PERSON_AND_ORGANIZATION_ROLE ( 'classification_officer' ) ;
#30 = DIRECTION ( 'NONE',  ( 0.9063077870366493816, 0.000000000000000000, 0.4226182617407008291 ) ) ;
#31 = DIRECTION ( 'NONE',  ( 0.000000000000000000, 0.000000000000000000, -1.000000000000000000 ) ) ;
#32 = APPLICATION_CONTEXT ( 'configuration controlled 3d designs of mechanical parts and assemblies' ) ;
#33 = CIRCLE ( 'NONE', #59, 693.6200000000001182 ) ;
#34 = ORIENTED_EDGE ( 'NONE', *, *, #19, .T. ) ;
#35 = ORIENTED_EDGE ( 'NONE', *, *, #210, .F. ) ;
#36 = ORIENTED_EDGE ( 'NONE', *, *, #172, .F. ) ;
#37 = APPROVAL_PERSON_ORGANIZATION ( #10, #195, #103 ) ;
#38 = VERTEX_POINT ( 'NONE', #225 ) ;
#39 = EDGE_CURVE ( 'NONE', #159, #198, #114, .T. ) ;
#40 = CARTESIAN_POINT ( 'NONE',  ( 648.0100677312044581, 0.000000000000000000, 302.1720571446007284 ) ) ;
#41 = ORIENTED_EDGE ( 'NONE', *, *, #199, .F. ) ;
#42 = CIRCLE ( 'NONE', #248, 21.38000000000001322 ) ;
#43 = CC_DESIGN_APPROVAL ( #51, ( #150 ) ) ;
#44 = FACE_OUTER_BOUND ( 'NONE', #112, .T. ) ;
#45 = CALENDAR_DATE ( 2025, 20, 11 ) ;
#46 = DIRECTION ( 'NONE',  ( 0.000000000000000000, 0.000000000000000000, -1.000000000000000000 ) ) ;
#47 = DIRECTION ( 'NONE',  ( -0.000000000000000000, -1.000000000000000000, 0.000000000000000000 ) ) ;
#48 = CIRCLE ( 'NONE', #1, 690.8500000000000227 ) ;
#49 = SHAPE_DEFINITION_REPRESENTATION ( #109, #214 ) ;
#50 = CC_DESIGN_SECURITY_CLASSIFICATION ( #150, ( #82 ) ) ;
#51 = APPROVAL ( #3, 'UNSPECIFIED' ) ;
#52 = ORIENTED_EDGE ( 'NONE', *, *, #2, .T. ) ;
#53 = ADVANCED_FACE ( 'NONE', ( #221, #104 ), #140, .F. ) ;
#54 = ORIENTED_EDGE ( 'NONE', *, *, #253, .T. ) ;
#55 = DIRECTION ( 'NONE',  ( -0.4226182617407002740, 0.000000000000000000, 0.9063077870366496036 ) ) ;
#56 = FACE_OUTER_BOUND ( 'NONE', #121, .T. ) ;
#57 = PERSON_AND_ORGANIZATION_ROLE ( 'design_supplier' ) ;
#58 = PLANE ( 'NONE',  #86 ) ;
#59 = AXIS2_PLACEMENT_3D ( 'NONE', #247, #229, #190 ) ;
#60 = COORDINATED_UNIVERSAL_TIME_OFFSET ( 10, 0, .AHEAD. ) ;
#61 = ORIENTED_EDGE ( 'NONE', *, *, #100, .F. ) ;
#62 = CARTESIAN_POINT ( 'NONE',  ( -606.3543887518467272, 0.000000000000000000, 378.8922739267383122 ) ) ;
#63 = CC_DESIGN_PERSON_AND_ORGANIZATION_ASSIGNMENT ( #161, #29, ( #150 ) ) ;
#64 = AXIS2_PLACEMENT_3D ( 'NONE', #99, #47, #9 ) ;
#65 = DIRECTION ( 'NONE',  ( -0.000000000000000000, -1.000000000000000000, 0.000000000000000000 ) ) ;
#66 = ADVANCED_FACE ( 'NONE', ( #44 ), #233, .T. ) ;
#67 = CIRCLE ( 'NONE', #147, 739.1500000000000909 ) ;
#68 = ORIENTED_EDGE ( 'NONE', *, *, #219, .F. ) ;
#69 = VERTEX_POINT ( 'NONE', #123 ) ;
#70 = CC_DESIGN_PERSON_AND_ORGANIZATION_ASSIGNMENT ( #178, #203, ( #82 ) ) ;
#71 = AXIS2_PLACEMENT_3D ( 'NONE', #93, #204, #73 ) ;
#72 = VERTEX_POINT ( 'NONE', #4 ) ;
#73 = DIRECTION ( 'NONE',  ( 0.000000000000000000, 0.000000000000000000, -1.000000000000000000 ) ) ;
#74 = AXIS2_PLACEMENT_3D ( 'NONE', #228, #65, #130 ) ;
#75 = PERSON_AND_ORGANIZATION_ROLE ( 'design_owner' ) ;
#76 = DIRECTION ( 'NONE',  ( -0.8480480961564278442, 0.000000000000000000, 0.5299192642332020142 ) ) ;
#77 = PERSON_AND_ORGANIZATION ( #129, #209 ) ;
#78 = EDGE_LOOP ( 'NONE', ( #113, #54 ) ) ;
#79 = PERSON_AND_ORGANIZATION ( #129, #209 ) ;
#80 = CIRCLE ( 'NONE', #186, 24.14999999999993463 ) ;
#81 = DATE_AND_TIME ( #12, #97 ) ;
#82 = PRODUCT_DEFINITION_FORMATION_WITH_SPECIFIED_SOURCE ( 'ANY', '', #252, .NOT_KNOWN. ) ;
#83 = CARTESIAN_POINT ( 'NONE',  ( 648.0100677312044581, 0.000000000000000000, 302.1720571446007284 ) ) ;
#84 = CARTESIAN_POINT ( 'NONE',  ( 0.000000000000000000, 0.000000000000000000, 0.000000000000000000 ) ) ;
#85 = EDGE_CURVE ( 'NONE', #89, #69, #192, .T. ) ;
#86 = AXIS2_PLACEMENT_3D ( 'NONE', #23, #182, #243 ) ;
#87 = APPROVAL ( #5, 'UNSPECIFIED' ) ;
#88 = APPROVAL_PERSON_ORGANIZATION ( #77, #87, #98 ) ;
#89 = VERTEX_POINT ( 'NONE', #11 ) ;
#90 = MANIFOLD_SOLID_BREP ( 'Stainless chs 48.3 X 2.7 CHS(1)', #196 ) ;
#91 = DATE_TIME_ROLE ( 'classification_date' ) ;
#92 = ADVANCED_FACE ( 'NONE', ( #119 ), #133, .F. ) ;
#93 = CARTESIAN_POINT ( 'NONE',  ( 0.000000000000000000, 0.000000000000000000, 0.000000000000000000 ) ) ;
#94 = CALENDAR_DATE ( 2025, 20, 11 ) ;
#95 = DIRECTION ( 'NONE',  ( -0.000000000000000000, -1.000000000000000000, 0.000000000000000000 ) ) ;
#96 = LOCAL_TIME ( 12, 9, 34.00000000000000000, #60 ) ;
#97 = LOCAL_TIME ( 12, 9, 34.00000000000000000, #184 ) ;
#98 = APPROVAL_ROLE ( '' ) ;
#99 = CARTESIAN_POINT ( 'NONE',  ( 0.000000000000000000, 0.000000000000000000, 0.000000000000000000 ) ) ;
#100 = EDGE_CURVE ( 'NONE', #69, #152, #48, .T. ) ;
#101 = MECHANICAL_CONTEXT ( 'NONE', #231, 'mechanical' ) ;
#102 = DIRECTION ( 'NONE',  ( 0.9063077870366492705, 0.000000000000000000, 0.4226182617407011066 ) ) ;
#103 = APPROVAL_ROLE ( '' ) ;
#104 = FACE_OUTER_BOUND ( 'NONE', #173, .T. ) ;
#105 = CARTESIAN_POINT ( 'NONE',  ( -606.3543887518467272, 0.000000000000000000, 378.8922739267383122 ) ) ;
#106 = DIRECTION ( 'NONE',  ( -0.5299192642332003489, 0.000000000000000000, -0.8480480961564287323 ) ) ;
#107 = AXIS2_PLACEMENT_3D ( 'NONE', #27, #55, #102 ) ;
#108 = DIRECTION ( 'NONE',  ( 0.9063077870366492705, 0.000000000000000000, 0.4226182617407011066 ) ) ;
#109 = PRODUCT_DEFINITION_SHAPE ( 'NONE', 'NONE',  #110 ) ;
#110 = PRODUCT_DEFINITION ( 'UNKNOWN', '', #82, #239 ) ;
#111 = CIRCLE ( 'NONE', #251, 21.37999999999993506 ) ;
#112 = EDGE_LOOP ( 'NONE', ( #138, #52, #68, #61 ) ) ;
#113 = ORIENTED_EDGE ( 'NONE', *, *, #39, .T. ) ;
#114 = CIRCLE ( 'NONE', #188, 21.37999999999993506 ) ;
#115 = CC_DESIGN_DATE_AND_TIME_ASSIGNMENT ( #81, #91, ( #150 ) ) ;
#116 = COORDINATED_UNIVERSAL_TIME_OFFSET ( 10, 0, .AHEAD. ) ;
#117 = EDGE_LOOP ( 'NONE', ( #176, #144, #145, #155 ) ) ;
#118 = CARTESIAN_POINT ( 'NONE',  ( 0.000000000000000000, 0.000000000000000000, 0.000000000000000000 ) ) ;
#119 = FACE_OUTER_BOUND ( 'NONE', #22, .T. ) ;
#120 = DATE_AND_TIME ( #94, #96 ) ;
#121 = EDGE_LOOP ( 'NONE', ( #175, #135 ) ) ;
#122 = APPROVAL_STATUS ( 'not_yet_approved' ) ;
#123 = CARTESIAN_POINT ( 'NONE',  ( 626.1227346742695090, 2.957522019940855958E-15, 291.9658261235628061 ) ) ;
#124 = APPROVAL_DATE_TIME ( #216, #195 ) ;
#125 = CARTESIAN_POINT ( 'NONE',  ( 0.000000000000000000, 2.957522019940855563E-15, 0.000000000000000000 ) ) ;
#126 = DATE_AND_TIME ( #211, #249 ) ;
#127 = CARTESIAN_POINT ( 'NONE',  ( -585.8740272296689682, 2.957522019940855958E-15, 366.0947236955064454 ) ) ;
#128 = DIRECTION ( 'NONE',  ( -0.000000000000000000, -1.000000000000000000, 0.000000000000000000 ) ) ;
#129 = PERSON ( 'UNSPECIFIED', 'UNSPECIFIED', 'UNSPECIFIED', ('UNSPECIFIED'), ('UNSPECIFIED'), ('UNSPECIFIED') ) ;
#130 = DIRECTION ( 'NONE',  ( 0.000000000000000000, 0.000000000000000000, -1.000000000000000000 ) ) ;
#131 = AXIS2_PLACEMENT_3D ( 'NONE', #105, #106, #18 ) ;
#132 = ORIENTED_EDGE ( 'NONE', *, *, #240, .F. ) ;
#133 = TOROIDAL_SURFACE ( 'NONE', #15, 715.0000000000001137, 21.37999999999997058 ) ;
#134 = ORIENTED_EDGE ( 'NONE', *, *, #253, .F. ) ;
#135 = ORIENTED_EDGE ( 'NONE', *, *, #166, .T. ) ;
#136 = CIRCLE ( 'NONE', #227, 21.38000000000001322 ) ;
#137 =( NAMED_UNIT ( * ) SI_UNIT ( $, .STERADIAN. ) SOLID_ANGLE_UNIT ( ) );
#138 = ORIENTED_EDGE ( 'NONE', *, *, #240, .T. ) ;
#139 = APPLICATION_PROTOCOL_DEFINITION ( 'international standard', 'config_control_design', 1994, #231 ) ;
#140 = PLANE ( 'NONE',  #223 ) ;
#141 = DIRECTION ( 'NONE',  ( 0.000000000000000000, 0.000000000000000000, -1.000000000000000000 ) ) ;
#142 = CIRCLE ( 'NONE', #14, 24.14999999999995239 ) ;
#143 = DATE_AND_TIME ( #45, #235 ) ;
#144 = ORIENTED_EDGE ( 'NONE', *, *, #85, .T. ) ;
#145 = ORIENTED_EDGE ( 'NONE', *, *, #100, .T. ) ;
#146 = DIRECTION ( 'NONE',  ( 0.9063077870366493816, 0.000000000000000000, 0.4226182617407008291 ) ) ;
#147 = AXIS2_PLACEMENT_3D ( 'NONE', #156, #95, #141 ) ;
#148 = COORDINATED_UNIVERSAL_TIME_OFFSET ( 10, 0, .AHEAD. ) ;
#149 = CARTESIAN_POINT ( 'NONE',  ( 648.0100677312044581, 0.000000000000000000, 302.1720571446007284 ) ) ;
#150 = SECURITY_CLASSIFICATION ( '', '', #21 ) ;
#151 = ORIENTED_EDGE ( 'NONE', *, *, #199, .T. ) ;
#152 = VERTEX_POINT ( 'NONE', #127 ) ;
#153 = TOROIDAL_SURFACE ( 'NONE', #74, 715.0000000000001137, 21.37999999999997058 ) ;
#154 = AXIS2_PLACEMENT_3D ( 'NONE', #84, #128, #31 ) ;
#155 = ORIENTED_EDGE ( 'NONE', *, *, #166, .F. ) ;
#156 = CARTESIAN_POINT ( 'NONE',  ( 0.000000000000000000, 0.000000000000000000, 0.000000000000000000 ) ) ;
#157 = CC_DESIGN_PERSON_AND_ORGANIZATION_ASSIGNMENT ( #205, #75, ( #252 ) ) ;
#158 = DATE_TIME_ROLE ( 'creation_date' ) ;
#159 = VERTEX_POINT ( 'NONE', #244 ) ;
#160 = VERTEX_POINT ( 'NONE', #179 ) ;
#161 = PERSON_AND_ORGANIZATION ( #129, #209 ) ;
#162 = DIRECTION ( 'NONE',  ( 0.9063077870366494926, 0.000000000000000000, 0.4226182617407002184 ) ) ;
#163 =( GEOMETRIC_REPRESENTATION_CONTEXT ( 3 ) GLOBAL_UNCERTAINTY_ASSIGNED_CONTEXT ( ( #28 ) ) GLOBAL_UNIT_ASSIGNED_CONTEXT ( ( #171, #234, #137 ) ) REPRESENTATION_CONTEXT ( 'NONE', 'WORKASPACE' ) );
#164 = APPLICATION_PROTOCOL_DEFINITION ( 'international standard', 'config_control_design', 1994, #32 ) ;
#165 = DIRECTION ( 'NONE',  ( 0.000000000000000000, 0.000000000000000000, -1.000000000000000000 ) ) ;
#166 = EDGE_CURVE ( 'NONE', #160, #152, #142, .T. ) ;
#167 = DIRECTION ( 'NONE',  ( -0.8480480961564286213, 0.000000000000000000, 0.5299192642332005709 ) ) ;
#168 = FACE_OUTER_BOUND ( 'NONE', #20, .T. ) ;
#169 = APPROVAL_DATE_TIME ( #126, #51 ) ;
#170 = AXIS2_PLACEMENT_3D ( 'NONE', #118, #237, #8 ) ;
#171 =( LENGTH_UNIT ( ) NAMED_UNIT ( * ) SI_UNIT ( .MILLI., .METRE. ) );
#172 = EDGE_CURVE ( 'NONE', #198, #38, #16, .T. ) ;
#173 = EDGE_LOOP ( 'NONE', ( #132, #226 ) ) ;
#174 = CIRCLE ( 'NONE', #131, 24.14999999999995239 ) ;
#175 = ORIENTED_EDGE ( 'NONE', *, *, #219, .T. ) ;
#176 = ORIENTED_EDGE ( 'NONE', *, *, #2, .F. ) ;
#177 = PERSON_AND_ORGANIZATION ( #129, #209 ) ;
#178 = PERSON_AND_ORGANIZATION ( #129, #209 ) ;
#179 = CARTESIAN_POINT ( 'NONE',  ( -626.8347502740246000, 0.000000000000000000, 391.6898241579701221 ) ) ;
#180 = CC_DESIGN_APPROVAL ( #87, ( #110 ) ) ;
#181 = FACE_BOUND ( 'NONE', #194, .T. ) ;
#182 = DIRECTION ( 'NONE',  ( -0.5299192642332003489, 0.000000000000000000, -0.8480480961564288434 ) ) ;
#183 = ADVANCED_FACE ( 'NONE', ( #168 ), #153, .F. ) ;
#184 = COORDINATED_UNIVERSAL_TIME_OFFSET ( 10, 0, .AHEAD. ) ;
#185 = CARTESIAN_POINT ( 'NONE',  ( 0.000000000000000000, 0.000000000000000000, 0.000000000000000000 ) ) ;
#186 = AXIS2_PLACEMENT_3D ( 'NONE', #149, #213, #108 ) ;
#187 = DIRECTION ( 'NONE',  ( -0.5299192642332003489, 0.000000000000000000, -0.8480480961564287323 ) ) ;
#188 = AXIS2_PLACEMENT_3D ( 'NONE', #83, #206, #30 ) ;
#189 = LOCAL_TIME ( 12, 9, 34.00000000000000000, #26 ) ;
#190 = DIRECTION ( 'NONE',  ( 0.000000000000000000, 0.000000000000000000, -1.000000000000000000 ) ) ;
#191 = CARTESIAN_POINT ( 'NONE',  ( 648.0100677312044581, 0.000000000000000000, 302.1720571446007284 ) ) ;
#192 = CIRCLE ( 'NONE', #107, 24.14999999999993463 ) ;
#193 = APPROVAL_PERSON_ORGANIZATION ( #177, #51, #245 ) ;
#194 = EDGE_LOOP ( 'NONE', ( #41, #215 ) ) ;
#195 = APPROVAL ( #122, 'UNSPECIFIED' ) ;
#196 = CLOSED_SHELL ( 'NONE', ( #66, #183, #7, #24, #53, #92 ) ) ;
#197 = CC_DESIGN_APPROVAL ( #195, ( #82 ) ) ;
#198 = VERTEX_POINT ( 'NONE', #212 ) ;
#199 = EDGE_CURVE ( 'NONE', #72, #38, #136, .T. ) ;
#200 = APPROVAL_DATE_TIME ( #143, #87 ) ;
#201 = ORIENTED_EDGE ( 'NONE', *, *, #39, .F. ) ;
#202 = DIRECTION ( 'NONE',  ( -0.000000000000000000, -1.000000000000000000, 0.000000000000000000 ) ) ;
#203 = PERSON_AND_ORGANIZATION_ROLE ( 'creator' ) ;
#204 = DIRECTION ( 'NONE',  ( -0.000000000000000000, -1.000000000000000000, 0.000000000000000000 ) ) ;
#205 = PERSON_AND_ORGANIZATION ( #129, #209 ) ;
#206 = DIRECTION ( 'NONE',  ( -0.4226182617407002740, 0.000000000000000000, 0.9063077870366496036 ) ) ;
#207 = PERSON_AND_ORGANIZATION ( #129, #209 ) ;
#208 = DIRECTION ( 'NONE',  ( -0.000000000000000000, -1.000000000000000000, 0.000000000000000000 ) ) ;
#209 = ORGANIZATION ( 'UNSPECIFIED', 'UNSPECIFIED', '' ) ;
#210 = EDGE_CURVE ( 'NONE', #159, #72, #33, .T. ) ;
#211 = CALENDAR_DATE ( 2025, 20, 11 ) ;
#212 = CARTESIAN_POINT ( 'NONE',  ( 667.3869282180480695, 0.000000000000000000, 311.2076355806168522 ) ) ;
#213 = DIRECTION ( 'NONE',  ( -0.4226182617407002740, 0.000000000000000000, 0.9063077870366496036 ) ) ;
#214 = ADVANCED_BREP_SHAPE_REPRESENTATION ( '3435-50-018-01_REV_', ( #90, #170 ), #163 ) ;
#215 = ORIENTED_EDGE ( 'NONE', *, *, #19, .F. ) ;
#216 = DATE_AND_TIME ( #224, #189 ) ;
#217 = TOROIDAL_SURFACE ( 'NONE', #71, 715.0000000000001137, 24.14999999999998082 ) ;
#218 = ORIENTED_EDGE ( 'NONE', *, *, #172, .T. ) ;
#219 = EDGE_CURVE ( 'NONE', #152, #160, #174, .T. ) ;
#220 = DIRECTION ( 'NONE',  ( -0.8480480961564286213, 0.000000000000000000, 0.5299192642332005709 ) ) ;
#221 = FACE_BOUND ( 'NONE', #78, .T. ) ;
#222 = CC_DESIGN_DATE_AND_TIME_ASSIGNMENT ( #120, #158, ( #110 ) ) ;
#223 = AXIS2_PLACEMENT_3D ( 'NONE', #40, #25, #162 ) ;
#224 = CALENDAR_DATE ( 2025, 20, 11 ) ;
#225 = CARTESIAN_POINT ( 'NONE',  ( -624.4856570476711113, 0.000000000000000000, 390.2219477960441054 ) ) ;
#226 = ORIENTED_EDGE ( 'NONE', *, *, #85, .F. ) ;
#227 = AXIS2_PLACEMENT_3D ( 'NONE', #250, #187, #167 ) ;
#228 = CARTESIAN_POINT ( 'NONE',  ( 0.000000000000000000, 0.000000000000000000, 0.000000000000000000 ) ) ;
#229 = DIRECTION ( 'NONE',  ( -0.000000000000000000, -1.000000000000000000, 0.000000000000000000 ) ) ;
#230 = PRODUCT_RELATED_PRODUCT_CATEGORY ( 'detail', '', ( #252 ) ) ;
#231 = APPLICATION_CONTEXT ( 'configuration controlled 3d designs of mechanical parts and assemblies' ) ;
#232 = CC_DESIGN_PERSON_AND_ORGANIZATION_ASSIGNMENT ( #79, #57, ( #82 ) ) ;
#233 = TOROIDAL_SURFACE ( 'NONE', #64, 715.0000000000001137, 24.14999999999998082 ) ;
#234 =( NAMED_UNIT ( * ) PLANE_ANGLE_UNIT ( ) SI_UNIT ( $, .RADIAN. ) );
#235 = LOCAL_TIME ( 12, 9, 34.00000000000000000, #116 ) ;
#236 = CARTESIAN_POINT ( 'NONE',  ( -606.3543887518467272, 0.000000000000000000, 378.8922739267383122 ) ) ;
#237 = DIRECTION ( 'NONE',  ( 0.000000000000000000, 0.000000000000000000, 1.000000000000000000 ) ) ;
#238 = DIRECTION ( 'NONE',  ( -0.5299192642332003489, 0.000000000000000000, -0.8480480961564287323 ) ) ;
#239 = DESIGN_CONTEXT ( 'detailed design', #32, 'design' ) ;
#240 = EDGE_CURVE ( 'NONE', #69, #89, #80, .T. ) ;
#241 = PERSON_AND_ORGANIZATION_ROLE ( 'creator' ) ;
#242 = ORIENTED_EDGE ( 'NONE', *, *, #210, .T. ) ;
#243 = DIRECTION ( 'NONE',  ( -0.8480480961564288434, 0.000000000000000000, 0.5299192642332003489 ) ) ;
#244 = CARTESIAN_POINT ( 'NONE',  ( 628.6332072443609604, 2.618294856577037578E-15, 293.1364787085845478 ) ) ;
#245 = APPROVAL_ROLE ( '' ) ;
#246 = DIRECTION ( 'NONE',  ( -0.4226182617407002740, 0.000000000000000000, 0.9063077870366496036 ) ) ;
#247 = CARTESIAN_POINT ( 'NONE',  ( 0.000000000000000000, 2.618294856577037578E-15, 0.000000000000000000 ) ) ;
#248 = AXIS2_PLACEMENT_3D ( 'NONE', #236, #238, #220 ) ;
#249 = LOCAL_TIME ( 12, 9, 34.00000000000000000, #148 ) ;
#250 = CARTESIAN_POINT ( 'NONE',  ( -606.3543887518467272, 0.000000000000000000, 378.8922739267383122 ) ) ;
#251 = AXIS2_PLACEMENT_3D ( 'NONE', #191, #246, #146 ) ;
#252 = PRODUCT ( '3435-50-018-01_REV_', '3435-50-018-01_REV_', '', ( #101 ) ) ;
#253 = EDGE_CURVE ( 'NONE', #198, #159, #111, .T. ) ;
ENDSEC;
END-ISO-10303-21;
